 0
SECTION
 2
HEADER
 9
$ACADVER
 1
AC1009
 0
ENDSEC
 0
SECTION
 2
TABLES
 0
TABLE
 2
LTYPE
 70
1
 0
LTYPE
 2
CONTINUOUS
 70
64
 3
solid line
 72
65
 73
0
 40
0.0
 0
ENDTAB
 0
TABLE
 2
LAYER
 70
6
 0
LAYER
 2
0
 70
0
 62
7
 6
CONTINUOUS
 0
LAYER
 2
F1SP30S1
 70
64
 62
7
 6
CONTINUOUS
 0
LAYER
 2
BASE3_1
 70
64
 62
39
 6
CONTINUOUS
 0
LAYER
 2
MANOPOLA3_1
 70
64
 62
253
 6
CONTINUOUS
 0
LAYER
 2
BASE3
 70
64
 62
39
 6
CONTINUOUS
 0
LAYER
 2
MANOPOLA3
 70
64
 62
253
 6
CONTINUOUS
 0
LAYER
 2
DIETRO
 70
64
 62
253
 6
CONTINUOUS
 0
LAYER
 2
FONDO
 70
64
 62
39
 6
CONTINUOUS
 0
LAYER
 2
ASTA
 70
64
 62
253
 6
CONTINUOUS
 0
LAYER
 2
CUBO
 70
64
 62
39
 6
CONTINUOUS
 0
LAYER
 2
ANTA
 70
64
 62
253
 6
CONTINUOUS
 0
LAYER
 2
CRUSCOTTO
 70
64
 62
253
 6
CONTINUOUS
 0
LAYER
 2
MANIGLIA
 70
64
 62
253
 6
CONTINUOUS
 0
LAYER
 2
ANTA_CORNICE
 70
64
 62
39
 6
CONTINUOUS
 0
LAYER
 2
ANTA_FINESTRA
 70
64
 62
37
 6
CONTINUOUS
 0
ENDTAB
 0
ENDSEC
 0
SECTION
 2
BLOCKS
 0
ENDSEC
 0
SECTION
 2
ENTITIES
 0
POLYLINE
 8
BASE3_1
 66
1
 10
0.0
 20
0.0
 30
0.0
 70
64
 71
207
 72
251
 0
VERTEX
 8
BASE3_1
 10
-16.2533
 20
-2.3679
 30
53.6941
 70
192
 0
VERTEX
 8
BASE3_1
 10
-15.9314
 20
-2.7681
 30
53.6941
 70
192
 0
VERTEX
 8
BASE3_1
 10
-14.3995
 20
-2.3679
 30
53.6941
 70
192
 0
VERTEX
 8
BASE3_1
 10
-17.8587
 20
-2.3679
 30
52.7673
 70
192
 0
VERTEX
 8
BASE3_1
 10
-14.4277
 20
-2.3679
 30
54.016
 70
192
 0
VERTEX
 8
BASE3_1
 10
-17.6733
 20
-2.3679
 30
52.5026
 70
192
 0
VERTEX
 8
BASE3_1
 10
-14.5113
 20
-2.3679
 30
54.3282
 70
192
 0
VERTEX
 8
BASE3_1
 10
-17.4448
 20
-2.3679
 30
52.2741
 70
192
 0
VERTEX
 8
BASE3_1
 10
-14.6479
 20
-2.3679
 30
54.621
 70
192
 0
VERTEX
 8
BASE3_1
 10
-17.1801
 20
-2.3679
 30
52.0888
 70
192
 0
VERTEX
 8
BASE3_1
 10
-14.8332
 20
-2.3679
 30
54.8857
 70
192
 0
VERTEX
 8
BASE3_1
 10
-16.8873
 20
-2.3679
 30
51.9522
 70
192
 0
VERTEX
 8
BASE3_1
 10
-15.0617
 20
-2.3679
 30
55.1142
 70
192
 0
VERTEX
 8
BASE3_1
 10
-16.5752
 20
-2.3679
 30
51.8686
 70
192
 0
VERTEX
 8
BASE3_1
 10
-16.2533
 20
-2.3679
 30
51.8404
 70
192
 0
VERTEX
 8
BASE3_1
 10
-15.3264
 20
-2.3679
 30
55.2995
 70
192
 0
VERTEX
 8
BASE3_1
 10
-15.9314
 20
-2.3679
 30
51.8686
 70
192
 0
VERTEX
 8
BASE3_1
 10
-15.6193
 20
-2.3679
 30
51.9522
 70
192
 0
VERTEX
 8
BASE3_1
 10
-15.6193
 20
-2.3679
 30
55.4361
 70
192
 0
VERTEX
 8
BASE3_1
 10
-15.3264
 20
-2.3679
 30
52.0888
 70
192
 0
VERTEX
 8
BASE3_1
 10
-15.9314
 20
-2.3679
 30
55.5197
 70
192
 0
VERTEX
 8
BASE3_1
 10
-16.8873
 20
-3.0693
 30
53.6941
 70
192
 0
VERTEX
 8
BASE3_1
 10
-15.6193
 20
-3.0693
 30
53.6941
 70
192
 0
VERTEX
 8
BASE3_1
 10
-16.2533
 20
-2.3679
 30
55.5479
 70
192
 0
VERTEX
 8
BASE3_1
 10
-16.5752
 20
-2.7681
 30
53.6941
 70
192
 0
VERTEX
 8
BASE3_1
 10
-16.2533
 20
-2.7681
 30
53.6941
 70
192
 0
VERTEX
 8
BASE3_1
 10
-15.0617
 20
-2.3679
 30
52.2741
 70
192
 0
VERTEX
 8
BASE3_1
 10
-16.5752
 20
-2.3679
 30
55.5197
 70
192
 0
VERTEX
 8
BASE3_1
 10
-16.8873
 20
-2.7681
 30
53.6941
 70
192
 0
VERTEX
 8
BASE3_1
 10
-15.6193
 20
-2.7681
 30
53.6941
 70
192
 0
VERTEX
 8
BASE3_1
 10
-16.8873
 20
-2.3679
 30
55.4361
 70
192
 0
VERTEX
 8
BASE3_1
 10
-14.8332
 20
-2.3679
 30
52.5026
 70
192
 0
VERTEX
 8
BASE3_1
 10
-17.1801
 20
-2.3679
 30
55.2995
 70
192
 0
VERTEX
 8
BASE3_1
 10
-14.6479
 20
-2.3679
 30
52.7673
 70
192
 0
VERTEX
 8
BASE3_1
 10
-17.4448
 20
-2.3679
 30
55.1142
 70
192
 0
VERTEX
 8
BASE3_1
 10
-14.5113
 20
-2.3679
 30
53.0601
 70
192
 0
VERTEX
 8
BASE3_1
 10
-17.6733
 20
-2.3679
 30
54.8857
 70
192
 0
VERTEX
 8
BASE3_1
 10
-14.4277
 20
-2.3679
 30
53.3722
 70
192
 0
VERTEX
 8
BASE3_1
 10
-17.8587
 20
-2.3679
 30
54.621
 70
192
 0
VERTEX
 8
BASE3_1
 10
-15.6193
 20
-2.7681
 30
51.9522
 70
192
 0
VERTEX
 8
BASE3_1
 10
-17.9952
 20
-2.3679
 30
54.3282
 70
192
 0
VERTEX
 8
BASE3_1
 10
-16.8873
 20
-2.7681
 30
55.4361
 70
192
 0
VERTEX
 8
BASE3_1
 10
-16.2533
 20
-2.7681
 30
55.5479
 70
192
 0
VERTEX
 8
BASE3_1
 10
-18.0788
 20
-2.3679
 30
54.016
 70
192
 0
VERTEX
 8
BASE3_1
 10
-16.5752
 20
-2.7681
 30
55.5197
 70
192
 0
VERTEX
 8
BASE3_1
 10
-16.8873
 20
-2.7681
 30
51.9522
 70
192
 0
VERTEX
 8
BASE3_1
 10
-18.107
 20
-2.3679
 30
53.6941
 70
192
 0
VERTEX
 8
BASE3_1
 10
-16.5752
 20
-2.7681
 30
51.8686
 70
192
 0
VERTEX
 8
BASE3_1
 10
-16.2533
 20
-2.7681
 30
51.8404
 70
192
 0
VERTEX
 8
BASE3_1
 10
-18.0788
 20
-2.3679
 30
53.3722
 70
192
 0
VERTEX
 8
BASE3_1
 10
-15.6193
 20
-2.7681
 30
55.4361
 70
192
 0
VERTEX
 8
BASE3_1
 10
-15.9314
 20
-2.7681
 30
55.5197
 70
192
 0
VERTEX
 8
BASE3_1
 10
-15.9314
 20
-2.7681
 30
51.8686
 70
192
 0
VERTEX
 8
BASE3_1
 10
-17.9952
 20
-2.3679
 30
53.0601
 70
192
 0
VERTEX
 8
BASE3_1
 10
-14.4277
 20
-3.0193
 30
54.016
 70
192
 0
VERTEX
 8
BASE3_1
 10
-17.1801
 20
-3.0193
 30
52.0888
 70
192
 0
VERTEX
 8
BASE3_1
 10
-14.3995
 20
-3.0193
 30
53.6941
 70
192
 0
VERTEX
 8
BASE3_1
 10
-14.5113
 20
-3.0193
 30
54.3282
 70
192
 0
VERTEX
 8
BASE3_1
 10
-17.6733
 20
-3.0193
 30
52.5026
 70
192
 0
VERTEX
 8
BASE3_1
 10
-14.6479
 20
-3.0193
 30
54.621
 70
192
 0
VERTEX
 8
BASE3_1
 10
-17.4448
 20
-3.0193
 30
52.2741
 70
192
 0
VERTEX
 8
BASE3_1
 10
-14.4763
 20
-3.0693
 30
53.3854
 70
192
 0
VERTEX
 8
BASE3_1
 10
-14.8332
 20
-3.0193
 30
54.8857
 70
192
 0
VERTEX
 8
BASE3_1
 10
-16.8873
 20
-3.0693
 30
55.3809
 70
192
 0
VERTEX
 8
BASE3_1
 10
-15.6193
 20
-3.0693
 30
52.0074
 70
192
 0
VERTEX
 8
BASE3_1
 10
-15.0617
 20
-3.0193
 30
55.1142
 70
192
 0
VERTEX
 8
BASE3_1
 10
-14.8621
 20
-3.0693
 30
52.5463
 70
192
 0
VERTEX
 8
BASE3_1
 10
-17.6445
 20
-3.0693
 30
52.5463
 70
192
 0
VERTEX
 8
BASE3_1
 10
-15.3264
 20
-3.0193
 30
55.2995
 70
192
 0
VERTEX
 8
BASE3_1
 10
-17.8213
 20
-3.0693
 30
52.8029
 70
192
 0
VERTEX
 8
BASE3_1
 10
-15.0811
 20
-3.0693
 30
52.3234
 70
192
 0
VERTEX
 8
BASE3_1
 10
-18.0302
 20
-3.0693
 30
53.3854
 70
192
 0
VERTEX
 8
BASE3_1
 10
-15.0811
 20
-3.0693
 30
55.0649
 70
192
 0
VERTEX
 8
BASE3_1
 10
-14.8621
 20
-3.0693
 30
54.842
 70
192
 0
VERTEX
 8
BASE3_1
 10
-14.4763
 20
-3.0693
 30
54.0029
 70
192
 0
VERTEX
 8
BASE3_1
 10
-15.6193
 20
-3.0693
 30
55.3809
 70
192
 0
VERTEX
 8
BASE3_1
 10
-15.336
 20
-3.0693
 30
55.247
 70
192
 0
VERTEX
 8
BASE3_1
 10
-17.4255
 20
-3.0693
 30
52.3234
 70
192
 0
VERTEX
 8
BASE3_1
 10
-16.8873
 20
-3.0693
 30
52.0074
 70
192
 0
VERTEX
 8
BASE3_1
 10
-17.1706
 20
-3.0693
 30
52.1412
 70
192
 0
VERTEX
 8
BASE3_1
 10
-15.0617
 20
-3.0193
 30
52.2741
 70
192
 0
VERTEX
 8
BASE3_1
 10
-17.951
 20
-3.0693
 30
53.0854
 70
192
 0
VERTEX
 8
BASE3_1
 10
-14.8332
 20
-3.0193
 30
52.5026
 70
192
 0
VERTEX
 8
BASE3_1
 10
-16.8873
 20
-3.0193
 30
51.9522
 70
192
 0
VERTEX
 8
BASE3_1
 10
-16.8873
 20
-3.0193
 30
55.4361
 70
192
 0
VERTEX
 8
BASE3_1
 10
-17.1801
 20
-3.0193
 30
55.2995
 70
192
 0
VERTEX
 8
BASE3_1
 10
-15.6193
 20
-3.0193
 30
51.9522
 70
192
 0
VERTEX
 8
BASE3_1
 10
-15.3264
 20
-3.0193
 30
52.0888
 70
192
 0
VERTEX
 8
BASE3_1
 10
-15.6193
 20
-3.0193
 30
55.4361
 70
192
 0
VERTEX
 8
BASE3_1
 10
-15.336
 20
-3.0693
 30
52.1412
 70
192
 0
VERTEX
 8
BASE3_1
 10
-14.4497
 20
-3.0693
 30
53.6941
 70
192
 0
VERTEX
 8
BASE3_1
 10
-14.6479
 20
-3.0193
 30
52.7673
 70
192
 0
VERTEX
 8
BASE3_1
 10
-14.5555
 20
-3.0693
 30
54.3029
 70
192
 0
VERTEX
 8
BASE3_1
 10
-14.6853
 20
-3.0693
 30
54.5853
 70
192
 0
VERTEX
 8
BASE3_1
 10
-17.9952
 20
-3.0193
 30
53.0601
 70
192
 0
VERTEX
 8
BASE3_1
 10
-17.8587
 20
-3.0193
 30
52.7673
 70
192
 0
VERTEX
 8
BASE3_1
 10
-17.1706
 20
-3.0693
 30
55.247
 70
192
 0
VERTEX
 8
BASE3_1
 10
-17.4448
 20
-3.0193
 30
55.1142
 70
192
 0
VERTEX
 8
BASE3_1
 10
-14.6853
 20
-3.0693
 30
52.8029
 70
192
 0
VERTEX
 8
BASE3_1
 10
-14.5113
 20
-3.0193
 30
53.0601
 70
192
 0
VERTEX
 8
BASE3_1
 10
-17.4255
 20
-3.0693
 30
55.0649
 70
192
 0
VERTEX
 8
BASE3_1
 10
-17.6733
 20
-3.0193
 30
54.8857
 70
192
 0
VERTEX
 8
BASE3_1
 10
-14.5555
 20
-3.0693
 30
53.0854
 70
192
 0
VERTEX
 8
BASE3_1
 10
-14.4277
 20
-3.0193
 30
53.3722
 70
192
 0
VERTEX
 8
BASE3_1
 10
-17.6445
 20
-3.0693
 30
54.842
 70
192
 0
VERTEX
 8
BASE3_1
 10
-17.8587
 20
-3.0193
 30
54.621
 70
192
 0
VERTEX
 8
BASE3_1
 10
-17.8213
 20
-3.0693
 30
54.5853
 70
192
 0
VERTEX
 8
BASE3_1
 10
-17.9952
 20
-3.0193
 30
54.3282
 70
192
 0
VERTEX
 8
BASE3_1
 10
-17.951
 20
-3.0693
 30
54.3029
 70
192
 0
VERTEX
 8
BASE3_1
 10
-18.0788
 20
-3.0193
 30
54.016
 70
192
 0
VERTEX
 8
BASE3_1
 10
-18.0302
 20
-3.0693
 30
54.0029
 70
192
 0
VERTEX
 8
BASE3_1
 10
-18.107
 20
-3.0193
 30
53.6941
 70
192
 0
VERTEX
 8
BASE3_1
 10
-18.0568
 20
-3.0693
 30
53.6941
 70
192
 0
VERTEX
 8
BASE3_1
 10
-18.0788
 20
-3.0193
 30
53.3722
 70
192
 0
VERTEX
 8
BASE3_1
 10
-14.403
 20
-3.0377
 30
53.6941
 70
192
 0
VERTEX
 8
BASE3_1
 10
-14.4142
 20
-3.0547
 30
53.6941
 70
192
 0
VERTEX
 8
BASE3_1
 10
-14.4312
 20
-3.0658
 30
53.6941
 70
192
 0
VERTEX
 8
BASE3_1
 10
-14.4311
 20
-3.0377
 30
54.0151
 70
192
 0
VERTEX
 8
BASE3_1
 10
-14.4419
 20
-3.0547
 30
54.0122
 70
192
 0
VERTEX
 8
BASE3_1
 10
-14.4584
 20
-3.0658
 30
54.0077
 70
192
 0
VERTEX
 8
BASE3_1
 10
-17.4435
 20
-3.0377
 30
52.2776
 70
192
 0
VERTEX
 8
BASE3_1
 10
-17.4392
 20
-3.0547
 30
52.2885
 70
192
 0
VERTEX
 8
BASE3_1
 10
-17.4326
 20
-3.0658
 30
52.3053
 70
192
 0
VERTEX
 8
BASE3_1
 10
-17.1795
 20
-3.0377
 30
52.0924
 70
192
 0
VERTEX
 8
BASE3_1
 10
-17.1773
 20
-3.0547
 30
52.1041
 70
192
 0
VERTEX
 8
BASE3_1
 10
-17.1741
 20
-3.0658
 30
52.1219
 70
192
 0
VERTEX
 8
BASE3_1
 10
-14.4311
 20
-3.0377
 30
53.3732
 70
192
 0
VERTEX
 8
BASE3_1
 10
-14.4419
 20
-3.0547
 30
53.3761
 70
192
 0
VERTEX
 8
BASE3_1
 10
-14.4584
 20
-3.0658
 30
53.3805
 70
192
 0
VERTEX
 8
BASE3_1
 10
-14.5144
 20
-3.0377
 30
54.3264
 70
192
 0
VERTEX
 8
BASE3_1
 10
-14.5243
 20
-3.0547
 30
54.3207
 70
192
 0
VERTEX
 8
BASE3_1
 10
-14.5393
 20
-3.0658
 30
54.3122
 70
192
 0
VERTEX
 8
BASE3_1
 10
-17.856
 20
-3.0377
 30
52.7698
 70
192
 0
VERTEX
 8
BASE3_1
 10
-17.8477
 20
-3.0547
 30
52.7777
 70
192
 0
VERTEX
 8
BASE3_1
 10
-17.835
 20
-3.0658
 30
52.7898
 70
192
 0
VERTEX
 8
BASE3_1
 10
-17.6713
 20
-3.0377
 30
52.5056
 70
192
 0
VERTEX
 8
BASE3_1
 10
-17.6649
 20
-3.0547
 30
52.5154
 70
192
 0
VERTEX
 8
BASE3_1
 10
-17.6551
 20
-3.0658
 30
52.5302
 70
192
 0
VERTEX
 8
BASE3_1
 10
-14.6505
 20
-3.0377
 30
54.6185
 70
192
 0
VERTEX
 8
BASE3_1
 10
-14.6588
 20
-3.0547
 30
54.6106
 70
192
 0
VERTEX
 8
BASE3_1
 10
-14.6715
 20
-3.0658
 30
54.5985
 70
192
 0
VERTEX
 8
BASE3_1
 10
-14.8352
 20
-3.0377
 30
54.8826
 70
192
 0
VERTEX
 8
BASE3_1
 10
-14.8417
 20
-3.0547
 30
54.8729
 70
192
 0
VERTEX
 8
BASE3_1
 10
-14.8515
 20
-3.0658
 30
54.8581
 70
192
 0
VERTEX
 8
BASE3_1
 10
-17.1741
 20
-3.0658
 30
55.2664
 70
192
 0
VERTEX
 8
BASE3_1
 10
-17.1773
 20
-3.0547
 30
55.2842
 70
192
 0
VERTEX
 8
BASE3_1
 10
-17.1795
 20
-3.0377
 30
55.2958
 70
192
 0
VERTEX
 8
BASE3_1
 10
-16.8873
 20
-3.0658
 30
55.4012
 70
192
 0
VERTEX
 8
BASE3_1
 10
-16.8873
 20
-3.0547
 30
55.4199
 70
192
 0
VERTEX
 8
BASE3_1
 10
-16.8873
 20
-3.0377
 30
55.4322
 70
192
 0
VERTEX
 8
BASE3_1
 10
-15.3324
 20
-3.0658
 30
52.1219
 70
192
 0
VERTEX
 8
BASE3_1
 10
-15.3292
 20
-3.0547
 30
52.1041
 70
192
 0
VERTEX
 8
BASE3_1
 10
-15.3271
 20
-3.0377
 30
52.0924
 70
192
 0
VERTEX
 8
BASE3_1
 10
-15.6193
 20
-3.0658
 30
51.9871
 70
192
 0
VERTEX
 8
BASE3_1
 10
-15.6193
 20
-3.0547
 30
51.9684
 70
192
 0
VERTEX
 8
BASE3_1
 10
-15.6193
 20
-3.0377
 30
51.9561
 70
192
 0
VERTEX
 8
BASE3_1
 10
-15.0631
 20
-3.0377
 30
55.1107
 70
192
 0
VERTEX
 8
BASE3_1
 10
-15.0674
 20
-3.0547
 30
55.0997
 70
192
 0
VERTEX
 8
BASE3_1
 10
-15.0739
 20
-3.0658
 30
55.083
 70
192
 0
VERTEX
 8
BASE3_1
 10
-14.6715
 20
-3.0658
 30
52.7898
 70
192
 0
VERTEX
 8
BASE3_1
 10
-14.6588
 20
-3.0547
 30
52.7777
 70
192
 0
VERTEX
 8
BASE3_1
 10
-14.6505
 20
-3.0377
 30
52.7698
 70
192
 0
VERTEX
 8
BASE3_1
 10
-14.8515
 20
-3.0658
 30
52.5302
 70
192
 0
VERTEX
 8
BASE3_1
 10
-14.8417
 20
-3.0547
 30
52.5154
 70
192
 0
VERTEX
 8
BASE3_1
 10
-14.8352
 20
-3.0377
 30
52.5056
 70
192
 0
VERTEX
 8
BASE3_1
 10
-15.3271
 20
-3.0377
 30
55.2958
 70
192
 0
VERTEX
 8
BASE3_1
 10
-15.3292
 20
-3.0547
 30
55.2842
 70
192
 0
VERTEX
 8
BASE3_1
 10
-15.3324
 20
-3.0658
 30
55.2664
 70
192
 0
VERTEX
 8
BASE3_1
 10
-15.0739
 20
-3.0658
 30
52.3053
 70
192
 0
VERTEX
 8
BASE3_1
 10
-15.0674
 20
-3.0547
 30
52.2885
 70
192
 0
VERTEX
 8
BASE3_1
 10
-15.0631
 20
-3.0377
 30
52.2776
 70
192
 0
VERTEX
 8
BASE3_1
 10
-17.9673
 20
-3.0658
 30
53.0761
 70
192
 0
VERTEX
 8
BASE3_1
 10
-17.9823
 20
-3.0547
 30
53.0675
 70
192
 0
VERTEX
 8
BASE3_1
 10
-17.9921
 20
-3.0377
 30
53.0619
 70
192
 0
VERTEX
 8
BASE3_1
 10
-18.0481
 20
-3.0658
 30
53.3805
 70
192
 0
VERTEX
 8
BASE3_1
 10
-18.0646
 20
-3.0547
 30
53.3761
 70
192
 0
VERTEX
 8
BASE3_1
 10
-18.0754
 20
-3.0377
 30
53.3732
 70
192
 0
VERTEX
 8
BASE3_1
 10
-15.6193
 20
-3.0658
 30
55.4012
 70
192
 0
VERTEX
 8
BASE3_1
 10
-15.6193
 20
-3.0547
 30
55.4199
 70
192
 0
VERTEX
 8
BASE3_1
 10
-15.6193
 20
-3.0377
 30
55.4322
 70
192
 0
VERTEX
 8
BASE3_1
 10
-16.8873
 20
-3.0658
 30
51.9871
 70
192
 0
VERTEX
 8
BASE3_1
 10
-16.8873
 20
-3.0547
 30
51.9684
 70
192
 0
VERTEX
 8
BASE3_1
 10
-16.8873
 20
-3.0377
 30
51.9561
 70
192
 0
VERTEX
 8
BASE3_1
 10
-17.4326
 20
-3.0658
 30
55.083
 70
192
 0
VERTEX
 8
BASE3_1
 10
-17.4392
 20
-3.0547
 30
55.0997
 70
192
 0
VERTEX
 8
BASE3_1
 10
-17.4435
 20
-3.0377
 30
55.1107
 70
192
 0
VERTEX
 8
BASE3_1
 10
-14.5393
 20
-3.0658
 30
53.0761
 70
192
 0
VERTEX
 8
BASE3_1
 10
-14.5243
 20
-3.0547
 30
53.0675
 70
192
 0
VERTEX
 8
BASE3_1
 10
-14.5144
 20
-3.0377
 30
53.0619
 70
192
 0
VERTEX
 8
BASE3_1
 10
-17.6551
 20
-3.0658
 30
54.8581
 70
192
 0
VERTEX
 8
BASE3_1
 10
-17.6649
 20
-3.0547
 30
54.8729
 70
192
 0
VERTEX
 8
BASE3_1
 10
-17.6713
 20
-3.0377
 30
54.8826
 70
192
 0
VERTEX
 8
BASE3_1
 10
-17.835
 20
-3.0658
 30
54.5985
 70
192
 0
VERTEX
 8
BASE3_1
 10
-17.8477
 20
-3.0547
 30
54.6106
 70
192
 0
VERTEX
 8
BASE3_1
 10
-17.856
 20
-3.0377
 30
54.6185
 70
192
 0
VERTEX
 8
BASE3_1
 10
-17.9673
 20
-3.0658
 30
54.3122
 70
192
 0
VERTEX
 8
BASE3_1
 10
-17.9823
 20
-3.0547
 30
54.3207
 70
192
 0
VERTEX
 8
BASE3_1
 10
-17.9921
 20
-3.0377
 30
54.3264
 70
192
 0
VERTEX
 8
BASE3_1
 10
-18.0481
 20
-3.0658
 30
54.0077
 70
192
 0
VERTEX
 8
BASE3_1
 10
-18.0646
 20
-3.0547
 30
54.0122
 70
192
 0
VERTEX
 8
BASE3_1
 10
-18.0754
 20
-3.0377
 30
54.0151
 70
192
 0
VERTEX
 8
BASE3_1
 10
-18.0753
 20
-3.0658
 30
53.6941
 70
192
 0
VERTEX
 8
BASE3_1
 10
-18.0923
 20
-3.0547
 30
53.6941
 70
192
 0
VERTEX
 8
BASE3_1
 10
-18.1035
 20
-3.0377
 30
53.6941
 70
192
 0
VERTEX
 8
BASE3_1
 10
-15.6187
 20
-3.0193
 30
55.4358
 70
192
 0
VERTEX
 8
BASE3_1
 10
-15.6193
 20
-3.019
 30
55.4361
 70
192
 0
VERTEX
 8
BASE3_1
 10
-15.6193
 20
-3.019
 30
55.4343
 70
192
 0
VERTEX
 8
BASE3_1
 10
0
 20
0
 30
0
 70
128
 71
1
 72
3
 73
5
 74
5
 0
VERTEX
 8
BASE3_1
 10
0
 20
0
 30
0
 70
128
 71
3
 72
57
 73
55
 74
5
 0
VERTEX
 8
BASE3_1
 10
0
 20
0
 30
0
 70
128
 71
1
 72
10
 73
12
 74
12
 0
VERTEX
 8
BASE3_1
 10
0
 20
0
 30
0
 70
128
 71
1
 72
5
 73
7
 74
7
 0
VERTEX
 8
BASE3_1
 10
0
 20
0
 30
0
 70
128
 71
5
 72
55
 73
58
 74
7
 0
VERTEX
 8
BASE3_1
 10
0
 20
0
 30
0
 70
128
 71
10
 72
46
 73
12
 74
12
 0
VERTEX
 8
BASE3_1
 10
0
 20
0
 30
0
 70
128
 71
1
 72
7
 73
9
 74
9
 0
VERTEX
 8
BASE3_1
 10
0
 20
0
 30
0
 70
128
 71
7
 72
58
 73
60
 74
9
 0
VERTEX
 8
BASE3_1
 10
0
 20
0
 30
0
 70
128
 71
1
 72
12
 73
14
 74
14
 0
VERTEX
 8
BASE3_1
 10
0
 20
0
 30
0
 70
128
 71
1
 72
9
 73
11
 74
11
 0
VERTEX
 8
BASE3_1
 10
0
 20
0
 30
0
 70
128
 71
9
 72
60
 73
63
 74
11
 0
VERTEX
 8
BASE3_1
 10
0
 20
0
 30
0
 70
128
 71
12
 72
46
 73
48
 74
14
 0
VERTEX
 8
BASE3_1
 10
0
 20
0
 30
0
 70
128
 71
1
 72
11
 73
13
 74
13
 0
VERTEX
 8
BASE3_1
 10
0
 20
0
 30
0
 70
128
 71
11
 72
63
 73
66
 74
13
 0
VERTEX
 8
BASE3_1
 10
0
 20
0
 30
0
 70
128
 71
1
 72
14
 73
15
 74
15
 0
VERTEX
 8
BASE3_1
 10
0
 20
0
 30
0
 70
128
 71
1
 72
13
 73
16
 74
16
 0
VERTEX
 8
BASE3_1
 10
0
 20
0
 30
0
 70
128
 71
13
 72
66
 73
69
 74
16
 0
VERTEX
 8
BASE3_1
 10
0
 20
0
 30
0
 70
128
 71
14
 72
48
 73
49
 74
15
 0
VERTEX
 8
BASE3_1
 10
0
 20
0
 30
0
 70
128
 71
1
 72
16
 73
19
 74
19
 0
VERTEX
 8
BASE3_1
 10
0
 20
0
 30
0
 70
128
 71
205
 72
206
 73
51
 74
51
 0
VERTEX
 8
BASE3_1
 10
0
 20
0
 30
0
 70
128
 71
1
 72
15
 73
17
 74
17
 0
VERTEX
 8
BASE3_1
 10
0
 20
0
 30
0
 70
128
 71
1
 72
19
 73
21
 74
21
 0
VERTEX
 8
BASE3_1
 10
0
 20
0
 30
0
 70
128
 71
19
 72
51
 73
52
 74
21
 0
VERTEX
 8
BASE3_1
 10
0
 20
0
 30
0
 70
128
 71
15
 72
49
 73
53
 74
17
 0
VERTEX
 8
BASE3_1
 10
0
 20
0
 30
0
 70
128
 71
1
 72
21
 73
24
 74
24
 0
VERTEX
 8
BASE3_1
 10
0
 20
0
 30
0
 70
128
 71
21
 72
52
 73
43
 74
24
 0
VERTEX
 8
BASE3_1
 10
0
 20
0
 30
0
 70
128
 71
1
 72
17
 73
18
 74
18
 0
VERTEX
 8
BASE3_1
 10
0
 20
0
 30
0
 70
128
 71
1
 72
24
 73
28
 74
28
 0
VERTEX
 8
BASE3_1
 10
0
 20
0
 30
0
 70
128
 71
24
 72
43
 73
45
 74
28
 0
VERTEX
 8
BASE3_1
 10
0
 20
0
 30
0
 70
128
 71
17
 72
53
 73
40
 74
18
 0
VERTEX
 8
BASE3_1
 10
0
 20
0
 30
0
 70
128
 71
1
 72
28
 73
31
 74
31
 0
VERTEX
 8
BASE3_1
 10
0
 20
0
 30
0
 70
128
 71
28
 72
45
 73
42
 74
31
 0
VERTEX
 8
BASE3_1
 10
0
 20
0
 30
0
 70
128
 71
1
 72
18
 73
20
 74
20
 0
VERTEX
 8
BASE3_1
 10
0
 20
0
 30
0
 70
128
 71
1
 72
31
 73
33
 74
33
 0
VERTEX
 8
BASE3_1
 10
0
 20
0
 30
0
 70
128
 71
31
 72
42
 73
33
 74
33
 0
VERTEX
 8
BASE3_1
 10
0
 20
0
 30
0
 70
128
 71
18
 72
40
 73
20
 74
20
 0
VERTEX
 8
BASE3_1
 10
0
 20
0
 30
0
 70
128
 71
1
 72
33
 73
35
 74
35
 0
VERTEX
 8
BASE3_1
 10
0
 20
0
 30
0
 70
128
 71
33
 72
86
 73
98
 74
35
 0
VERTEX
 8
BASE3_1
 10
0
 20
0
 30
0
 70
128
 71
1
 72
20
 73
27
 74
27
 0
VERTEX
 8
BASE3_1
 10
0
 20
0
 30
0
 70
128
 71
1
 72
35
 73
37
 74
37
 0
VERTEX
 8
BASE3_1
 10
0
 20
0
 30
0
 70
128
 71
35
 72
98
 73
102
 74
37
 0
VERTEX
 8
BASE3_1
 10
0
 20
0
 30
0
 70
128
 71
20
 72
88
 73
81
 74
27
 0
VERTEX
 8
BASE3_1
 10
0
 20
0
 30
0
 70
128
 71
1
 72
37
 73
39
 74
39
 0
VERTEX
 8
BASE3_1
 10
0
 20
0
 30
0
 70
128
 71
37
 72
102
 73
106
 74
39
 0
VERTEX
 8
BASE3_1
 10
0
 20
0
 30
0
 70
128
 71
1
 72
27
 73
32
 74
32
 0
VERTEX
 8
BASE3_1
 10
0
 20
0
 30
0
 70
128
 71
1
 72
39
 73
41
 74
41
 0
VERTEX
 8
BASE3_1
 10
0
 20
0
 30
0
 70
128
 71
39
 72
106
 73
108
 74
41
 0
VERTEX
 8
BASE3_1
 10
0
 20
0
 30
0
 70
128
 71
27
 72
81
 73
83
 74
32
 0
VERTEX
 8
BASE3_1
 10
0
 20
0
 30
0
 70
128
 71
1
 72
41
 73
44
 74
44
 0
VERTEX
 8
BASE3_1
 10
0
 20
0
 30
0
 70
128
 71
41
 72
108
 73
110
 74
44
 0
VERTEX
 8
BASE3_1
 10
0
 20
0
 30
0
 70
128
 71
1
 72
32
 73
34
 74
34
 0
VERTEX
 8
BASE3_1
 10
0
 20
0
 30
0
 70
128
 71
1
 72
44
 73
47
 74
47
 0
VERTEX
 8
BASE3_1
 10
0
 20
0
 30
0
 70
128
 71
44
 72
110
 73
112
 74
47
 0
VERTEX
 8
BASE3_1
 10
0
 20
0
 30
0
 70
128
 71
32
 72
83
 73
92
 74
34
 0
VERTEX
 8
BASE3_1
 10
0
 20
0
 30
0
 70
128
 71
1
 72
47
 73
50
 74
50
 0
VERTEX
 8
BASE3_1
 10
0
 20
0
 30
0
 70
128
 71
71
 72
90
 73
23
 74
23
 0
VERTEX
 8
BASE3_1
 10
0
 20
0
 30
0
 70
128
 71
1
 72
34
 73
36
 74
36
 0
VERTEX
 8
BASE3_1
 10
0
 20
0
 30
0
 70
128
 71
1
 72
50
 73
54
 74
54
 0
VERTEX
 8
BASE3_1
 10
0
 20
0
 30
0
 70
128
 71
50
 72
114
 73
95
 74
54
 0
VERTEX
 8
BASE3_1
 10
0
 20
0
 30
0
 70
128
 71
34
 72
92
 73
100
 74
36
 0
VERTEX
 8
BASE3_1
 10
0
 20
0
 30
0
 70
128
 71
1
 72
54
 73
4
 74
4
 0
VERTEX
 8
BASE3_1
 10
0
 20
0
 30
0
 70
128
 71
54
 72
95
 73
96
 74
4
 0
VERTEX
 8
BASE3_1
 10
0
 20
0
 30
0
 70
128
 71
1
 72
36
 73
38
 74
38
 0
VERTEX
 8
BASE3_1
 10
0
 20
0
 30
0
 70
128
 71
1
 72
4
 73
6
 74
6
 0
VERTEX
 8
BASE3_1
 10
0
 20
0
 30
0
 70
128
 71
4
 72
96
 73
59
 74
6
 0
VERTEX
 8
BASE3_1
 10
0
 20
0
 30
0
 70
128
 71
36
 72
100
 73
104
 74
38
 0
VERTEX
 8
BASE3_1
 10
0
 20
0
 30
0
 70
128
 71
1
 72
6
 73
8
 74
8
 0
VERTEX
 8
BASE3_1
 10
0
 20
0
 30
0
 70
128
 71
6
 72
59
 73
61
 74
8
 0
VERTEX
 8
BASE3_1
 10
0
 20
0
 30
0
 70
128
 71
1
 72
38
 73
3
 74
3
 0
VERTEX
 8
BASE3_1
 10
0
 20
0
 30
0
 70
128
 71
1
 72
8
 73
10
 74
10
 0
VERTEX
 8
BASE3_1
 10
0
 20
0
 30
0
 70
128
 71
8
 72
61
 73
56
 74
10
 0
VERTEX
 8
BASE3_1
 10
0
 20
0
 30
0
 70
128
 71
38
 72
104
 73
57
 74
3
 0
VERTEX
 8
BASE3_1
 10
0
 20
0
 30
0
 70
128
 71
112
 72
114
 73
50
 74
47
 0
VERTEX
 8
BASE3_1
 10
0
 20
0
 30
0
 70
128
 71
90
 72
65
 73
23
 74
23
 0
VERTEX
 8
BASE3_1
 10
0
 20
0
 30
0
 70
128
 71
42
 72
85
 73
86
 74
33
 0
VERTEX
 8
BASE3_1
 10
0
 20
0
 30
0
 70
128
 71
99
 72
67
 73
23
 74
23
 0
VERTEX
 8
BASE3_1
 10
0
 20
0
 30
0
 70
128
 71
91
 72
62
 73
23
 74
23
 0
VERTEX
 8
BASE3_1
 10
0
 20
0
 30
0
 70
128
 71
111
 72
109
 73
22
 74
22
 0
VERTEX
 8
BASE3_1
 10
0
 20
0
 30
0
 70
128
 71
113
 72
111
 73
22
 74
22
 0
VERTEX
 8
BASE3_1
 10
0
 20
0
 30
0
 70
128
 71
97
 72
64
 73
22
 74
22
 0
VERTEX
 8
BASE3_1
 10
0
 20
0
 30
0
 70
128
 71
22
 72
82
 73
72
 74
72
 0
VERTEX
 8
BASE3_1
 10
0
 20
0
 30
0
 70
128
 71
22
 72
72
 73
113
 74
113
 0
VERTEX
 8
BASE3_1
 10
0
 20
0
 30
0
 70
128
 71
109
 72
107
 73
22
 74
22
 0
VERTEX
 8
BASE3_1
 10
0
 20
0
 30
0
 70
128
 71
107
 72
105
 73
22
 74
22
 0
VERTEX
 8
BASE3_1
 10
0
 20
0
 30
0
 70
128
 71
22
 72
68
 73
70
 74
70
 0
VERTEX
 8
BASE3_1
 10
0
 20
0
 30
0
 70
128
 71
22
 72
78
 73
68
 74
68
 0
VERTEX
 8
BASE3_1
 10
0
 20
0
 30
0
 70
128
 71
67
 72
71
 73
23
 74
23
 0
VERTEX
 8
BASE3_1
 10
0
 20
0
 30
0
 70
128
 71
40
 72
87
 73
88
 74
20
 0
VERTEX
 8
BASE3_1
 10
0
 20
0
 30
0
 70
128
 71
10
 72
56
 73
84
 74
46
 0
VERTEX
 8
BASE3_1
 10
0
 20
0
 30
0
 70
128
 71
62
 72
103
 73
23
 74
23
 0
VERTEX
 8
BASE3_1
 10
0
 20
0
 30
0
 70
128
 71
77
 72
73
 73
23
 74
23
 0
VERTEX
 8
BASE3_1
 10
0
 20
0
 30
0
 70
128
 71
205
 72
89
 73
206
 74
206
 0
VERTEX
 8
BASE3_1
 10
0
 20
0
 30
0
 70
128
 71
42
 72
45
 73
25
 74
29
 0
VERTEX
 8
BASE3_1
 10
0
 20
0
 30
0
 70
128
 71
45
 72
43
 73
26
 74
25
 0
VERTEX
 8
BASE3_1
 10
0
 20
0
 30
0
 70
128
 71
53
 72
49
 73
26
 74
2
 0
VERTEX
 8
BASE3_1
 10
0
 20
0
 30
0
 70
128
 71
52
 72
51
 73
30
 74
2
 0
VERTEX
 8
BASE3_1
 10
0
 20
0
 30
0
 70
128
 71
89
 72
207
 73
206
 74
206
 0
VERTEX
 8
BASE3_1
 10
0
 20
0
 30
0
 70
128
 71
84
 72
29
 73
46
 74
46
 0
VERTEX
 8
BASE3_1
 10
0
 20
0
 30
0
 70
128
 71
93
 72
75
 73
23
 74
23
 0
VERTEX
 8
BASE3_1
 10
0
 20
0
 30
0
 70
128
 71
51
 72
16
 73
69
 74
205
 0
VERTEX
 8
BASE3_1
 10
0
 20
0
 30
0
 70
128
 71
73
 72
74
 73
23
 74
23
 0
VERTEX
 8
BASE3_1
 10
0
 20
0
 30
0
 70
128
 71
25
 72
48
 73
46
 74
29
 0
VERTEX
 8
BASE3_1
 10
0
 20
0
 30
0
 70
128
 71
26
 72
49
 73
48
 74
25
 0
VERTEX
 8
BASE3_1
 10
0
 20
0
 30
0
 70
128
 71
26
 72
43
 73
52
 74
2
 0
VERTEX
 8
BASE3_1
 10
0
 20
0
 30
0
 70
128
 71
30
 72
40
 73
53
 74
2
 0
VERTEX
 8
BASE3_1
 10
0
 20
0
 30
0
 70
128
 71
65
 72
154
 73
30
 74
30
 0
VERTEX
 8
BASE3_1
 10
0
 20
0
 30
0
 70
128
 71
64
 72
148
 73
29
 74
29
 0
VERTEX
 8
BASE3_1
 10
0
 20
0
 30
0
 70
128
 71
105
 72
101
 73
22
 74
22
 0
VERTEX
 8
BASE3_1
 10
0
 20
0
 30
0
 70
128
 71
101
 72
97
 73
22
 74
22
 0
VERTEX
 8
BASE3_1
 10
0
 20
0
 30
0
 70
128
 71
22
 72
70
 73
82
 74
82
 0
VERTEX
 8
BASE3_1
 10
0
 20
0
 30
0
 70
128
 71
22
 72
80
 73
78
 74
78
 0
VERTEX
 8
BASE3_1
 10
0
 20
0
 30
0
 70
128
 71
22
 72
79
 73
80
 74
80
 0
VERTEX
 8
BASE3_1
 10
0
 20
0
 30
0
 70
128
 71
74
 72
94
 73
23
 74
23
 0
VERTEX
 8
BASE3_1
 10
0
 20
0
 30
0
 70
128
 71
94
 72
93
 73
23
 74
23
 0
VERTEX
 8
BASE3_1
 10
0
 20
0
 30
0
 70
128
 71
75
 72
91
 73
23
 74
23
 0
VERTEX
 8
BASE3_1
 10
0
 20
0
 30
0
 70
128
 71
103
 72
99
 73
23
 74
23
 0
VERTEX
 8
BASE3_1
 10
0
 20
0
 30
0
 70
128
 71
180
 72
179
 73
30
 74
30
 0
VERTEX
 8
BASE3_1
 10
0
 20
0
 30
0
 70
128
 71
179
 72
178
 73
30
 74
30
 0
VERTEX
 8
BASE3_1
 10
0
 20
0
 30
0
 70
128
 71
183
 72
182
 73
29
 74
29
 0
VERTEX
 8
BASE3_1
 10
0
 20
0
 30
0
 70
128
 71
182
 72
181
 73
29
 74
29
 0
VERTEX
 8
BASE3_1
 10
0
 20
0
 30
0
 70
128
 71
154
 72
155
 73
30
 74
30
 0
VERTEX
 8
BASE3_1
 10
0
 20
0
 30
0
 70
128
 71
23
 72
65
 73
30
 74
30
 0
VERTEX
 8
BASE3_1
 10
0
 20
0
 30
0
 70
128
 71
148
 72
149
 73
29
 74
29
 0
VERTEX
 8
BASE3_1
 10
0
 20
0
 30
0
 70
128
 71
22
 72
64
 73
29
 74
29
 0
VERTEX
 8
BASE3_1
 10
0
 20
0
 30
0
 70
128
 71
57
 72
115
 73
118
 74
55
 0
VERTEX
 8
BASE3_1
 10
0
 20
0
 30
0
 70
128
 71
55
 72
118
 73
130
 74
58
 0
VERTEX
 8
BASE3_1
 10
0
 20
0
 30
0
 70
128
 71
56
 72
124
 73
183
 74
84
 0
VERTEX
 8
BASE3_1
 10
0
 20
0
 30
0
 70
128
 71
58
 72
130
 73
139
 74
60
 0
VERTEX
 8
BASE3_1
 10
0
 20
0
 30
0
 70
128
 71
60
 72
139
 73
142
 74
63
 0
VERTEX
 8
BASE3_1
 10
0
 20
0
 30
0
 70
128
 71
63
 72
142
 73
157
 74
66
 0
VERTEX
 8
BASE3_1
 10
0
 20
0
 30
0
 70
128
 71
66
 72
157
 73
166
 74
69
 0
VERTEX
 8
BASE3_1
 10
0
 20
0
 30
0
 70
128
 71
150
 72
85
 73
29
 74
29
 0
VERTEX
 8
BASE3_1
 10
0
 20
0
 30
0
 70
128
 71
86
 72
147
 73
186
 74
98
 0
VERTEX
 8
BASE3_1
 10
0
 20
0
 30
0
 70
128
 71
98
 72
186
 73
192
 74
102
 0
VERTEX
 8
BASE3_1
 10
0
 20
0
 30
0
 70
128
 71
88
 72
153
 73
171
 74
81
 0
VERTEX
 8
BASE3_1
 10
0
 20
0
 30
0
 70
128
 71
102
 72
192
 73
195
 74
106
 0
VERTEX
 8
BASE3_1
 10
0
 20
0
 30
0
 70
128
 71
106
 72
195
 73
198
 74
108
 0
VERTEX
 8
BASE3_1
 10
0
 20
0
 30
0
 70
128
 71
81
 72
171
 73
165
 74
83
 0
VERTEX
 8
BASE3_1
 10
0
 20
0
 30
0
 70
128
 71
108
 72
198
 73
201
 74
110
 0
VERTEX
 8
BASE3_1
 10
0
 20
0
 30
0
 70
128
 71
110
 72
201
 73
204
 74
112
 0
VERTEX
 8
BASE3_1
 10
0
 20
0
 30
0
 70
128
 71
83
 72
165
 73
162
 74
92
 0
VERTEX
 8
BASE3_1
 10
0
 20
0
 30
0
 70
128
 71
114
 72
177
 73
174
 74
95
 0
VERTEX
 8
BASE3_1
 10
0
 20
0
 30
0
 70
128
 71
92
 72
162
 73
189
 74
100
 0
VERTEX
 8
BASE3_1
 10
0
 20
0
 30
0
 70
128
 71
95
 72
174
 73
133
 74
96
 0
VERTEX
 8
BASE3_1
 10
0
 20
0
 30
0
 70
128
 71
96
 72
133
 73
136
 74
59
 0
VERTEX
 8
BASE3_1
 10
0
 20
0
 30
0
 70
128
 71
100
 72
189
 73
127
 74
104
 0
VERTEX
 8
BASE3_1
 10
0
 20
0
 30
0
 70
128
 71
59
 72
136
 73
121
 74
61
 0
VERTEX
 8
BASE3_1
 10
0
 20
0
 30
0
 70
128
 71
61
 72
121
 73
124
 74
56
 0
VERTEX
 8
BASE3_1
 10
0
 20
0
 30
0
 70
128
 71
104
 72
127
 73
115
 74
57
 0
VERTEX
 8
BASE3_1
 10
0
 20
0
 30
0
 70
128
 71
112
 72
204
 73
177
 74
114
 0
VERTEX
 8
BASE3_1
 10
0
 20
0
 30
0
 70
128
 71
87
 72
156
 73
153
 74
88
 0
VERTEX
 8
BASE3_1
 10
0
 20
0
 30
0
 70
128
 71
85
 72
150
 73
147
 74
86
 0
VERTEX
 8
BASE3_1
 10
0
 20
0
 30
0
 70
128
 71
115
 72
116
 73
119
 74
118
 0
VERTEX
 8
BASE3_1
 10
0
 20
0
 30
0
 70
128
 71
116
 72
117
 73
120
 74
119
 0
VERTEX
 8
BASE3_1
 10
0
 20
0
 30
0
 70
128
 71
117
 72
91
 73
75
 74
120
 0
VERTEX
 8
BASE3_1
 10
0
 20
0
 30
0
 70
128
 71
118
 72
119
 73
131
 74
130
 0
VERTEX
 8
BASE3_1
 10
0
 20
0
 30
0
 70
128
 71
119
 72
120
 73
132
 74
131
 0
VERTEX
 8
BASE3_1
 10
0
 20
0
 30
0
 70
128
 71
120
 72
75
 73
93
 74
132
 0
VERTEX
 8
BASE3_1
 10
0
 20
0
 30
0
 70
128
 71
124
 72
125
 73
182
 74
183
 0
VERTEX
 8
BASE3_1
 10
0
 20
0
 30
0
 70
128
 71
125
 72
126
 73
181
 74
182
 0
VERTEX
 8
BASE3_1
 10
0
 20
0
 30
0
 70
128
 71
126
 72
80
 73
79
 74
181
 0
VERTEX
 8
BASE3_1
 10
0
 20
0
 30
0
 70
128
 71
130
 72
131
 73
140
 74
139
 0
VERTEX
 8
BASE3_1
 10
0
 20
0
 30
0
 70
128
 71
131
 72
132
 73
141
 74
140
 0
VERTEX
 8
BASE3_1
 10
0
 20
0
 30
0
 70
128
 71
132
 72
93
 73
94
 74
141
 0
VERTEX
 8
BASE3_1
 10
0
 20
0
 30
0
 70
128
 71
139
 72
140
 73
143
 74
142
 0
VERTEX
 8
BASE3_1
 10
0
 20
0
 30
0
 70
128
 71
140
 72
141
 73
144
 74
143
 0
VERTEX
 8
BASE3_1
 10
0
 20
0
 30
0
 70
128
 71
141
 72
94
 73
74
 74
144
 0
VERTEX
 8
BASE3_1
 10
0
 20
0
 30
0
 70
128
 71
142
 72
143
 73
158
 74
157
 0
VERTEX
 8
BASE3_1
 10
0
 20
0
 30
0
 70
128
 71
143
 72
144
 73
159
 74
158
 0
VERTEX
 8
BASE3_1
 10
0
 20
0
 30
0
 70
128
 71
144
 72
74
 73
73
 74
159
 0
VERTEX
 8
BASE3_1
 10
0
 20
0
 30
0
 70
128
 71
157
 72
158
 73
167
 74
166
 0
VERTEX
 8
BASE3_1
 10
0
 20
0
 30
0
 70
128
 71
158
 72
159
 73
168
 74
167
 0
VERTEX
 8
BASE3_1
 10
0
 20
0
 30
0
 70
128
 71
159
 72
73
 73
77
 74
168
 0
VERTEX
 8
BASE3_1
 10
0
 20
0
 30
0
 70
128
 71
51
 72
19
 73
16
 74
16
 0
VERTEX
 8
BASE3_1
 10
0
 20
0
 30
0
 70
128
 71
207
 72
30
 73
51
 74
206
 0
VERTEX
 8
BASE3_1
 10
0
 20
0
 30
0
 70
128
 71
85
 72
42
 73
29
 74
29
 0
VERTEX
 8
BASE3_1
 10
0
 20
0
 30
0
 70
128
 71
147
 72
146
 73
185
 74
186
 0
VERTEX
 8
BASE3_1
 10
0
 20
0
 30
0
 70
128
 71
146
 72
145
 73
184
 74
185
 0
VERTEX
 8
BASE3_1
 10
0
 20
0
 30
0
 70
128
 71
145
 72
97
 73
101
 74
184
 0
VERTEX
 8
BASE3_1
 10
0
 20
0
 30
0
 70
128
 71
186
 72
185
 73
191
 74
192
 0
VERTEX
 8
BASE3_1
 10
0
 20
0
 30
0
 70
128
 71
185
 72
184
 73
190
 74
191
 0
VERTEX
 8
BASE3_1
 10
0
 20
0
 30
0
 70
128
 71
184
 72
101
 73
105
 74
190
 0
VERTEX
 8
BASE3_1
 10
0
 20
0
 30
0
 70
128
 71
153
 72
152
 73
170
 74
171
 0
VERTEX
 8
BASE3_1
 10
0
 20
0
 30
0
 70
128
 71
152
 72
151
 73
169
 74
170
 0
VERTEX
 8
BASE3_1
 10
0
 20
0
 30
0
 70
128
 71
151
 72
90
 73
71
 74
169
 0
VERTEX
 8
BASE3_1
 10
0
 20
0
 30
0
 70
128
 71
192
 72
191
 73
194
 74
195
 0
VERTEX
 8
BASE3_1
 10
0
 20
0
 30
0
 70
128
 71
191
 72
190
 73
193
 74
194
 0
VERTEX
 8
BASE3_1
 10
0
 20
0
 30
0
 70
128
 71
190
 72
105
 73
107
 74
193
 0
VERTEX
 8
BASE3_1
 10
0
 20
0
 30
0
 70
128
 71
195
 72
194
 73
197
 74
198
 0
VERTEX
 8
BASE3_1
 10
0
 20
0
 30
0
 70
128
 71
194
 72
193
 73
196
 74
197
 0
VERTEX
 8
BASE3_1
 10
0
 20
0
 30
0
 70
128
 71
193
 72
107
 73
109
 74
196
 0
VERTEX
 8
BASE3_1
 10
0
 20
0
 30
0
 70
128
 71
171
 72
170
 73
164
 74
165
 0
VERTEX
 8
BASE3_1
 10
0
 20
0
 30
0
 70
128
 71
170
 72
169
 73
163
 74
164
 0
VERTEX
 8
BASE3_1
 10
0
 20
0
 30
0
 70
128
 71
169
 72
71
 73
67
 74
163
 0
VERTEX
 8
BASE3_1
 10
0
 20
0
 30
0
 70
128
 71
198
 72
197
 73
200
 74
201
 0
VERTEX
 8
BASE3_1
 10
0
 20
0
 30
0
 70
128
 71
197
 72
196
 73
199
 74
200
 0
VERTEX
 8
BASE3_1
 10
0
 20
0
 30
0
 70
128
 71
196
 72
109
 73
111
 74
199
 0
VERTEX
 8
BASE3_1
 10
0
 20
0
 30
0
 70
128
 71
201
 72
200
 73
203
 74
204
 0
VERTEX
 8
BASE3_1
 10
0
 20
0
 30
0
 70
128
 71
200
 72
199
 73
202
 74
203
 0
VERTEX
 8
BASE3_1
 10
0
 20
0
 30
0
 70
128
 71
199
 72
111
 73
113
 74
202
 0
VERTEX
 8
BASE3_1
 10
0
 20
0
 30
0
 70
128
 71
165
 72
164
 73
161
 74
162
 0
VERTEX
 8
BASE3_1
 10
0
 20
0
 30
0
 70
128
 71
164
 72
163
 73
160
 74
161
 0
VERTEX
 8
BASE3_1
 10
0
 20
0
 30
0
 70
128
 71
163
 72
67
 73
99
 74
160
 0
VERTEX
 8
BASE3_1
 10
0
 20
0
 30
0
 70
128
 71
177
 72
176
 73
173
 74
174
 0
VERTEX
 8
BASE3_1
 10
0
 20
0
 30
0
 70
128
 71
176
 72
175
 73
172
 74
173
 0
VERTEX
 8
BASE3_1
 10
0
 20
0
 30
0
 70
128
 71
175
 72
72
 73
82
 74
172
 0
VERTEX
 8
BASE3_1
 10
0
 20
0
 30
0
 70
128
 71
162
 72
161
 73
188
 74
189
 0
VERTEX
 8
BASE3_1
 10
0
 20
0
 30
0
 70
128
 71
161
 72
160
 73
187
 74
188
 0
VERTEX
 8
BASE3_1
 10
0
 20
0
 30
0
 70
128
 71
160
 72
99
 73
103
 74
187
 0
VERTEX
 8
BASE3_1
 10
0
 20
0
 30
0
 70
128
 71
174
 72
173
 73
134
 74
133
 0
VERTEX
 8
BASE3_1
 10
0
 20
0
 30
0
 70
128
 71
173
 72
172
 73
135
 74
134
 0
VERTEX
 8
BASE3_1
 10
0
 20
0
 30
0
 70
128
 71
172
 72
82
 73
70
 74
135
 0
VERTEX
 8
BASE3_1
 10
0
 20
0
 30
0
 70
128
 71
133
 72
134
 73
137
 74
136
 0
VERTEX
 8
BASE3_1
 10
0
 20
0
 30
0
 70
128
 71
134
 72
135
 73
138
 74
137
 0
VERTEX
 8
BASE3_1
 10
0
 20
0
 30
0
 70
128
 71
135
 72
70
 73
68
 74
138
 0
VERTEX
 8
BASE3_1
 10
0
 20
0
 30
0
 70
128
 71
189
 72
188
 73
128
 74
127
 0
VERTEX
 8
BASE3_1
 10
0
 20
0
 30
0
 70
128
 71
188
 72
187
 73
129
 74
128
 0
VERTEX
 8
BASE3_1
 10
0
 20
0
 30
0
 70
128
 71
187
 72
103
 73
62
 74
129
 0
VERTEX
 8
BASE3_1
 10
0
 20
0
 30
0
 70
128
 71
136
 72
137
 73
122
 74
121
 0
VERTEX
 8
BASE3_1
 10
0
 20
0
 30
0
 70
128
 71
137
 72
138
 73
123
 74
122
 0
VERTEX
 8
BASE3_1
 10
0
 20
0
 30
0
 70
128
 71
138
 72
68
 73
78
 74
123
 0
VERTEX
 8
BASE3_1
 10
0
 20
0
 30
0
 70
128
 71
121
 72
122
 73
125
 74
124
 0
VERTEX
 8
BASE3_1
 10
0
 20
0
 30
0
 70
128
 71
122
 72
123
 73
126
 74
125
 0
VERTEX
 8
BASE3_1
 10
0
 20
0
 30
0
 70
128
 71
123
 72
78
 73
80
 74
126
 0
VERTEX
 8
BASE3_1
 10
0
 20
0
 30
0
 70
128
 71
127
 72
128
 73
116
 74
115
 0
VERTEX
 8
BASE3_1
 10
0
 20
0
 30
0
 70
128
 71
128
 72
129
 73
117
 74
116
 0
VERTEX
 8
BASE3_1
 10
0
 20
0
 30
0
 70
128
 71
129
 72
62
 73
91
 74
117
 0
VERTEX
 8
BASE3_1
 10
0
 20
0
 30
0
 70
128
 71
204
 72
203
 73
176
 74
177
 0
VERTEX
 8
BASE3_1
 10
0
 20
0
 30
0
 70
128
 71
203
 72
202
 73
175
 74
176
 0
VERTEX
 8
BASE3_1
 10
0
 20
0
 30
0
 70
128
 71
202
 72
113
 73
72
 74
175
 0
VERTEX
 8
BASE3_1
 10
0
 20
0
 30
0
 70
128
 71
156
 72
155
 73
152
 74
153
 0
VERTEX
 8
BASE3_1
 10
0
 20
0
 30
0
 70
128
 71
155
 72
154
 73
151
 74
152
 0
VERTEX
 8
BASE3_1
 10
0
 20
0
 30
0
 70
128
 71
154
 72
65
 73
90
 74
151
 0
VERTEX
 8
BASE3_1
 10
0
 20
0
 30
0
 70
128
 71
150
 72
149
 73
146
 74
147
 0
VERTEX
 8
BASE3_1
 10
0
 20
0
 30
0
 70
128
 71
149
 72
148
 73
145
 74
146
 0
VERTEX
 8
BASE3_1
 10
0
 20
0
 30
0
 70
128
 71
148
 72
64
 73
97
 74
145
 0
VERTEX
 8
BASE3_1
 10
0
 20
0
 30
0
 70
128
 71
180
 72
30
 73
207
 74
89
 0
VERTEX
 8
BASE3_1
 10
0
 20
0
 30
0
 70
128
 71
178
 72
76
 73
30
 74
30
 0
VERTEX
 8
BASE3_1
 10
0
 20
0
 30
0
 70
128
 71
76
 72
23
 73
30
 74
30
 0
VERTEX
 8
BASE3_1
 10
0
 20
0
 30
0
 70
128
 71
155
 72
156
 73
30
 74
30
 0
VERTEX
 8
BASE3_1
 10
0
 20
0
 30
0
 70
128
 71
156
 72
87
 73
30
 74
30
 0
VERTEX
 8
BASE3_1
 10
0
 20
0
 30
0
 70
128
 71
87
 72
40
 73
30
 74
30
 0
VERTEX
 8
BASE3_1
 10
0
 20
0
 30
0
 70
128
 71
84
 72
183
 73
29
 74
29
 0
VERTEX
 8
BASE3_1
 10
0
 20
0
 30
0
 70
128
 71
181
 72
79
 73
29
 74
29
 0
VERTEX
 8
BASE3_1
 10
0
 20
0
 30
0
 70
128
 71
79
 72
22
 73
29
 74
29
 0
VERTEX
 8
BASE3_1
 10
0
 20
0
 30
0
 70
128
 71
149
 72
150
 73
29
 74
29
 0
VERTEX
 8
BASE3_1
 10
0
 20
0
 30
0
 70
128
 71
77
 72
23
 73
76
 74
76
 0
VERTEX
 8
BASE3_1
 10
0
 20
0
 30
0
 70
128
 71
69
 72
166
 73
180
 74
89
 0
VERTEX
 8
BASE3_1
 10
0
 20
0
 30
0
 70
128
 71
179
 72
180
 73
166
 74
167
 0
VERTEX
 8
BASE3_1
 10
0
 20
0
 30
0
 70
128
 71
167
 72
168
 73
178
 74
179
 0
VERTEX
 8
BASE3_1
 10
0
 20
0
 30
0
 70
128
 71
77
 72
76
 73
178
 74
168
 0
SEQEND
 0
POLYLINE
 8
MANOPOLA3_1
 66
1
 10
0.0
 20
0.0
 30
0.0
 70
64
 71
160
 72
166
 0
VERTEX
 8
MANOPOLA3_1
 10
-15.6177
 20
-2.7687
 30
55.4349
 70
192
 0
VERTEX
 8
MANOPOLA3_1
 10
-16.5729
 20
-2.7687
 30
51.2387
 70
192
 0
VERTEX
 8
MANOPOLA3_1
 10
-16.8848
 20
-2.7687
 30
51.3723
 70
192
 0
VERTEX
 8
MANOPOLA3_1
 10
-16.5729
 20
-2.7687
 30
55.5185
 70
192
 0
VERTEX
 8
MANOPOLA3_1
 10
-16.8848
 20
-2.7687
 30
53.6943
 70
192
 0
VERTEX
 8
MANOPOLA3_1
 10
-16.5729
 20
-2.7687
 30
53.6943
 70
192
 0
VERTEX
 8
MANOPOLA3_1
 10
-16.2512
 20
-2.7687
 30
51.2106
 70
192
 0
VERTEX
 8
MANOPOLA3_1
 10
-15.9296
 20
-2.7687
 30
51.2387
 70
192
 0
VERTEX
 8
MANOPOLA3_1
 10
-16.3526
 20
-4.3687
 30
54.917
 70
192
 0
VERTEX
 8
MANOPOLA3_1
 10
-16.3525
 20
-4.2987
 30
54.9171
 70
192
 0
VERTEX
 8
MANOPOLA3_1
 10
-16.3458
 20
-4.3687
 30
54.8666
 70
192
 0
VERTEX
 8
MANOPOLA3_1
 10
-16.3458
 20
-4.2987
 30
54.8667
 70
192
 0
VERTEX
 8
MANOPOLA3_1
 10
-16.2512
 20
-4.3687
 30
54.8408
 70
192
 0
VERTEX
 8
MANOPOLA3_1
 10
-16.2512
 20
-4.2987
 30
54.8408
 70
192
 0
VERTEX
 8
MANOPOLA3_1
 10
-16.1566
 20
-4.3687
 30
54.8666
 70
192
 0
VERTEX
 8
MANOPOLA3_1
 10
-16.1566
 20
-4.2987
 30
54.8667
 70
192
 0
VERTEX
 8
MANOPOLA3_1
 10
-16.1515
 20
-4.3687
 30
55.2679
 70
192
 0
VERTEX
 8
MANOPOLA3_1
 10
-16.1515
 20
-4.2987
 30
55.2679
 70
192
 0
VERTEX
 8
MANOPOLA3_1
 10
-16.1566
 20
-4.3687
 30
55.3183
 70
192
 0
VERTEX
 8
MANOPOLA3_1
 10
-16.1566
 20
-4.2987
 30
55.3183
 70
192
 0
VERTEX
 8
MANOPOLA3_1
 10
-16.2512
 20
-4.3687
 30
55.3441
 70
192
 0
VERTEX
 8
MANOPOLA3_1
 10
-16.2512
 20
-4.2987
 30
55.3442
 70
192
 0
VERTEX
 8
MANOPOLA3_1
 10
-16.3458
 20
-4.3687
 30
55.3183
 70
192
 0
VERTEX
 8
MANOPOLA3_1
 10
-16.3458
 20
-4.2987
 30
55.3183
 70
192
 0
VERTEX
 8
MANOPOLA3_1
 10
-16.3526
 20
-4.3687
 30
55.2679
 70
192
 0
VERTEX
 8
MANOPOLA3_1
 10
-16.3525
 20
-4.2987
 30
55.2679
 70
192
 0
VERTEX
 8
MANOPOLA3_1
 10
-16.1515
 20
-4.3687
 30
54.917
 70
192
 0
VERTEX
 8
MANOPOLA3_1
 10
-16.1515
 20
-4.2987
 30
54.9171
 70
192
 0
VERTEX
 8
MANOPOLA3_1
 10
-16.8848
 20
-4.3187
 30
51.3723
 70
192
 0
VERTEX
 8
MANOPOLA3_1
 10
-16.5423
 20
-4.3652
 30
55.4915
 70
192
 0
VERTEX
 8
MANOPOLA3_1
 10
-16.8365
 20
-4.3187
 30
51.3094
 70
192
 0
VERTEX
 8
MANOPOLA3_1
 10
-16.5727
 20
-4.3187
 30
51.2398
 70
192
 0
VERTEX
 8
MANOPOLA3_1
 10
-16.2512
 20
-4.3187
 30
51.212
 70
192
 0
VERTEX
 8
MANOPOLA3_1
 10
-15.9298
 20
-4.3187
 30
51.2398
 70
192
 0
VERTEX
 8
MANOPOLA3_1
 10
-15.666
 20
-4.3187
 30
51.3094
 70
192
 0
VERTEX
 8
MANOPOLA3_1
 10
-15.666
 20
-2.7687
 30
51.3094
 70
192
 0
VERTEX
 8
MANOPOLA3_1
 10
-16.8365
 20
-2.7687
 30
51.3094
 70
192
 0
VERTEX
 8
MANOPOLA3_1
 10
-15.9296
 20
-4.3187
 30
55.5185
 70
192
 0
VERTEX
 8
MANOPOLA3_1
 10
-15.6177
 20
-4.3187
 30
51.3723
 70
192
 0
VERTEX
 8
MANOPOLA3_1
 10
-15.6177
 20
-4.3187
 30
55.4349
 70
192
 0
VERTEX
 8
MANOPOLA3_1
 10
-15.9296
 20
-2.7687
 30
55.5185
 70
192
 0
VERTEX
 8
MANOPOLA3_1
 10
-16.2512
 20
-4.3687
 30
55.4965
 70
192
 0
VERTEX
 8
MANOPOLA3_1
 10
-15.978
 20
-4.3687
 30
55.4758
 70
192
 0
VERTEX
 8
MANOPOLA3_1
 10
-15.6177
 20
-3.0188
 30
55.4349
 70
192
 0
VERTEX
 8
MANOPOLA3_1
 10
-16.2512
 20
-4.3187
 30
55.5466
 70
192
 0
VERTEX
 8
MANOPOLA3_1
 10
-16.8848
 20
-4.3187
 30
55.4349
 70
192
 0
VERTEX
 8
MANOPOLA3_1
 10
-16.8848
 20
-2.7687
 30
55.4349
 70
192
 0
VERTEX
 8
MANOPOLA3_1
 10
-15.6677
 20
-4.3687
 30
51.3607
 70
192
 0
VERTEX
 8
MANOPOLA3_1
 10
-15.9383
 20
-4.3687
 30
51.2882
 70
192
 0
VERTEX
 8
MANOPOLA3_1
 10
-16.2512
 20
-4.3687
 30
51.2608
 70
192
 0
VERTEX
 8
MANOPOLA3_1
 10
-16.5642
 20
-4.3687
 30
51.2882
 70
192
 0
VERTEX
 8
MANOPOLA3_1
 10
-16.8348
 20
-4.3687
 30
51.3607
 70
192
 0
VERTEX
 8
MANOPOLA3_1
 10
-16.8153
 20
-4.3687
 30
55.4131
 70
192
 0
VERTEX
 8
MANOPOLA3_1
 10
-16.8848
 20
-3.0688
 30
51.3723
 70
192
 0
VERTEX
 8
MANOPOLA3_1
 10
-15.6177
 20
-2.7687
 30
51.3723
 70
192
 0
VERTEX
 8
MANOPOLA3_1
 10
-16.5729
 20
-4.3187
 30
55.5185
 70
192
 0
VERTEX
 8
MANOPOLA3_1
 10
-16.8848
 20
-3.0188
 30
55.4349
 70
192
 0
VERTEX
 8
MANOPOLA3_1
 10
-16.5245
 20
-4.3687
 30
55.4758
 70
192
 0
VERTEX
 8
MANOPOLA3_1
 10
-15.6872
 20
-4.3687
 30
55.4132
 70
192
 0
VERTEX
 8
MANOPOLA3_1
 10
-16.8653
 20
-4.3487
 30
51.3373
 70
192
 0
VERTEX
 8
MANOPOLA3_1
 10
-15.6372
 20
-4.3487
 30
51.3373
 70
192
 0
VERTEX
 8
MANOPOLA3_1
 10
-16.2512
 20
-4.3652
 30
55.5149
 70
192
 0
VERTEX
 8
MANOPOLA3_1
 10
-16.2512
 20
-4.3541
 30
55.5319
 70
192
 0
VERTEX
 8
MANOPOLA3_1
 10
-16.2512
 20
-4.3371
 30
55.5431
 70
192
 0
VERTEX
 8
MANOPOLA3_1
 10
-16.8701
 20
-4.3541
 30
51.3689
 70
192
 0
VERTEX
 8
MANOPOLA3_1
 10
-16.836
 20
-4.3541
 30
51.3244
 70
192
 0
VERTEX
 8
MANOPOLA3_1
 10
-16.8713
 20
-4.3187
 30
51.3326
 70
192
 0
VERTEX
 8
MANOPOLA3_1
 10
-16.8689
 20
-4.3527
 30
51.3513
 70
192
 0
VERTEX
 8
MANOPOLA3_1
 10
-16.8539
 20
-4.3649
 30
51.3651
 70
192
 0
VERTEX
 8
MANOPOLA3_1
 10
-16.8354
 20
-4.3649
 30
51.341
 70
192
 0
VERTEX
 8
MANOPOLA3_1
 10
-16.8527
 20
-4.3527
 30
51.3302
 70
192
 0
VERTEX
 8
MANOPOLA3_1
 10
-16.8364
 20
-4.3378
 30
51.3133
 70
192
 0
VERTEX
 8
MANOPOLA3_1
 10
-16.8558
 20
-4.3187
 30
51.3181
 70
192
 0
VERTEX
 8
MANOPOLA3_1
 10
-16.8698
 20
-4.3353
 30
51.3338
 70
192
 0
VERTEX
 8
MANOPOLA3_1
 10
-16.8813
 20
-4.3187
 30
51.3514
 70
192
 0
VERTEX
 8
MANOPOLA3_1
 10
-16.881
 20
-4.3378
 30
51.3714
 70
192
 0
VERTEX
 8
MANOPOLA3_1
 10
-16.8539
 20
-4.3612
 30
51.346
 70
192
 0
VERTEX
 8
MANOPOLA3_1
 10
-16.855
 20
-4.3372
 30
51.3218
 70
192
 0
VERTEX
 8
MANOPOLA3_1
 10
-16.8776
 20
-4.3372
 30
51.3512
 70
192
 0
VERTEX
 8
MANOPOLA3_1
 10
-15.6226
 20
-4.3371
 30
55.4334
 70
192
 0
VERTEX
 8
MANOPOLA3_1
 10
-15.638
 20
-4.3541
 30
55.4286
 70
192
 0
VERTEX
 8
MANOPOLA3_1
 10
-15.6616
 20
-4.3652
 30
55.4212
 70
192
 0
VERTEX
 8
MANOPOLA3_1
 10
-15.933
 20
-4.3371
 30
55.5155
 70
192
 0
VERTEX
 8
MANOPOLA3_1
 10
-15.9437
 20
-4.3541
 30
55.506
 70
192
 0
VERTEX
 8
MANOPOLA3_1
 10
-15.9602
 20
-4.3652
 30
55.4915
 70
192
 0
VERTEX
 8
MANOPOLA3_1
 10
-16.5587
 20
-4.3541
 30
55.506
 70
192
 0
VERTEX
 8
MANOPOLA3_1
 10
-16.5695
 20
-4.3371
 30
55.5155
 70
192
 0
VERTEX
 8
MANOPOLA3_1
 10
-16.2512
 20
-4.2987
 30
55.3183
 70
192
 0
VERTEX
 8
MANOPOLA3_1
 10
-15.9303
 20
-4.337
 30
51.2429
 70
192
 0
VERTEX
 8
MANOPOLA3_1
 10
-15.9322
 20
-4.354
 30
51.2536
 70
192
 0
VERTEX
 8
MANOPOLA3_1
 10
-15.9351
 20
-4.3652
 30
51.2702
 70
192
 0
VERTEX
 8
MANOPOLA3_1
 10
-16.8553
 20
-2.7687
 30
51.3178
 70
192
 0
VERTEX
 8
MANOPOLA3_1
 10
-16.8713
 20
-2.7687
 30
51.3326
 70
192
 0
VERTEX
 8
MANOPOLA3_1
 10
-16.8815
 20
-2.7687
 30
51.3519
 70
192
 0
VERTEX
 8
MANOPOLA3_1
 10
-16.5722
 20
-4.337
 30
51.2429
 70
192
 0
VERTEX
 8
MANOPOLA3_1
 10
-16.5703
 20
-4.354
 30
51.2536
 70
192
 0
VERTEX
 8
MANOPOLA3_1
 10
-16.5674
 20
-4.3652
 30
51.2702
 70
192
 0
VERTEX
 8
MANOPOLA3_1
 10
-16.2512
 20
-4.337
 30
51.2151
 70
192
 0
VERTEX
 8
MANOPOLA3_1
 10
-16.2512
 20
-4.354
 30
51.2258
 70
192
 0
VERTEX
 8
MANOPOLA3_1
 10
-16.2512
 20
-4.3652
 30
51.2426
 70
192
 0
VERTEX
 8
MANOPOLA3_1
 10
-16.8799
 20
-4.3371
 30
55.4334
 70
192
 0
VERTEX
 8
MANOPOLA3_1
 10
-16.8644
 20
-4.3541
 30
55.4285
 70
192
 0
VERTEX
 8
MANOPOLA3_1
 10
-16.8409
 20
-4.3652
 30
55.4212
 70
192
 0
VERTEX
 8
MANOPOLA3_1
 10
-15.6665
 20
-4.3541
 30
51.3244
 70
192
 0
VERTEX
 8
MANOPOLA3_1
 10
-15.6323
 20
-4.3541
 30
51.3689
 70
192
 0
VERTEX
 8
MANOPOLA3_1
 10
-15.6311
 20
-4.3187
 30
51.3326
 70
192
 0
VERTEX
 8
MANOPOLA3_1
 10
-15.6498
 20
-4.3527
 30
51.3302
 70
192
 0
VERTEX
 8
MANOPOLA3_1
 10
-15.667
 20
-4.3649
 30
51.341
 70
192
 0
VERTEX
 8
MANOPOLA3_1
 10
-15.6485
 20
-4.3649
 30
51.3651
 70
192
 0
VERTEX
 8
MANOPOLA3_1
 10
-15.6336
 20
-4.3527
 30
51.3513
 70
192
 0
VERTEX
 8
MANOPOLA3_1
 10
-15.6215
 20
-4.3378
 30
51.3714
 70
192
 0
VERTEX
 8
MANOPOLA3_1
 10
-15.6211
 20
-4.3187
 30
51.3514
 70
192
 0
VERTEX
 8
MANOPOLA3_1
 10
-15.6327
 20
-4.3353
 30
51.3338
 70
192
 0
VERTEX
 8
MANOPOLA3_1
 10
-15.6466
 20
-4.3187
 30
51.3181
 70
192
 0
VERTEX
 8
MANOPOLA3_1
 10
-15.6661
 20
-4.3378
 30
51.3133
 70
192
 0
VERTEX
 8
MANOPOLA3_1
 10
-15.6485
 20
-4.3612
 30
51.346
 70
192
 0
VERTEX
 8
MANOPOLA3_1
 10
-15.6249
 20
-4.3372
 30
51.3512
 70
192
 0
VERTEX
 8
MANOPOLA3_1
 10
-15.6474
 20
-4.3372
 30
51.3218
 70
192
 0
VERTEX
 8
MANOPOLA3_1
 10
-15.6471
 20
-2.7687
 30
51.3178
 70
192
 0
VERTEX
 8
MANOPOLA3_1
 10
-15.6311
 20
-2.7687
 30
51.3326
 70
192
 0
VERTEX
 8
MANOPOLA3_1
 10
-15.6209
 20
-2.7687
 30
51.3519
 70
192
 0
VERTEX
 8
MANOPOLA3_1
 10
-15.6177
 20
-3.0688
 30
51.3723
 70
192
 0
VERTEX
 8
MANOPOLA3_1
 10
-15.621
 20
-3.0688
 30
51.3518
 70
192
 0
VERTEX
 8
MANOPOLA3_1
 10
-15.6311
 20
-3.0688
 30
51.3326
 70
192
 0
VERTEX
 8
MANOPOLA3_1
 10
-15.666
 20
-3.0688
 30
51.3094
 70
192
 0
VERTEX
 8
MANOPOLA3_1
 10
-15.647
 20
-3.0688
 30
51.3179
 70
192
 0
VERTEX
 8
MANOPOLA3_1
 10
-15.9296
 20
-3.0688
 30
51.2389
 70
192
 0
VERTEX
 8
MANOPOLA3_1
 10
-16.2512
 20
-3.0688
 30
51.2109
 70
192
 0
VERTEX
 8
MANOPOLA3_1
 10
-16.8848
 20
-3.0402
 30
53.6943
 70
192
 0
VERTEX
 8
MANOPOLA3_1
 10
-16.8365
 20
-3.0688
 30
51.3094
 70
192
 0
VERTEX
 8
MANOPOLA3_1
 10
-16.5729
 20
-3.0688
 30
51.2389
 70
192
 0
VERTEX
 8
MANOPOLA3_1
 10
-16.8815
 20
-3.0688
 30
51.3518
 70
192
 0
VERTEX
 8
MANOPOLA3_1
 10
-16.2512
 20
-4.2987
 30
54.9171
 70
192
 0
VERTEX
 8
MANOPOLA3_1
 10
-16.8713
 20
-3.0688
 30
51.3326
 70
192
 0
VERTEX
 8
MANOPOLA3_1
 10
-16.8554
 20
-3.0688
 30
51.3179
 70
192
 0
VERTEX
 8
MANOPOLA3_1
 10
-16.0851
 20
-4.3687
 30
53.6943
 70
192
 0
VERTEX
 8
MANOPOLA3_1
 10
-16.2512
 20
-4.3687
 30
53.6943
 70
192
 0
VERTEX
 8
MANOPOLA3_1
 10
-15.6789
 20
-4.3687
 30
53.6943
 70
192
 0
VERTEX
 8
MANOPOLA3_1
 10
-15.9852
 20
-4.3687
 30
53.6943
 70
192
 0
VERTEX
 8
MANOPOLA3_1
 10
-16.4174
 20
-4.3687
 30
53.6943
 70
192
 0
VERTEX
 8
MANOPOLA3_1
 10
-16.5184
 20
-4.3687
 30
53.6943
 70
192
 0
VERTEX
 8
MANOPOLA3_1
 10
-16.8236
 20
-4.3687
 30
53.6943
 70
192
 0
VERTEX
 8
MANOPOLA3_1
 10
-15.6561
 20
-4.3651
 30
53.6943
 70
192
 0
VERTEX
 8
MANOPOLA3_1
 10
-16.8464
 20
-4.3651
 30
53.6943
 70
192
 0
VERTEX
 8
MANOPOLA3_1
 10
-15.6356
 20
-4.3541
 30
53.6943
 70
192
 0
VERTEX
 8
MANOPOLA3_1
 10
-15.6221
 20
-4.3374
 30
53.6943
 70
192
 0
VERTEX
 8
MANOPOLA3_1
 10
-15.6177
 20
-4.3187
 30
53.6943
 70
192
 0
VERTEX
 8
MANOPOLA3_1
 10
-16.8669
 20
-4.3541
 30
53.6943
 70
192
 0
VERTEX
 8
MANOPOLA3_1
 10
-16.8804
 20
-4.3374
 30
53.6943
 70
192
 0
VERTEX
 8
MANOPOLA3_1
 10
-16.8848
 20
-4.3187
 30
53.6943
 70
192
 0
VERTEX
 8
MANOPOLA3_1
 10
-16.2512
 20
-3.0188
 30
55.5466
 70
192
 0
VERTEX
 8
MANOPOLA3_1
 10
-15.9296
 20
-3.0188
 30
55.5185
 70
192
 0
VERTEX
 8
MANOPOLA3_1
 10
-16.5729
 20
-3.0188
 30
55.5185
 70
192
 0
VERTEX
 8
MANOPOLA3_1
 10
-16.2512
 20
-2.7687
 30
55.5466
 70
192
 0
VERTEX
 8
MANOPOLA3_1
 10
-16.2512
 20
-2.7687
 30
53.6943
 70
192
 0
VERTEX
 8
MANOPOLA3_1
 10
-15.9296
 20
-2.7687
 30
53.6943
 70
192
 0
VERTEX
 8
MANOPOLA3_1
 10
-15.6177
 20
-2.7687
 30
53.6943
 70
192
 0
VERTEX
 8
MANOPOLA3_1
 10
-16.2512
 20
-4.2987
 30
55.2679
 70
192
 0
VERTEX
 8
MANOPOLA3_1
 10
-15.6177
 20
-3.0402
 30
53.6943
 70
192
 0
VERTEX
 8
MANOPOLA3_1
 10
-16.2512
 20
-4.2987
 30
54.8667
 70
192
 0
VERTEX
 8
MANOPOLA3_1
 10
0
 20
0
 30
0
 70
128
 71
61
 72
107
 73
116
 74
110
 0
VERTEX
 8
MANOPOLA3_1
 10
0
 20
0
 30
0
 70
128
 71
60
 72
71
 73
78
 74
74
 0
VERTEX
 8
MANOPOLA3_1
 10
0
 20
0
 30
0
 70
128
 71
122
 72
39
 73
147
 74
159
 0
VERTEX
 8
MANOPOLA3_1
 10
0
 20
0
 30
0
 70
128
 71
60
 72
74
 73
79
 74
68
 0
VERTEX
 8
MANOPOLA3_1
 10
0
 20
0
 30
0
 70
128
 71
68
 72
65
 73
69
 74
77
 0
VERTEX
 8
MANOPOLA3_1
 10
0
 20
0
 30
0
 70
128
 71
53
 72
103
 73
30
 74
58
 0
VERTEX
 8
MANOPOLA3_1
 10
0
 20
0
 30
0
 70
128
 71
77
 72
70
 73
66
 74
71
 0
VERTEX
 8
MANOPOLA3_1
 10
0
 20
0
 30
0
 70
128
 71
69
 72
52
 73
70
 74
77
 0
VERTEX
 8
MANOPOLA3_1
 10
0
 20
0
 30
0
 70
128
 71
157
 72
55
 73
122
 74
159
 0
VERTEX
 8
MANOPOLA3_1
 10
0
 20
0
 30
0
 70
128
 71
71
 72
66
 73
72
 74
78
 0
VERTEX
 8
MANOPOLA3_1
 10
0
 20
0
 30
0
 70
128
 71
78
 72
73
 73
67
 74
74
 0
VERTEX
 8
MANOPOLA3_1
 10
0
 20
0
 30
0
 70
128
 71
33
 72
34
 73
127
 74
128
 0
VERTEX
 8
MANOPOLA3_1
 10
0
 20
0
 30
0
 70
128
 71
72
 72
31
 73
73
 74
78
 0
VERTEX
 8
MANOPOLA3_1
 10
0
 20
0
 30
0
 70
128
 71
74
 72
67
 73
75
 74
79
 0
VERTEX
 8
MANOPOLA3_1
 10
0
 20
0
 30
0
 70
128
 71
79
 72
76
 73
65
 74
68
 0
VERTEX
 8
MANOPOLA3_1
 10
0
 20
0
 30
0
 70
128
 71
75
 72
29
 73
76
 74
79
 0
VERTEX
 8
MANOPOLA3_1
 10
0
 20
0
 30
0
 70
128
 71
61
 72
110
 73
117
 74
113
 0
VERTEX
 8
MANOPOLA3_1
 10
0
 20
0
 30
0
 70
128
 71
135
 72
92
 73
93
 74
134
 0
VERTEX
 8
MANOPOLA3_1
 10
0
 20
0
 30
0
 70
128
 71
33
 72
98
 73
89
 74
34
 0
VERTEX
 8
MANOPOLA3_1
 10
0
 20
0
 30
0
 70
128
 71
61
 72
113
 73
118
 74
107
 0
VERTEX
 8
MANOPOLA3_1
 10
0
 20
0
 30
0
 70
128
 71
62
 72
63
 73
84
 74
85
 0
VERTEX
 8
MANOPOLA3_1
 10
0
 20
0
 30
0
 70
128
 71
60
 72
68
 73
77
 74
71
 0
VERTEX
 8
MANOPOLA3_1
 10
0
 20
0
 30
0
 70
128
 71
151
 72
154
 73
41
 74
152
 0
VERTEX
 8
MANOPOLA3_1
 10
0
 20
0
 30
0
 70
128
 71
155
 72
154
 73
4
 74
6
 0
VERTEX
 8
MANOPOLA3_1
 10
0
 20
0
 30
0
 70
128
 71
107
 72
104
 73
108
 74
116
 0
VERTEX
 8
MANOPOLA3_1
 10
0
 20
0
 30
0
 70
128
 71
38
 72
45
 73
151
 74
152
 0
VERTEX
 8
MANOPOLA3_1
 10
0
 20
0
 30
0
 70
128
 71
63
 72
64
 73
83
 74
84
 0
VERTEX
 8
MANOPOLA3_1
 10
0
 20
0
 30
0
 70
128
 71
116
 72
109
 73
105
 74
110
 0
VERTEX
 8
MANOPOLA3_1
 10
0
 20
0
 30
0
 70
128
 71
149
 72
101
 73
102
 74
148
 0
VERTEX
 8
MANOPOLA3_1
 10
0
 20
0
 30
0
 70
128
 71
64
 72
45
 73
38
 74
83
 0
VERTEX
 8
MANOPOLA3_1
 10
0
 20
0
 30
0
 70
128
 71
43
 72
85
 73
82
 74
59
 0
VERTEX
 8
MANOPOLA3_1
 10
0
 20
0
 30
0
 70
128
 71
57
 72
47
 73
4
 74
153
 0
VERTEX
 8
MANOPOLA3_1
 10
0
 20
0
 30
0
 70
128
 71
34
 72
35
 73
125
 74
127
 0
VERTEX
 8
MANOPOLA3_1
 10
0
 20
0
 30
0
 70
128
 71
86
 72
87
 73
64
 74
63
 0
VERTEX
 8
MANOPOLA3_1
 10
0
 20
0
 30
0
 70
128
 71
147
 72
40
 73
44
 74
159
 0
VERTEX
 8
MANOPOLA3_1
 10
0
 20
0
 30
0
 70
128
 71
58
 72
30
 73
62
 74
42
 0
VERTEX
 8
MANOPOLA3_1
 10
0
 20
0
 30
0
 70
128
 71
1
 72
41
 73
156
 74
157
 0
VERTEX
 8
MANOPOLA3_1
 10
0
 20
0
 30
0
 70
128
 71
114
 72
106
 73
124
 74
126
 0
VERTEX
 8
MANOPOLA3_1
 10
0
 20
0
 30
0
 70
128
 71
130
 72
37
 73
92
 74
135
 0
VERTEX
 8
MANOPOLA3_1
 10
0
 20
0
 30
0
 70
128
 71
119
 72
36
 73
125
 74
126
 0
VERTEX
 8
MANOPOLA3_1
 10
0
 20
0
 30
0
 70
128
 71
140
 72
51
 73
52
 74
141
 0
VERTEX
 8
MANOPOLA3_1
 10
0
 20
0
 30
0
 70
128
 71
142
 72
9
 73
141
 74
141
 0
VERTEX
 8
MANOPOLA3_1
 10
0
 20
0
 30
0
 70
128
 71
142
 72
53
 73
25
 74
9
 0
VERTEX
 8
MANOPOLA3_1
 10
0
 20
0
 30
0
 70
128
 71
30
 72
86
 73
63
 74
62
 0
VERTEX
 8
MANOPOLA3_1
 10
0
 20
0
 30
0
 70
128
 71
129
 72
150
 73
29
 74
54
 0
VERTEX
 8
MANOPOLA3_1
 10
0
 20
0
 30
0
 70
128
 71
82
 72
81
 73
145
 74
143
 0
VERTEX
 8
MANOPOLA3_1
 10
0
 20
0
 30
0
 70
128
 71
108
 72
48
 73
109
 74
116
 0
VERTEX
 8
MANOPOLA3_1
 10
0
 20
0
 30
0
 70
128
 71
156
 72
41
 73
154
 74
155
 0
VERTEX
 8
MANOPOLA3_1
 10
0
 20
0
 30
0
 70
128
 71
81
 72
80
 73
146
 74
145
 0
VERTEX
 8
MANOPOLA3_1
 10
0
 20
0
 30
0
 70
128
 71
80
 72
40
 73
147
 74
146
 0
VERTEX
 8
MANOPOLA3_1
 10
0
 20
0
 30
0
 70
128
 71
4
 72
47
 73
5
 74
6
 0
VERTEX
 8
MANOPOLA3_1
 10
0
 20
0
 30
0
 70
128
 71
69
 72
65
 73
148
 74
144
 0
VERTEX
 8
MANOPOLA3_1
 10
0
 20
0
 30
0
 70
128
 71
110
 72
105
 73
111
 74
117
 0
VERTEX
 8
MANOPOLA3_1
 10
0
 20
0
 30
0
 70
128
 71
65
 72
76
 73
149
 74
148
 0
VERTEX
 8
MANOPOLA3_1
 10
0
 20
0
 30
0
 70
128
 71
76
 72
29
 73
150
 74
149
 0
VERTEX
 8
MANOPOLA3_1
 10
0
 20
0
 30
0
 70
128
 71
72
 72
66
 73
96
 74
95
 0
VERTEX
 8
MANOPOLA3_1
 10
0
 20
0
 30
0
 70
128
 71
155
 72
7
 73
8
 74
156
 0
VERTEX
 8
MANOPOLA3_1
 10
0
 20
0
 30
0
 70
128
 71
66
 72
70
 73
97
 74
96
 0
VERTEX
 8
MANOPOLA3_1
 10
0
 20
0
 30
0
 70
128
 71
117
 72
112
 73
106
 74
113
 0
VERTEX
 8
MANOPOLA3_1
 10
0
 20
0
 30
0
 70
128
 71
150
 72
46
 73
101
 74
149
 0
VERTEX
 8
MANOPOLA3_1
 10
0
 20
0
 30
0
 70
128
 71
70
 72
52
 73
51
 74
97
 0
VERTEX
 8
MANOPOLA3_1
 10
0
 20
0
 30
0
 70
128
 71
95
 72
96
 73
99
 74
98
 0
VERTEX
 8
MANOPOLA3_1
 10
0
 20
0
 30
0
 70
128
 71
96
 72
97
 73
100
 74
99
 0
VERTEX
 8
MANOPOLA3_1
 10
0
 20
0
 30
0
 70
128
 71
97
 72
51
 73
50
 74
100
 0
VERTEX
 8
MANOPOLA3_1
 10
0
 20
0
 30
0
 70
128
 71
111
 72
39
 73
112
 74
117
 0
VERTEX
 8
MANOPOLA3_1
 10
0
 20
0
 30
0
 70
128
 71
44
 72
40
 73
38
 74
152
 0
VERTEX
 8
MANOPOLA3_1
 10
0
 20
0
 30
0
 70
128
 71
89
 72
90
 73
104
 74
115
 0
VERTEX
 8
MANOPOLA3_1
 10
0
 20
0
 30
0
 70
128
 71
90
 72
91
 73
108
 74
104
 0
VERTEX
 8
MANOPOLA3_1
 10
0
 20
0
 30
0
 70
128
 71
59
 72
82
 73
143
 74
138
 0
VERTEX
 8
MANOPOLA3_1
 10
0
 20
0
 30
0
 70
128
 71
91
 72
49
 73
48
 74
108
 0
VERTEX
 8
MANOPOLA3_1
 10
0
 20
0
 30
0
 70
128
 71
113
 72
106
 73
114
 74
118
 0
VERTEX
 8
MANOPOLA3_1
 10
0
 20
0
 30
0
 70
128
 71
87
 72
56
 73
45
 74
64
 0
VERTEX
 8
MANOPOLA3_1
 10
0
 20
0
 30
0
 70
128
 71
2
 72
3
 73
94
 74
94
 0
VERTEX
 8
MANOPOLA3_1
 10
0
 20
0
 30
0
 70
128
 71
153
 72
4
 73
154
 74
151
 0
VERTEX
 8
MANOPOLA3_1
 10
0
 20
0
 30
0
 70
128
 71
16
 72
14
 73
160
 74
160
 0
VERTEX
 8
MANOPOLA3_1
 10
0
 20
0
 30
0
 70
128
 71
32
 72
33
 73
128
 74
131
 0
VERTEX
 8
MANOPOLA3_1
 10
0
 20
0
 30
0
 70
128
 71
143
 72
109
 73
48
 74
138
 0
VERTEX
 8
MANOPOLA3_1
 10
0
 20
0
 30
0
 70
128
 71
85
 72
84
 73
81
 74
82
 0
VERTEX
 8
MANOPOLA3_1
 10
0
 20
0
 30
0
 70
128
 71
84
 72
83
 73
80
 74
81
 0
VERTEX
 8
MANOPOLA3_1
 10
0
 20
0
 30
0
 70
128
 71
29
 72
75
 73
132
 74
54
 0
VERTEX
 8
MANOPOLA3_1
 10
0
 20
0
 30
0
 70
128
 71
160
 72
133
 73
28
 74
16
 0
VERTEX
 8
MANOPOLA3_1
 10
0
 20
0
 30
0
 70
128
 71
3
 72
5
 73
129
 74
54
 0
VERTEX
 8
MANOPOLA3_1
 10
0
 20
0
 30
0
 70
128
 71
144
 72
103
 73
53
 74
142
 0
VERTEX
 8
MANOPOLA3_1
 10
0
 20
0
 30
0
 70
128
 71
10
 72
26
 73
158
 74
133
 0
VERTEX
 8
MANOPOLA3_1
 10
0
 20
0
 30
0
 70
128
 71
75
 72
67
 73
134
 74
132
 0
VERTEX
 8
MANOPOLA3_1
 10
0
 20
0
 30
0
 70
128
 71
67
 72
73
 73
135
 74
134
 0
VERTEX
 8
MANOPOLA3_1
 10
0
 20
0
 30
0
 70
128
 71
13
 72
14
 73
16
 74
15
 0
VERTEX
 8
MANOPOLA3_1
 10
0
 20
0
 30
0
 70
128
 71
25
 72
26
 73
10
 74
9
 0
VERTEX
 8
MANOPOLA3_1
 10
0
 20
0
 30
0
 70
128
 71
73
 72
31
 73
130
 74
135
 0
VERTEX
 8
MANOPOLA3_1
 10
0
 20
0
 30
0
 70
128
 71
8
 72
36
 73
119
 74
119
 0
VERTEX
 8
MANOPOLA3_1
 10
0
 20
0
 30
0
 70
128
 71
57
 72
46
 73
150
 74
129
 0
VERTEX
 8
MANOPOLA3_1
 10
0
 20
0
 30
0
 70
128
 71
125
 72
35
 73
114
 74
126
 0
VERTEX
 8
MANOPOLA3_1
 10
0
 20
0
 30
0
 70
128
 71
52
 72
69
 73
144
 74
142
 0
VERTEX
 8
MANOPOLA3_1
 10
0
 20
0
 30
0
 70
128
 71
103
 72
102
 73
86
 74
30
 0
VERTEX
 8
MANOPOLA3_1
 10
0
 20
0
 30
0
 70
128
 71
102
 72
101
 73
87
 74
86
 0
VERTEX
 8
MANOPOLA3_1
 10
0
 20
0
 30
0
 70
128
 71
101
 72
46
 73
56
 74
87
 0
VERTEX
 8
MANOPOLA3_1
 10
0
 20
0
 30
0
 70
128
 71
83
 72
38
 73
40
 74
80
 0
VERTEX
 8
MANOPOLA3_1
 10
0
 20
0
 30
0
 70
128
 71
145
 72
105
 73
109
 74
143
 0
VERTEX
 8
MANOPOLA3_1
 10
0
 20
0
 30
0
 70
128
 71
134
 72
93
 73
94
 74
132
 0
VERTEX
 8
MANOPOLA3_1
 10
0
 20
0
 30
0
 70
128
 71
5
 72
47
 73
57
 74
129
 0
VERTEX
 8
MANOPOLA3_1
 10
0
 20
0
 30
0
 70
128
 71
45
 72
56
 73
153
 74
151
 0
VERTEX
 8
MANOPOLA3_1
 10
0
 20
0
 30
0
 70
128
 71
153
 72
56
 73
46
 74
57
 0
VERTEX
 8
MANOPOLA3_1
 10
0
 20
0
 30
0
 70
128
 71
127
 72
8
 73
7
 74
128
 0
VERTEX
 8
MANOPOLA3_1
 10
0
 20
0
 30
0
 70
128
 71
125
 72
36
 73
8
 74
127
 0
VERTEX
 8
MANOPOLA3_1
 10
0
 20
0
 30
0
 70
128
 71
112
 72
39
 73
122
 74
123
 0
VERTEX
 8
MANOPOLA3_1
 10
0
 20
0
 30
0
 70
128
 71
106
 72
112
 73
123
 74
124
 0
VERTEX
 8
MANOPOLA3_1
 10
0
 20
0
 30
0
 70
128
 71
98
 72
99
 73
90
 74
89
 0
VERTEX
 8
MANOPOLA3_1
 10
0
 20
0
 30
0
 70
128
 71
2
 72
7
 73
155
 74
6
 0
VERTEX
 8
MANOPOLA3_1
 10
0
 20
0
 30
0
 70
128
 71
93
 72
92
 73
2
 74
2
 0
VERTEX
 8
MANOPOLA3_1
 10
0
 20
0
 30
0
 70
128
 71
139
 72
27
 73
138
 74
138
 0
VERTEX
 8
MANOPOLA3_1
 10
0
 20
0
 30
0
 70
128
 71
27
 72
17
 73
59
 74
138
 0
VERTEX
 8
MANOPOLA3_1
 10
0
 20
0
 30
0
 70
128
 71
139
 72
48
 73
49
 74
136
 0
VERTEX
 8
MANOPOLA3_1
 10
0
 20
0
 30
0
 70
128
 71
34
 72
89
 73
115
 74
35
 0
VERTEX
 8
MANOPOLA3_1
 10
0
 20
0
 30
0
 70
128
 71
141
 72
52
 73
142
 74
142
 0
VERTEX
 8
MANOPOLA3_1
 10
0
 20
0
 30
0
 70
128
 71
13
 72
15
 73
136
 74
137
 0
VERTEX
 8
MANOPOLA3_1
 10
0
 20
0
 30
0
 70
128
 71
20
 72
18
 73
158
 74
88
 0
VERTEX
 8
MANOPOLA3_1
 10
0
 20
0
 30
0
 70
128
 71
9
 72
10
 73
12
 74
11
 0
VERTEX
 8
MANOPOLA3_1
 10
0
 20
0
 30
0
 70
128
 71
58
 72
23
 73
25
 74
53
 0
VERTEX
 8
MANOPOLA3_1
 10
0
 20
0
 30
0
 70
128
 71
138
 72
48
 73
139
 74
139
 0
VERTEX
 8
MANOPOLA3_1
 10
0
 20
0
 30
0
 70
128
 71
11
 72
12
 73
14
 74
13
 0
VERTEX
 8
MANOPOLA3_1
 10
0
 20
0
 30
0
 70
128
 71
12
 72
10
 73
133
 74
160
 0
VERTEX
 8
MANOPOLA3_1
 10
0
 20
0
 30
0
 70
128
 71
15
 72
27
 73
139
 74
136
 0
VERTEX
 8
MANOPOLA3_1
 10
0
 20
0
 30
0
 70
128
 71
50
 72
51
 73
140
 74
137
 0
VERTEX
 8
MANOPOLA3_1
 10
0
 20
0
 30
0
 70
128
 71
15
 72
16
 73
28
 74
27
 0
VERTEX
 8
MANOPOLA3_1
 10
0
 20
0
 30
0
 70
128
 71
27
 72
28
 73
18
 74
17
 0
VERTEX
 8
MANOPOLA3_1
 10
0
 20
0
 30
0
 70
128
 71
9
 72
11
 73
140
 74
141
 0
VERTEX
 8
MANOPOLA3_1
 10
0
 20
0
 30
0
 70
128
 71
59
 72
17
 73
19
 74
43
 0
VERTEX
 8
MANOPOLA3_1
 10
0
 20
0
 30
0
 70
128
 71
17
 72
18
 73
20
 74
19
 0
VERTEX
 8
MANOPOLA3_1
 10
0
 20
0
 30
0
 70
128
 71
19
 72
20
 73
22
 74
21
 0
VERTEX
 8
MANOPOLA3_1
 10
0
 20
0
 30
0
 70
128
 71
43
 72
19
 73
21
 74
42
 0
VERTEX
 8
MANOPOLA3_1
 10
0
 20
0
 30
0
 70
128
 71
42
 72
21
 73
23
 74
58
 0
VERTEX
 8
MANOPOLA3_1
 10
0
 20
0
 30
0
 70
128
 71
21
 72
22
 73
24
 74
23
 0
VERTEX
 8
MANOPOLA3_1
 10
0
 20
0
 30
0
 70
128
 71
23
 72
24
 73
26
 74
25
 0
VERTEX
 8
MANOPOLA3_1
 10
0
 20
0
 30
0
 70
128
 71
24
 72
22
 73
88
 74
88
 0
VERTEX
 8
MANOPOLA3_1
 10
0
 20
0
 30
0
 70
128
 71
99
 72
100
 73
91
 74
90
 0
VERTEX
 8
MANOPOLA3_1
 10
0
 20
0
 30
0
 70
128
 71
100
 72
50
 73
49
 74
91
 0
VERTEX
 8
MANOPOLA3_1
 10
0
 20
0
 30
0
 70
128
 71
136
 72
49
 73
50
 74
137
 0
VERTEX
 8
MANOPOLA3_1
 10
0
 20
0
 30
0
 70
128
 71
92
 72
37
 73
2
 74
2
 0
VERTEX
 8
MANOPOLA3_1
 10
0
 20
0
 30
0
 70
128
 71
130
 72
31
 73
32
 74
131
 0
VERTEX
 8
MANOPOLA3_1
 10
0
 20
0
 30
0
 70
128
 71
140
 72
11
 73
13
 74
137
 0
VERTEX
 8
MANOPOLA3_1
 10
0
 20
0
 30
0
 70
128
 71
31
 72
72
 73
95
 74
32
 0
VERTEX
 8
MANOPOLA3_1
 10
0
 20
0
 30
0
 70
128
 71
32
 72
95
 73
98
 74
33
 0
VERTEX
 8
MANOPOLA3_1
 10
0
 20
0
 30
0
 70
128
 71
146
 72
111
 73
105
 74
145
 0
VERTEX
 8
MANOPOLA3_1
 10
0
 20
0
 30
0
 70
128
 71
147
 72
39
 73
111
 74
146
 0
VERTEX
 8
MANOPOLA3_1
 10
0
 20
0
 30
0
 70
128
 71
44
 72
152
 73
41
 74
1
 0
VERTEX
 8
MANOPOLA3_1
 10
0
 20
0
 30
0
 70
128
 71
42
 72
62
 73
85
 74
43
 0
VERTEX
 8
MANOPOLA3_1
 10
0
 20
0
 30
0
 70
128
 71
124
 72
120
 73
119
 74
126
 0
VERTEX
 8
MANOPOLA3_1
 10
0
 20
0
 30
0
 70
128
 71
131
 72
2
 73
37
 74
130
 0
VERTEX
 8
MANOPOLA3_1
 10
0
 20
0
 30
0
 70
128
 71
118
 72
115
 73
104
 74
107
 0
VERTEX
 8
MANOPOLA3_1
 10
0
 20
0
 30
0
 70
128
 71
114
 72
35
 73
115
 74
118
 0
VERTEX
 8
MANOPOLA3_1
 10
0
 20
0
 30
0
 70
128
 71
148
 72
102
 73
103
 74
144
 0
VERTEX
 8
MANOPOLA3_1
 10
0
 20
0
 30
0
 70
128
 71
128
 72
7
 73
2
 74
131
 0
VERTEX
 8
MANOPOLA3_1
 10
0
 20
0
 30
0
 70
128
 71
132
 72
94
 73
3
 74
54
 0
VERTEX
 8
MANOPOLA3_1
 10
0
 20
0
 30
0
 70
128
 71
2
 72
94
 73
93
 74
93
 0
VERTEX
 8
MANOPOLA3_1
 10
0
 20
0
 30
0
 70
128
 71
2
 72
6
 73
5
 74
3
 0
VERTEX
 8
MANOPOLA3_1
 10
0
 20
0
 30
0
 70
128
 71
14
 72
12
 73
160
 74
160
 0
VERTEX
 8
MANOPOLA3_1
 10
0
 20
0
 30
0
 70
128
 71
157
 72
156
 73
8
 74
55
 0
VERTEX
 8
MANOPOLA3_1
 10
0
 20
0
 30
0
 70
128
 71
18
 72
28
 73
133
 74
158
 0
VERTEX
 8
MANOPOLA3_1
 10
0
 20
0
 30
0
 70
128
 71
8
 72
121
 73
55
 74
55
 0
VERTEX
 8
MANOPOLA3_1
 10
0
 20
0
 30
0
 70
128
 71
22
 72
20
 73
88
 74
88
 0
VERTEX
 8
MANOPOLA3_1
 10
0
 20
0
 30
0
 70
128
 71
88
 72
158
 73
26
 74
24
 0
VERTEX
 8
MANOPOLA3_1
 10
0
 20
0
 30
0
 70
128
 71
8
 72
120
 73
121
 74
121
 0
VERTEX
 8
MANOPOLA3_1
 10
0
 20
0
 30
0
 70
128
 71
8
 72
119
 73
120
 74
120
 0
VERTEX
 8
MANOPOLA3_1
 10
0
 20
0
 30
0
 70
128
 71
55
 72
121
 73
123
 74
122
 0
VERTEX
 8
MANOPOLA3_1
 10
0
 20
0
 30
0
 70
128
 71
121
 72
120
 73
124
 74
123
 0
VERTEX
 8
MANOPOLA3_1
 10
0
 20
0
 30
0
 70
128
 71
44
 72
1
 73
157
 74
159
 0
SEQEND
 0
POLYLINE
 8
BASE3
 66
1
 10
0.0
 20
0.0
 30
0.0
 70
64
 71
207
 72
251
 0
VERTEX
 8
BASE3
 10
16.2473
 20
-2.3689
 30
53.6941
 70
192
 0
VERTEX
 8
BASE3
 10
16.5692
 20
-2.769
 30
53.6941
 70
192
 0
VERTEX
 8
BASE3
 10
18.1011
 20
-2.3689
 30
53.6941
 70
192
 0
VERTEX
 8
BASE3
 10
14.6419
 20
-2.3689
 30
52.7673
 70
192
 0
VERTEX
 8
BASE3
 10
18.0729
 20
-2.3689
 30
54.016
 70
192
 0
VERTEX
 8
BASE3
 10
14.8273
 20
-2.3689
 30
52.5026
 70
192
 0
VERTEX
 8
BASE3
 10
17.9893
 20
-2.3689
 30
54.3282
 70
192
 0
VERTEX
 8
BASE3
 10
15.0558
 20
-2.3689
 30
52.2741
 70
192
 0
VERTEX
 8
BASE3
 10
17.8527
 20
-2.3689
 30
54.621
 70
192
 0
VERTEX
 8
BASE3
 10
15.3205
 20
-2.3689
 30
52.0888
 70
192
 0
VERTEX
 8
BASE3
 10
17.6674
 20
-2.3689
 30
54.8857
 70
192
 0
VERTEX
 8
BASE3
 10
15.6133
 20
-2.3689
 30
51.9522
 70
192
 0
VERTEX
 8
BASE3
 10
17.4389
 20
-2.3689
 30
55.1142
 70
192
 0
VERTEX
 8
BASE3
 10
15.9254
 20
-2.3689
 30
51.8686
 70
192
 0
VERTEX
 8
BASE3
 10
16.2473
 20
-2.3689
 30
51.8404
 70
192
 0
VERTEX
 8
BASE3
 10
17.1742
 20
-2.3689
 30
55.2995
 70
192
 0
VERTEX
 8
BASE3
 10
16.5692
 20
-2.3689
 30
51.8686
 70
192
 0
VERTEX
 8
BASE3
 10
16.8813
 20
-2.3689
 30
51.9522
 70
192
 0
VERTEX
 8
BASE3
 10
16.8813
 20
-2.3689
 30
55.4361
 70
192
 0
VERTEX
 8
BASE3
 10
17.1742
 20
-2.3689
 30
52.0888
 70
192
 0
VERTEX
 8
BASE3
 10
16.5692
 20
-2.3689
 30
55.5197
 70
192
 0
VERTEX
 8
BASE3
 10
15.6133
 20
-3.0702
 30
53.6941
 70
192
 0
VERTEX
 8
BASE3
 10
16.8813
 20
-3.0702
 30
53.6941
 70
192
 0
VERTEX
 8
BASE3
 10
16.2473
 20
-2.3689
 30
55.5479
 70
192
 0
VERTEX
 8
BASE3
 10
15.9254
 20
-2.769
 30
53.6941
 70
192
 0
VERTEX
 8
BASE3
 10
16.2473
 20
-2.769
 30
53.6941
 70
192
 0
VERTEX
 8
BASE3
 10
17.4389
 20
-2.3689
 30
52.2741
 70
192
 0
VERTEX
 8
BASE3
 10
15.9254
 20
-2.3689
 30
55.5197
 70
192
 0
VERTEX
 8
BASE3
 10
15.6133
 20
-2.769
 30
53.6941
 70
192
 0
VERTEX
 8
BASE3
 10
16.8813
 20
-2.769
 30
53.6941
 70
192
 0
VERTEX
 8
BASE3
 10
15.6133
 20
-2.3689
 30
55.4361
 70
192
 0
VERTEX
 8
BASE3
 10
17.6674
 20
-2.3689
 30
52.5026
 70
192
 0
VERTEX
 8
BASE3
 10
15.3205
 20
-2.3689
 30
55.2995
 70
192
 0
VERTEX
 8
BASE3
 10
17.8527
 20
-2.3689
 30
52.7673
 70
192
 0
VERTEX
 8
BASE3
 10
15.0558
 20
-2.3689
 30
55.1142
 70
192
 0
VERTEX
 8
BASE3
 10
17.9893
 20
-2.3689
 30
53.0601
 70
192
 0
VERTEX
 8
BASE3
 10
14.8273
 20
-2.3689
 30
54.8857
 70
192
 0
VERTEX
 8
BASE3
 10
18.0729
 20
-2.3689
 30
53.3722
 70
192
 0
VERTEX
 8
BASE3
 10
14.6419
 20
-2.3689
 30
54.621
 70
192
 0
VERTEX
 8
BASE3
 10
16.8813
 20
-2.769
 30
51.9522
 70
192
 0
VERTEX
 8
BASE3
 10
14.5054
 20
-2.3689
 30
54.3282
 70
192
 0
VERTEX
 8
BASE3
 10
15.6133
 20
-2.769
 30
55.4361
 70
192
 0
VERTEX
 8
BASE3
 10
16.2473
 20
-2.769
 30
55.5479
 70
192
 0
VERTEX
 8
BASE3
 10
14.4218
 20
-2.3689
 30
54.016
 70
192
 0
VERTEX
 8
BASE3
 10
15.9254
 20
-2.769
 30
55.5197
 70
192
 0
VERTEX
 8
BASE3
 10
15.6133
 20
-2.769
 30
51.9522
 70
192
 0
VERTEX
 8
BASE3
 10
14.3936
 20
-2.3689
 30
53.6941
 70
192
 0
VERTEX
 8
BASE3
 10
15.9254
 20
-2.769
 30
51.8686
 70
192
 0
VERTEX
 8
BASE3
 10
16.2473
 20
-2.769
 30
51.8404
 70
192
 0
VERTEX
 8
BASE3
 10
14.4218
 20
-2.3689
 30
53.3722
 70
192
 0
VERTEX
 8
BASE3
 10
16.8813
 20
-2.769
 30
55.4361
 70
192
 0
VERTEX
 8
BASE3
 10
16.5692
 20
-2.769
 30
55.5197
 70
192
 0
VERTEX
 8
BASE3
 10
16.5692
 20
-2.769
 30
51.8686
 70
192
 0
VERTEX
 8
BASE3
 10
14.5054
 20
-2.3689
 30
53.0601
 70
192
 0
VERTEX
 8
BASE3
 10
18.0729
 20
-3.0202
 30
54.016
 70
192
 0
VERTEX
 8
BASE3
 10
15.3205
 20
-3.0202
 30
52.0888
 70
192
 0
VERTEX
 8
BASE3
 10
18.1011
 20
-3.0202
 30
53.6941
 70
192
 0
VERTEX
 8
BASE3
 10
17.9893
 20
-3.0202
 30
54.3282
 70
192
 0
VERTEX
 8
BASE3
 10
14.8273
 20
-3.0202
 30
52.5026
 70
192
 0
VERTEX
 8
BASE3
 10
17.8527
 20
-3.0202
 30
54.621
 70
192
 0
VERTEX
 8
BASE3
 10
15.0558
 20
-3.0202
 30
52.2741
 70
192
 0
VERTEX
 8
BASE3
 10
18.0243
 20
-3.0702
 30
53.3854
 70
192
 0
VERTEX
 8
BASE3
 10
17.6674
 20
-3.0202
 30
54.8857
 70
192
 0
VERTEX
 8
BASE3
 10
15.6133
 20
-3.0702
 30
55.3809
 70
192
 0
VERTEX
 8
BASE3
 10
16.8813
 20
-3.0702
 30
52.0074
 70
192
 0
VERTEX
 8
BASE3
 10
17.4389
 20
-3.0202
 30
55.1142
 70
192
 0
VERTEX
 8
BASE3
 10
17.6385
 20
-3.0702
 30
52.5463
 70
192
 0
VERTEX
 8
BASE3
 10
14.8561
 20
-3.0702
 30
52.5463
 70
192
 0
VERTEX
 8
BASE3
 10
17.1742
 20
-3.0202
 30
55.2995
 70
192
 0
VERTEX
 8
BASE3
 10
14.6793
 20
-3.0702
 30
52.8029
 70
192
 0
VERTEX
 8
BASE3
 10
17.4195
 20
-3.0702
 30
52.3234
 70
192
 0
VERTEX
 8
BASE3
 10
14.4704
 20
-3.0702
 30
53.3854
 70
192
 0
VERTEX
 8
BASE3
 10
17.4195
 20
-3.0702
 30
55.0649
 70
192
 0
VERTEX
 8
BASE3
 10
17.6385
 20
-3.0702
 30
54.842
 70
192
 0
VERTEX
 8
BASE3
 10
18.0243
 20
-3.0702
 30
54.0029
 70
192
 0
VERTEX
 8
BASE3
 10
16.8813
 20
-3.0702
 30
55.3809
 70
192
 0
VERTEX
 8
BASE3
 10
17.1646
 20
-3.0702
 30
55.247
 70
192
 0
VERTEX
 8
BASE3
 10
15.0751
 20
-3.0702
 30
52.3234
 70
192
 0
VERTEX
 8
BASE3
 10
15.6133
 20
-3.0702
 30
52.0074
 70
192
 0
VERTEX
 8
BASE3
 10
15.33
 20
-3.0702
 30
52.1412
 70
192
 0
VERTEX
 8
BASE3
 10
17.4389
 20
-3.0202
 30
52.2741
 70
192
 0
VERTEX
 8
BASE3
 10
14.5496
 20
-3.0702
 30
53.0854
 70
192
 0
VERTEX
 8
BASE3
 10
17.6674
 20
-3.0202
 30
52.5026
 70
192
 0
VERTEX
 8
BASE3
 10
15.6133
 20
-3.0202
 30
51.9522
 70
192
 0
VERTEX
 8
BASE3
 10
15.6133
 20
-3.0202
 30
55.4361
 70
192
 0
VERTEX
 8
BASE3
 10
15.3205
 20
-3.0202
 30
55.2995
 70
192
 0
VERTEX
 8
BASE3
 10
16.8813
 20
-3.0202
 30
51.9522
 70
192
 0
VERTEX
 8
BASE3
 10
17.1742
 20
-3.0202
 30
52.0888
 70
192
 0
VERTEX
 8
BASE3
 10
16.8813
 20
-3.0202
 30
55.4361
 70
192
 0
VERTEX
 8
BASE3
 10
17.1646
 20
-3.0702
 30
52.1412
 70
192
 0
VERTEX
 8
BASE3
 10
18.0509
 20
-3.0702
 30
53.6941
 70
192
 0
VERTEX
 8
BASE3
 10
17.8527
 20
-3.0202
 30
52.7673
 70
192
 0
VERTEX
 8
BASE3
 10
17.9451
 20
-3.0702
 30
54.3029
 70
192
 0
VERTEX
 8
BASE3
 10
17.8153
 20
-3.0702
 30
54.5853
 70
192
 0
VERTEX
 8
BASE3
 10
14.5054
 20
-3.0202
 30
53.0601
 70
192
 0
VERTEX
 8
BASE3
 10
14.6419
 20
-3.0202
 30
52.7673
 70
192
 0
VERTEX
 8
BASE3
 10
15.33
 20
-3.0702
 30
55.247
 70
192
 0
VERTEX
 8
BASE3
 10
15.0558
 20
-3.0202
 30
55.1142
 70
192
 0
VERTEX
 8
BASE3
 10
17.8153
 20
-3.0702
 30
52.8029
 70
192
 0
VERTEX
 8
BASE3
 10
17.9893
 20
-3.0202
 30
53.0601
 70
192
 0
VERTEX
 8
BASE3
 10
15.0751
 20
-3.0702
 30
55.0649
 70
192
 0
VERTEX
 8
BASE3
 10
14.8273
 20
-3.0202
 30
54.8857
 70
192
 0
VERTEX
 8
BASE3
 10
17.9451
 20
-3.0702
 30
53.0854
 70
192
 0
VERTEX
 8
BASE3
 10
18.0729
 20
-3.0202
 30
53.3722
 70
192
 0
VERTEX
 8
BASE3
 10
14.8561
 20
-3.0702
 30
54.842
 70
192
 0
VERTEX
 8
BASE3
 10
14.6419
 20
-3.0202
 30
54.621
 70
192
 0
VERTEX
 8
BASE3
 10
14.6793
 20
-3.0702
 30
54.5853
 70
192
 0
VERTEX
 8
BASE3
 10
14.5054
 20
-3.0202
 30
54.3282
 70
192
 0
VERTEX
 8
BASE3
 10
14.5496
 20
-3.0702
 30
54.3029
 70
192
 0
VERTEX
 8
BASE3
 10
14.4218
 20
-3.0202
 30
54.016
 70
192
 0
VERTEX
 8
BASE3
 10
14.4704
 20
-3.0702
 30
54.0029
 70
192
 0
VERTEX
 8
BASE3
 10
14.3936
 20
-3.0202
 30
53.6941
 70
192
 0
VERTEX
 8
BASE3
 10
14.4438
 20
-3.0702
 30
53.6941
 70
192
 0
VERTEX
 8
BASE3
 10
14.4218
 20
-3.0202
 30
53.3722
 70
192
 0
VERTEX
 8
BASE3
 10
18.0975
 20
-3.0386
 30
53.6941
 70
192
 0
VERTEX
 8
BASE3
 10
18.0864
 20
-3.0556
 30
53.6941
 70
192
 0
VERTEX
 8
BASE3
 10
18.0694
 20
-3.0667
 30
53.6941
 70
192
 0
VERTEX
 8
BASE3
 10
18.0695
 20
-3.0386
 30
54.0151
 70
192
 0
VERTEX
 8
BASE3
 10
18.0587
 20
-3.0556
 30
54.0122
 70
192
 0
VERTEX
 8
BASE3
 10
18.0422
 20
-3.0667
 30
54.0077
 70
192
 0
VERTEX
 8
BASE3
 10
15.0571
 20
-3.0386
 30
52.2776
 70
192
 0
VERTEX
 8
BASE3
 10
15.0614
 20
-3.0556
 30
52.2885
 70
192
 0
VERTEX
 8
BASE3
 10
15.068
 20
-3.0667
 30
52.3053
 70
192
 0
VERTEX
 8
BASE3
 10
15.3211
 20
-3.0386
 30
52.0924
 70
192
 0
VERTEX
 8
BASE3
 10
15.3233
 20
-3.0556
 30
52.1041
 70
192
 0
VERTEX
 8
BASE3
 10
15.3265
 20
-3.0667
 30
52.1219
 70
192
 0
VERTEX
 8
BASE3
 10
18.0695
 20
-3.0386
 30
53.3732
 70
192
 0
VERTEX
 8
BASE3
 10
18.0587
 20
-3.0556
 30
53.3761
 70
192
 0
VERTEX
 8
BASE3
 10
18.0422
 20
-3.0667
 30
53.3805
 70
192
 0
VERTEX
 8
BASE3
 10
17.9862
 20
-3.0386
 30
54.3264
 70
192
 0
VERTEX
 8
BASE3
 10
17.9763
 20
-3.0556
 30
54.3207
 70
192
 0
VERTEX
 8
BASE3
 10
17.9613
 20
-3.0667
 30
54.3122
 70
192
 0
VERTEX
 8
BASE3
 10
14.6446
 20
-3.0386
 30
52.7698
 70
192
 0
VERTEX
 8
BASE3
 10
14.6529
 20
-3.0556
 30
52.7777
 70
192
 0
VERTEX
 8
BASE3
 10
14.6656
 20
-3.0667
 30
52.7898
 70
192
 0
VERTEX
 8
BASE3
 10
14.8293
 20
-3.0386
 30
52.5056
 70
192
 0
VERTEX
 8
BASE3
 10
14.8357
 20
-3.0556
 30
52.5154
 70
192
 0
VERTEX
 8
BASE3
 10
14.8455
 20
-3.0667
 30
52.5302
 70
192
 0
VERTEX
 8
BASE3
 10
17.8501
 20
-3.0386
 30
54.6185
 70
192
 0
VERTEX
 8
BASE3
 10
17.8418
 20
-3.0556
 30
54.6106
 70
192
 0
VERTEX
 8
BASE3
 10
17.8291
 20
-3.0667
 30
54.5985
 70
192
 0
VERTEX
 8
BASE3
 10
17.6654
 20
-3.0386
 30
54.8826
 70
192
 0
VERTEX
 8
BASE3
 10
17.6589
 20
-3.0556
 30
54.8729
 70
192
 0
VERTEX
 8
BASE3
 10
17.6491
 20
-3.0667
 30
54.8581
 70
192
 0
VERTEX
 8
BASE3
 10
15.3265
 20
-3.0667
 30
55.2664
 70
192
 0
VERTEX
 8
BASE3
 10
15.3233
 20
-3.0556
 30
55.2842
 70
192
 0
VERTEX
 8
BASE3
 10
15.3211
 20
-3.0386
 30
55.2958
 70
192
 0
VERTEX
 8
BASE3
 10
15.6133
 20
-3.0667
 30
55.4012
 70
192
 0
VERTEX
 8
BASE3
 10
15.6133
 20
-3.0556
 30
55.4199
 70
192
 0
VERTEX
 8
BASE3
 10
15.6133
 20
-3.0386
 30
55.4322
 70
192
 0
VERTEX
 8
BASE3
 10
17.1682
 20
-3.0667
 30
52.1219
 70
192
 0
VERTEX
 8
BASE3
 10
17.1714
 20
-3.0556
 30
52.1041
 70
192
 0
VERTEX
 8
BASE3
 10
17.1735
 20
-3.0386
 30
52.0924
 70
192
 0
VERTEX
 8
BASE3
 10
16.8813
 20
-3.0667
 30
51.9871
 70
192
 0
VERTEX
 8
BASE3
 10
16.8813
 20
-3.0556
 30
51.9684
 70
192
 0
VERTEX
 8
BASE3
 10
16.8813
 20
-3.0386
 30
51.9561
 70
192
 0
VERTEX
 8
BASE3
 10
17.4375
 20
-3.0386
 30
55.1107
 70
192
 0
VERTEX
 8
BASE3
 10
17.4332
 20
-3.0556
 30
55.0997
 70
192
 0
VERTEX
 8
BASE3
 10
17.4267
 20
-3.0667
 30
55.083
 70
192
 0
VERTEX
 8
BASE3
 10
17.8291
 20
-3.0667
 30
52.7898
 70
192
 0
VERTEX
 8
BASE3
 10
17.8418
 20
-3.0556
 30
52.7777
 70
192
 0
VERTEX
 8
BASE3
 10
17.8501
 20
-3.0386
 30
52.7698
 70
192
 0
VERTEX
 8
BASE3
 10
17.6491
 20
-3.0667
 30
52.5302
 70
192
 0
VERTEX
 8
BASE3
 10
17.6589
 20
-3.0556
 30
52.5154
 70
192
 0
VERTEX
 8
BASE3
 10
17.6654
 20
-3.0386
 30
52.5056
 70
192
 0
VERTEX
 8
BASE3
 10
17.1735
 20
-3.0386
 30
55.2958
 70
192
 0
VERTEX
 8
BASE3
 10
17.1714
 20
-3.0556
 30
55.2842
 70
192
 0
VERTEX
 8
BASE3
 10
17.1682
 20
-3.0667
 30
55.2664
 70
192
 0
VERTEX
 8
BASE3
 10
17.4267
 20
-3.0667
 30
52.3053
 70
192
 0
VERTEX
 8
BASE3
 10
17.4332
 20
-3.0556
 30
52.2885
 70
192
 0
VERTEX
 8
BASE3
 10
17.4375
 20
-3.0386
 30
52.2776
 70
192
 0
VERTEX
 8
BASE3
 10
14.5333
 20
-3.0667
 30
53.0761
 70
192
 0
VERTEX
 8
BASE3
 10
14.5183
 20
-3.0556
 30
53.0675
 70
192
 0
VERTEX
 8
BASE3
 10
14.5085
 20
-3.0386
 30
53.0619
 70
192
 0
VERTEX
 8
BASE3
 10
14.4525
 20
-3.0667
 30
53.3805
 70
192
 0
VERTEX
 8
BASE3
 10
14.436
 20
-3.0556
 30
53.3761
 70
192
 0
VERTEX
 8
BASE3
 10
14.4252
 20
-3.0386
 30
53.3732
 70
192
 0
VERTEX
 8
BASE3
 10
16.8813
 20
-3.0667
 30
55.4012
 70
192
 0
VERTEX
 8
BASE3
 10
16.8813
 20
-3.0556
 30
55.4199
 70
192
 0
VERTEX
 8
BASE3
 10
16.8813
 20
-3.0386
 30
55.4322
 70
192
 0
VERTEX
 8
BASE3
 10
15.6133
 20
-3.0667
 30
51.9871
 70
192
 0
VERTEX
 8
BASE3
 10
15.6133
 20
-3.0556
 30
51.9684
 70
192
 0
VERTEX
 8
BASE3
 10
15.6133
 20
-3.0386
 30
51.9561
 70
192
 0
VERTEX
 8
BASE3
 10
15.068
 20
-3.0667
 30
55.083
 70
192
 0
VERTEX
 8
BASE3
 10
15.0614
 20
-3.0556
 30
55.0997
 70
192
 0
VERTEX
 8
BASE3
 10
15.0571
 20
-3.0386
 30
55.1107
 70
192
 0
VERTEX
 8
BASE3
 10
17.9613
 20
-3.0667
 30
53.0761
 70
192
 0
VERTEX
 8
BASE3
 10
17.9763
 20
-3.0556
 30
53.0675
 70
192
 0
VERTEX
 8
BASE3
 10
17.9862
 20
-3.0386
 30
53.0619
 70
192
 0
VERTEX
 8
BASE3
 10
14.8455
 20
-3.0667
 30
54.8581
 70
192
 0
VERTEX
 8
BASE3
 10
14.8357
 20
-3.0556
 30
54.8729
 70
192
 0
VERTEX
 8
BASE3
 10
14.8293
 20
-3.0386
 30
54.8826
 70
192
 0
VERTEX
 8
BASE3
 10
14.6656
 20
-3.0667
 30
54.5985
 70
192
 0
VERTEX
 8
BASE3
 10
14.6529
 20
-3.0556
 30
54.6106
 70
192
 0
VERTEX
 8
BASE3
 10
14.6446
 20
-3.0386
 30
54.6185
 70
192
 0
VERTEX
 8
BASE3
 10
14.5333
 20
-3.0667
 30
54.3122
 70
192
 0
VERTEX
 8
BASE3
 10
14.5183
 20
-3.0556
 30
54.3207
 70
192
 0
VERTEX
 8
BASE3
 10
14.5085
 20
-3.0386
 30
54.3264
 70
192
 0
VERTEX
 8
BASE3
 10
14.4525
 20
-3.0667
 30
54.0077
 70
192
 0
VERTEX
 8
BASE3
 10
14.436
 20
-3.0556
 30
54.0122
 70
192
 0
VERTEX
 8
BASE3
 10
14.4252
 20
-3.0386
 30
54.0151
 70
192
 0
VERTEX
 8
BASE3
 10
14.4253
 20
-3.0667
 30
53.6941
 70
192
 0
VERTEX
 8
BASE3
 10
14.4083
 20
-3.0556
 30
53.6941
 70
192
 0
VERTEX
 8
BASE3
 10
14.3971
 20
-3.0386
 30
53.6941
 70
192
 0
VERTEX
 8
BASE3
 10
16.8819
 20
-3.0202
 30
55.4358
 70
192
 0
VERTEX
 8
BASE3
 10
16.8813
 20
-3.02
 30
55.4361
 70
192
 0
VERTEX
 8
BASE3
 10
16.8813
 20
-3.02
 30
55.4343
 70
192
 0
VERTEX
 8
BASE3
 10
0
 20
0
 30
0
 70
128
 71
1
 72
3
 73
5
 74
5
 0
VERTEX
 8
BASE3
 10
0
 20
0
 30
0
 70
128
 71
3
 72
57
 73
55
 74
5
 0
VERTEX
 8
BASE3
 10
0
 20
0
 30
0
 70
128
 71
1
 72
10
 73
12
 74
12
 0
VERTEX
 8
BASE3
 10
0
 20
0
 30
0
 70
128
 71
1
 72
5
 73
7
 74
7
 0
VERTEX
 8
BASE3
 10
0
 20
0
 30
0
 70
128
 71
5
 72
55
 73
58
 74
7
 0
VERTEX
 8
BASE3
 10
0
 20
0
 30
0
 70
128
 71
10
 72
46
 73
12
 74
12
 0
VERTEX
 8
BASE3
 10
0
 20
0
 30
0
 70
128
 71
1
 72
7
 73
9
 74
9
 0
VERTEX
 8
BASE3
 10
0
 20
0
 30
0
 70
128
 71
7
 72
58
 73
60
 74
9
 0
VERTEX
 8
BASE3
 10
0
 20
0
 30
0
 70
128
 71
1
 72
12
 73
14
 74
14
 0
VERTEX
 8
BASE3
 10
0
 20
0
 30
0
 70
128
 71
1
 72
9
 73
11
 74
11
 0
VERTEX
 8
BASE3
 10
0
 20
0
 30
0
 70
128
 71
9
 72
60
 73
63
 74
11
 0
VERTEX
 8
BASE3
 10
0
 20
0
 30
0
 70
128
 71
12
 72
46
 73
48
 74
14
 0
VERTEX
 8
BASE3
 10
0
 20
0
 30
0
 70
128
 71
1
 72
11
 73
13
 74
13
 0
VERTEX
 8
BASE3
 10
0
 20
0
 30
0
 70
128
 71
11
 72
63
 73
66
 74
13
 0
VERTEX
 8
BASE3
 10
0
 20
0
 30
0
 70
128
 71
1
 72
14
 73
15
 74
15
 0
VERTEX
 8
BASE3
 10
0
 20
0
 30
0
 70
128
 71
1
 72
13
 73
16
 74
16
 0
VERTEX
 8
BASE3
 10
0
 20
0
 30
0
 70
128
 71
13
 72
66
 73
69
 74
16
 0
VERTEX
 8
BASE3
 10
0
 20
0
 30
0
 70
128
 71
14
 72
48
 73
49
 74
15
 0
VERTEX
 8
BASE3
 10
0
 20
0
 30
0
 70
128
 71
1
 72
16
 73
19
 74
19
 0
VERTEX
 8
BASE3
 10
0
 20
0
 30
0
 70
128
 71
205
 72
206
 73
51
 74
51
 0
VERTEX
 8
BASE3
 10
0
 20
0
 30
0
 70
128
 71
1
 72
15
 73
17
 74
17
 0
VERTEX
 8
BASE3
 10
0
 20
0
 30
0
 70
128
 71
1
 72
19
 73
21
 74
21
 0
VERTEX
 8
BASE3
 10
0
 20
0
 30
0
 70
128
 71
19
 72
51
 73
52
 74
21
 0
VERTEX
 8
BASE3
 10
0
 20
0
 30
0
 70
128
 71
15
 72
49
 73
53
 74
17
 0
VERTEX
 8
BASE3
 10
0
 20
0
 30
0
 70
128
 71
1
 72
21
 73
24
 74
24
 0
VERTEX
 8
BASE3
 10
0
 20
0
 30
0
 70
128
 71
21
 72
52
 73
43
 74
24
 0
VERTEX
 8
BASE3
 10
0
 20
0
 30
0
 70
128
 71
1
 72
17
 73
18
 74
18
 0
VERTEX
 8
BASE3
 10
0
 20
0
 30
0
 70
128
 71
1
 72
24
 73
28
 74
28
 0
VERTEX
 8
BASE3
 10
0
 20
0
 30
0
 70
128
 71
24
 72
43
 73
45
 74
28
 0
VERTEX
 8
BASE3
 10
0
 20
0
 30
0
 70
128
 71
17
 72
53
 73
40
 74
18
 0
VERTEX
 8
BASE3
 10
0
 20
0
 30
0
 70
128
 71
1
 72
28
 73
31
 74
31
 0
VERTEX
 8
BASE3
 10
0
 20
0
 30
0
 70
128
 71
28
 72
45
 73
42
 74
31
 0
VERTEX
 8
BASE3
 10
0
 20
0
 30
0
 70
128
 71
1
 72
18
 73
20
 74
20
 0
VERTEX
 8
BASE3
 10
0
 20
0
 30
0
 70
128
 71
1
 72
31
 73
33
 74
33
 0
VERTEX
 8
BASE3
 10
0
 20
0
 30
0
 70
128
 71
31
 72
42
 73
33
 74
33
 0
VERTEX
 8
BASE3
 10
0
 20
0
 30
0
 70
128
 71
18
 72
40
 73
20
 74
20
 0
VERTEX
 8
BASE3
 10
0
 20
0
 30
0
 70
128
 71
1
 72
33
 73
35
 74
35
 0
VERTEX
 8
BASE3
 10
0
 20
0
 30
0
 70
128
 71
33
 72
86
 73
98
 74
35
 0
VERTEX
 8
BASE3
 10
0
 20
0
 30
0
 70
128
 71
1
 72
20
 73
27
 74
27
 0
VERTEX
 8
BASE3
 10
0
 20
0
 30
0
 70
128
 71
1
 72
35
 73
37
 74
37
 0
VERTEX
 8
BASE3
 10
0
 20
0
 30
0
 70
128
 71
35
 72
98
 73
102
 74
37
 0
VERTEX
 8
BASE3
 10
0
 20
0
 30
0
 70
128
 71
20
 72
88
 73
81
 74
27
 0
VERTEX
 8
BASE3
 10
0
 20
0
 30
0
 70
128
 71
1
 72
37
 73
39
 74
39
 0
VERTEX
 8
BASE3
 10
0
 20
0
 30
0
 70
128
 71
37
 72
102
 73
106
 74
39
 0
VERTEX
 8
BASE3
 10
0
 20
0
 30
0
 70
128
 71
1
 72
27
 73
32
 74
32
 0
VERTEX
 8
BASE3
 10
0
 20
0
 30
0
 70
128
 71
1
 72
39
 73
41
 74
41
 0
VERTEX
 8
BASE3
 10
0
 20
0
 30
0
 70
128
 71
39
 72
106
 73
108
 74
41
 0
VERTEX
 8
BASE3
 10
0
 20
0
 30
0
 70
128
 71
27
 72
81
 73
83
 74
32
 0
VERTEX
 8
BASE3
 10
0
 20
0
 30
0
 70
128
 71
1
 72
41
 73
44
 74
44
 0
VERTEX
 8
BASE3
 10
0
 20
0
 30
0
 70
128
 71
41
 72
108
 73
110
 74
44
 0
VERTEX
 8
BASE3
 10
0
 20
0
 30
0
 70
128
 71
1
 72
32
 73
34
 74
34
 0
VERTEX
 8
BASE3
 10
0
 20
0
 30
0
 70
128
 71
1
 72
44
 73
47
 74
47
 0
VERTEX
 8
BASE3
 10
0
 20
0
 30
0
 70
128
 71
44
 72
110
 73
112
 74
47
 0
VERTEX
 8
BASE3
 10
0
 20
0
 30
0
 70
128
 71
32
 72
83
 73
92
 74
34
 0
VERTEX
 8
BASE3
 10
0
 20
0
 30
0
 70
128
 71
1
 72
47
 73
50
 74
50
 0
VERTEX
 8
BASE3
 10
0
 20
0
 30
0
 70
128
 71
71
 72
90
 73
23
 74
23
 0
VERTEX
 8
BASE3
 10
0
 20
0
 30
0
 70
128
 71
1
 72
34
 73
36
 74
36
 0
VERTEX
 8
BASE3
 10
0
 20
0
 30
0
 70
128
 71
1
 72
50
 73
54
 74
54
 0
VERTEX
 8
BASE3
 10
0
 20
0
 30
0
 70
128
 71
50
 72
114
 73
95
 74
54
 0
VERTEX
 8
BASE3
 10
0
 20
0
 30
0
 70
128
 71
34
 72
92
 73
100
 74
36
 0
VERTEX
 8
BASE3
 10
0
 20
0
 30
0
 70
128
 71
1
 72
54
 73
4
 74
4
 0
VERTEX
 8
BASE3
 10
0
 20
0
 30
0
 70
128
 71
54
 72
95
 73
96
 74
4
 0
VERTEX
 8
BASE3
 10
0
 20
0
 30
0
 70
128
 71
1
 72
36
 73
38
 74
38
 0
VERTEX
 8
BASE3
 10
0
 20
0
 30
0
 70
128
 71
1
 72
4
 73
6
 74
6
 0
VERTEX
 8
BASE3
 10
0
 20
0
 30
0
 70
128
 71
4
 72
96
 73
59
 74
6
 0
VERTEX
 8
BASE3
 10
0
 20
0
 30
0
 70
128
 71
36
 72
100
 73
104
 74
38
 0
VERTEX
 8
BASE3
 10
0
 20
0
 30
0
 70
128
 71
1
 72
6
 73
8
 74
8
 0
VERTEX
 8
BASE3
 10
0
 20
0
 30
0
 70
128
 71
6
 72
59
 73
61
 74
8
 0
VERTEX
 8
BASE3
 10
0
 20
0
 30
0
 70
128
 71
1
 72
38
 73
3
 74
3
 0
VERTEX
 8
BASE3
 10
0
 20
0
 30
0
 70
128
 71
1
 72
8
 73
10
 74
10
 0
VERTEX
 8
BASE3
 10
0
 20
0
 30
0
 70
128
 71
8
 72
61
 73
56
 74
10
 0
VERTEX
 8
BASE3
 10
0
 20
0
 30
0
 70
128
 71
38
 72
104
 73
57
 74
3
 0
VERTEX
 8
BASE3
 10
0
 20
0
 30
0
 70
128
 71
112
 72
114
 73
50
 74
47
 0
VERTEX
 8
BASE3
 10
0
 20
0
 30
0
 70
128
 71
90
 72
65
 73
23
 74
23
 0
VERTEX
 8
BASE3
 10
0
 20
0
 30
0
 70
128
 71
42
 72
85
 73
86
 74
33
 0
VERTEX
 8
BASE3
 10
0
 20
0
 30
0
 70
128
 71
99
 72
67
 73
23
 74
23
 0
VERTEX
 8
BASE3
 10
0
 20
0
 30
0
 70
128
 71
91
 72
62
 73
23
 74
23
 0
VERTEX
 8
BASE3
 10
0
 20
0
 30
0
 70
128
 71
111
 72
109
 73
22
 74
22
 0
VERTEX
 8
BASE3
 10
0
 20
0
 30
0
 70
128
 71
113
 72
111
 73
22
 74
22
 0
VERTEX
 8
BASE3
 10
0
 20
0
 30
0
 70
128
 71
97
 72
64
 73
22
 74
22
 0
VERTEX
 8
BASE3
 10
0
 20
0
 30
0
 70
128
 71
22
 72
82
 73
72
 74
72
 0
VERTEX
 8
BASE3
 10
0
 20
0
 30
0
 70
128
 71
22
 72
72
 73
113
 74
113
 0
VERTEX
 8
BASE3
 10
0
 20
0
 30
0
 70
128
 71
109
 72
107
 73
22
 74
22
 0
VERTEX
 8
BASE3
 10
0
 20
0
 30
0
 70
128
 71
107
 72
105
 73
22
 74
22
 0
VERTEX
 8
BASE3
 10
0
 20
0
 30
0
 70
128
 71
22
 72
68
 73
70
 74
70
 0
VERTEX
 8
BASE3
 10
0
 20
0
 30
0
 70
128
 71
22
 72
78
 73
68
 74
68
 0
VERTEX
 8
BASE3
 10
0
 20
0
 30
0
 70
128
 71
67
 72
71
 73
23
 74
23
 0
VERTEX
 8
BASE3
 10
0
 20
0
 30
0
 70
128
 71
40
 72
87
 73
88
 74
20
 0
VERTEX
 8
BASE3
 10
0
 20
0
 30
0
 70
128
 71
10
 72
56
 73
84
 74
46
 0
VERTEX
 8
BASE3
 10
0
 20
0
 30
0
 70
128
 71
62
 72
103
 73
23
 74
23
 0
VERTEX
 8
BASE3
 10
0
 20
0
 30
0
 70
128
 71
77
 72
73
 73
23
 74
23
 0
VERTEX
 8
BASE3
 10
0
 20
0
 30
0
 70
128
 71
205
 72
89
 73
206
 74
206
 0
VERTEX
 8
BASE3
 10
0
 20
0
 30
0
 70
128
 71
42
 72
45
 73
25
 74
29
 0
VERTEX
 8
BASE3
 10
0
 20
0
 30
0
 70
128
 71
45
 72
43
 73
26
 74
25
 0
VERTEX
 8
BASE3
 10
0
 20
0
 30
0
 70
128
 71
53
 72
49
 73
26
 74
2
 0
VERTEX
 8
BASE3
 10
0
 20
0
 30
0
 70
128
 71
52
 72
51
 73
30
 74
2
 0
VERTEX
 8
BASE3
 10
0
 20
0
 30
0
 70
128
 71
89
 72
207
 73
206
 74
206
 0
VERTEX
 8
BASE3
 10
0
 20
0
 30
0
 70
128
 71
84
 72
29
 73
46
 74
46
 0
VERTEX
 8
BASE3
 10
0
 20
0
 30
0
 70
128
 71
93
 72
75
 73
23
 74
23
 0
VERTEX
 8
BASE3
 10
0
 20
0
 30
0
 70
128
 71
51
 72
16
 73
69
 74
205
 0
VERTEX
 8
BASE3
 10
0
 20
0
 30
0
 70
128
 71
73
 72
74
 73
23
 74
23
 0
VERTEX
 8
BASE3
 10
0
 20
0
 30
0
 70
128
 71
25
 72
48
 73
46
 74
29
 0
VERTEX
 8
BASE3
 10
0
 20
0
 30
0
 70
128
 71
26
 72
49
 73
48
 74
25
 0
VERTEX
 8
BASE3
 10
0
 20
0
 30
0
 70
128
 71
26
 72
43
 73
52
 74
2
 0
VERTEX
 8
BASE3
 10
0
 20
0
 30
0
 70
128
 71
30
 72
40
 73
53
 74
2
 0
VERTEX
 8
BASE3
 10
0
 20
0
 30
0
 70
128
 71
65
 72
154
 73
30
 74
30
 0
VERTEX
 8
BASE3
 10
0
 20
0
 30
0
 70
128
 71
64
 72
148
 73
29
 74
29
 0
VERTEX
 8
BASE3
 10
0
 20
0
 30
0
 70
128
 71
105
 72
101
 73
22
 74
22
 0
VERTEX
 8
BASE3
 10
0
 20
0
 30
0
 70
128
 71
101
 72
97
 73
22
 74
22
 0
VERTEX
 8
BASE3
 10
0
 20
0
 30
0
 70
128
 71
22
 72
70
 73
82
 74
82
 0
VERTEX
 8
BASE3
 10
0
 20
0
 30
0
 70
128
 71
22
 72
80
 73
78
 74
78
 0
VERTEX
 8
BASE3
 10
0
 20
0
 30
0
 70
128
 71
22
 72
79
 73
80
 74
80
 0
VERTEX
 8
BASE3
 10
0
 20
0
 30
0
 70
128
 71
74
 72
94
 73
23
 74
23
 0
VERTEX
 8
BASE3
 10
0
 20
0
 30
0
 70
128
 71
94
 72
93
 73
23
 74
23
 0
VERTEX
 8
BASE3
 10
0
 20
0
 30
0
 70
128
 71
75
 72
91
 73
23
 74
23
 0
VERTEX
 8
BASE3
 10
0
 20
0
 30
0
 70
128
 71
103
 72
99
 73
23
 74
23
 0
VERTEX
 8
BASE3
 10
0
 20
0
 30
0
 70
128
 71
180
 72
179
 73
30
 74
30
 0
VERTEX
 8
BASE3
 10
0
 20
0
 30
0
 70
128
 71
179
 72
178
 73
30
 74
30
 0
VERTEX
 8
BASE3
 10
0
 20
0
 30
0
 70
128
 71
183
 72
182
 73
29
 74
29
 0
VERTEX
 8
BASE3
 10
0
 20
0
 30
0
 70
128
 71
182
 72
181
 73
29
 74
29
 0
VERTEX
 8
BASE3
 10
0
 20
0
 30
0
 70
128
 71
154
 72
155
 73
30
 74
30
 0
VERTEX
 8
BASE3
 10
0
 20
0
 30
0
 70
128
 71
23
 72
65
 73
30
 74
30
 0
VERTEX
 8
BASE3
 10
0
 20
0
 30
0
 70
128
 71
148
 72
149
 73
29
 74
29
 0
VERTEX
 8
BASE3
 10
0
 20
0
 30
0
 70
128
 71
22
 72
64
 73
29
 74
29
 0
VERTEX
 8
BASE3
 10
0
 20
0
 30
0
 70
128
 71
57
 72
115
 73
118
 74
55
 0
VERTEX
 8
BASE3
 10
0
 20
0
 30
0
 70
128
 71
55
 72
118
 73
130
 74
58
 0
VERTEX
 8
BASE3
 10
0
 20
0
 30
0
 70
128
 71
56
 72
124
 73
183
 74
84
 0
VERTEX
 8
BASE3
 10
0
 20
0
 30
0
 70
128
 71
58
 72
130
 73
139
 74
60
 0
VERTEX
 8
BASE3
 10
0
 20
0
 30
0
 70
128
 71
60
 72
139
 73
142
 74
63
 0
VERTEX
 8
BASE3
 10
0
 20
0
 30
0
 70
128
 71
63
 72
142
 73
157
 74
66
 0
VERTEX
 8
BASE3
 10
0
 20
0
 30
0
 70
128
 71
66
 72
157
 73
166
 74
69
 0
VERTEX
 8
BASE3
 10
0
 20
0
 30
0
 70
128
 71
150
 72
85
 73
29
 74
29
 0
VERTEX
 8
BASE3
 10
0
 20
0
 30
0
 70
128
 71
86
 72
147
 73
186
 74
98
 0
VERTEX
 8
BASE3
 10
0
 20
0
 30
0
 70
128
 71
98
 72
186
 73
192
 74
102
 0
VERTEX
 8
BASE3
 10
0
 20
0
 30
0
 70
128
 71
88
 72
153
 73
171
 74
81
 0
VERTEX
 8
BASE3
 10
0
 20
0
 30
0
 70
128
 71
102
 72
192
 73
195
 74
106
 0
VERTEX
 8
BASE3
 10
0
 20
0
 30
0
 70
128
 71
106
 72
195
 73
198
 74
108
 0
VERTEX
 8
BASE3
 10
0
 20
0
 30
0
 70
128
 71
81
 72
171
 73
165
 74
83
 0
VERTEX
 8
BASE3
 10
0
 20
0
 30
0
 70
128
 71
108
 72
198
 73
201
 74
110
 0
VERTEX
 8
BASE3
 10
0
 20
0
 30
0
 70
128
 71
110
 72
201
 73
204
 74
112
 0
VERTEX
 8
BASE3
 10
0
 20
0
 30
0
 70
128
 71
83
 72
165
 73
162
 74
92
 0
VERTEX
 8
BASE3
 10
0
 20
0
 30
0
 70
128
 71
114
 72
177
 73
174
 74
95
 0
VERTEX
 8
BASE3
 10
0
 20
0
 30
0
 70
128
 71
92
 72
162
 73
189
 74
100
 0
VERTEX
 8
BASE3
 10
0
 20
0
 30
0
 70
128
 71
95
 72
174
 73
133
 74
96
 0
VERTEX
 8
BASE3
 10
0
 20
0
 30
0
 70
128
 71
96
 72
133
 73
136
 74
59
 0
VERTEX
 8
BASE3
 10
0
 20
0
 30
0
 70
128
 71
100
 72
189
 73
127
 74
104
 0
VERTEX
 8
BASE3
 10
0
 20
0
 30
0
 70
128
 71
59
 72
136
 73
121
 74
61
 0
VERTEX
 8
BASE3
 10
0
 20
0
 30
0
 70
128
 71
61
 72
121
 73
124
 74
56
 0
VERTEX
 8
BASE3
 10
0
 20
0
 30
0
 70
128
 71
104
 72
127
 73
115
 74
57
 0
VERTEX
 8
BASE3
 10
0
 20
0
 30
0
 70
128
 71
112
 72
204
 73
177
 74
114
 0
VERTEX
 8
BASE3
 10
0
 20
0
 30
0
 70
128
 71
87
 72
156
 73
153
 74
88
 0
VERTEX
 8
BASE3
 10
0
 20
0
 30
0
 70
128
 71
85
 72
150
 73
147
 74
86
 0
VERTEX
 8
BASE3
 10
0
 20
0
 30
0
 70
128
 71
115
 72
116
 73
119
 74
118
 0
VERTEX
 8
BASE3
 10
0
 20
0
 30
0
 70
128
 71
116
 72
117
 73
120
 74
119
 0
VERTEX
 8
BASE3
 10
0
 20
0
 30
0
 70
128
 71
117
 72
91
 73
75
 74
120
 0
VERTEX
 8
BASE3
 10
0
 20
0
 30
0
 70
128
 71
118
 72
119
 73
131
 74
130
 0
VERTEX
 8
BASE3
 10
0
 20
0
 30
0
 70
128
 71
119
 72
120
 73
132
 74
131
 0
VERTEX
 8
BASE3
 10
0
 20
0
 30
0
 70
128
 71
120
 72
75
 73
93
 74
132
 0
VERTEX
 8
BASE3
 10
0
 20
0
 30
0
 70
128
 71
124
 72
125
 73
182
 74
183
 0
VERTEX
 8
BASE3
 10
0
 20
0
 30
0
 70
128
 71
125
 72
126
 73
181
 74
182
 0
VERTEX
 8
BASE3
 10
0
 20
0
 30
0
 70
128
 71
126
 72
80
 73
79
 74
181
 0
VERTEX
 8
BASE3
 10
0
 20
0
 30
0
 70
128
 71
130
 72
131
 73
140
 74
139
 0
VERTEX
 8
BASE3
 10
0
 20
0
 30
0
 70
128
 71
131
 72
132
 73
141
 74
140
 0
VERTEX
 8
BASE3
 10
0
 20
0
 30
0
 70
128
 71
132
 72
93
 73
94
 74
141
 0
VERTEX
 8
BASE3
 10
0
 20
0
 30
0
 70
128
 71
139
 72
140
 73
143
 74
142
 0
VERTEX
 8
BASE3
 10
0
 20
0
 30
0
 70
128
 71
140
 72
141
 73
144
 74
143
 0
VERTEX
 8
BASE3
 10
0
 20
0
 30
0
 70
128
 71
141
 72
94
 73
74
 74
144
 0
VERTEX
 8
BASE3
 10
0
 20
0
 30
0
 70
128
 71
142
 72
143
 73
158
 74
157
 0
VERTEX
 8
BASE3
 10
0
 20
0
 30
0
 70
128
 71
143
 72
144
 73
159
 74
158
 0
VERTEX
 8
BASE3
 10
0
 20
0
 30
0
 70
128
 71
144
 72
74
 73
73
 74
159
 0
VERTEX
 8
BASE3
 10
0
 20
0
 30
0
 70
128
 71
157
 72
158
 73
167
 74
166
 0
VERTEX
 8
BASE3
 10
0
 20
0
 30
0
 70
128
 71
158
 72
159
 73
168
 74
167
 0
VERTEX
 8
BASE3
 10
0
 20
0
 30
0
 70
128
 71
159
 72
73
 73
77
 74
168
 0
VERTEX
 8
BASE3
 10
0
 20
0
 30
0
 70
128
 71
51
 72
19
 73
16
 74
16
 0
VERTEX
 8
BASE3
 10
0
 20
0
 30
0
 70
128
 71
207
 72
30
 73
51
 74
206
 0
VERTEX
 8
BASE3
 10
0
 20
0
 30
0
 70
128
 71
85
 72
42
 73
29
 74
29
 0
VERTEX
 8
BASE3
 10
0
 20
0
 30
0
 70
128
 71
147
 72
146
 73
185
 74
186
 0
VERTEX
 8
BASE3
 10
0
 20
0
 30
0
 70
128
 71
146
 72
145
 73
184
 74
185
 0
VERTEX
 8
BASE3
 10
0
 20
0
 30
0
 70
128
 71
145
 72
97
 73
101
 74
184
 0
VERTEX
 8
BASE3
 10
0
 20
0
 30
0
 70
128
 71
186
 72
185
 73
191
 74
192
 0
VERTEX
 8
BASE3
 10
0
 20
0
 30
0
 70
128
 71
185
 72
184
 73
190
 74
191
 0
VERTEX
 8
BASE3
 10
0
 20
0
 30
0
 70
128
 71
184
 72
101
 73
105
 74
190
 0
VERTEX
 8
BASE3
 10
0
 20
0
 30
0
 70
128
 71
153
 72
152
 73
170
 74
171
 0
VERTEX
 8
BASE3
 10
0
 20
0
 30
0
 70
128
 71
152
 72
151
 73
169
 74
170
 0
VERTEX
 8
BASE3
 10
0
 20
0
 30
0
 70
128
 71
151
 72
90
 73
71
 74
169
 0
VERTEX
 8
BASE3
 10
0
 20
0
 30
0
 70
128
 71
192
 72
191
 73
194
 74
195
 0
VERTEX
 8
BASE3
 10
0
 20
0
 30
0
 70
128
 71
191
 72
190
 73
193
 74
194
 0
VERTEX
 8
BASE3
 10
0
 20
0
 30
0
 70
128
 71
190
 72
105
 73
107
 74
193
 0
VERTEX
 8
BASE3
 10
0
 20
0
 30
0
 70
128
 71
195
 72
194
 73
197
 74
198
 0
VERTEX
 8
BASE3
 10
0
 20
0
 30
0
 70
128
 71
194
 72
193
 73
196
 74
197
 0
VERTEX
 8
BASE3
 10
0
 20
0
 30
0
 70
128
 71
193
 72
107
 73
109
 74
196
 0
VERTEX
 8
BASE3
 10
0
 20
0
 30
0
 70
128
 71
171
 72
170
 73
164
 74
165
 0
VERTEX
 8
BASE3
 10
0
 20
0
 30
0
 70
128
 71
170
 72
169
 73
163
 74
164
 0
VERTEX
 8
BASE3
 10
0
 20
0
 30
0
 70
128
 71
169
 72
71
 73
67
 74
163
 0
VERTEX
 8
BASE3
 10
0
 20
0
 30
0
 70
128
 71
198
 72
197
 73
200
 74
201
 0
VERTEX
 8
BASE3
 10
0
 20
0
 30
0
 70
128
 71
197
 72
196
 73
199
 74
200
 0
VERTEX
 8
BASE3
 10
0
 20
0
 30
0
 70
128
 71
196
 72
109
 73
111
 74
199
 0
VERTEX
 8
BASE3
 10
0
 20
0
 30
0
 70
128
 71
201
 72
200
 73
203
 74
204
 0
VERTEX
 8
BASE3
 10
0
 20
0
 30
0
 70
128
 71
200
 72
199
 73
202
 74
203
 0
VERTEX
 8
BASE3
 10
0
 20
0
 30
0
 70
128
 71
199
 72
111
 73
113
 74
202
 0
VERTEX
 8
BASE3
 10
0
 20
0
 30
0
 70
128
 71
165
 72
164
 73
161
 74
162
 0
VERTEX
 8
BASE3
 10
0
 20
0
 30
0
 70
128
 71
164
 72
163
 73
160
 74
161
 0
VERTEX
 8
BASE3
 10
0
 20
0
 30
0
 70
128
 71
163
 72
67
 73
99
 74
160
 0
VERTEX
 8
BASE3
 10
0
 20
0
 30
0
 70
128
 71
177
 72
176
 73
173
 74
174
 0
VERTEX
 8
BASE3
 10
0
 20
0
 30
0
 70
128
 71
176
 72
175
 73
172
 74
173
 0
VERTEX
 8
BASE3
 10
0
 20
0
 30
0
 70
128
 71
175
 72
72
 73
82
 74
172
 0
VERTEX
 8
BASE3
 10
0
 20
0
 30
0
 70
128
 71
162
 72
161
 73
188
 74
189
 0
VERTEX
 8
BASE3
 10
0
 20
0
 30
0
 70
128
 71
161
 72
160
 73
187
 74
188
 0
VERTEX
 8
BASE3
 10
0
 20
0
 30
0
 70
128
 71
160
 72
99
 73
103
 74
187
 0
VERTEX
 8
BASE3
 10
0
 20
0
 30
0
 70
128
 71
174
 72
173
 73
134
 74
133
 0
VERTEX
 8
BASE3
 10
0
 20
0
 30
0
 70
128
 71
173
 72
172
 73
135
 74
134
 0
VERTEX
 8
BASE3
 10
0
 20
0
 30
0
 70
128
 71
172
 72
82
 73
70
 74
135
 0
VERTEX
 8
BASE3
 10
0
 20
0
 30
0
 70
128
 71
133
 72
134
 73
137
 74
136
 0
VERTEX
 8
BASE3
 10
0
 20
0
 30
0
 70
128
 71
134
 72
135
 73
138
 74
137
 0
VERTEX
 8
BASE3
 10
0
 20
0
 30
0
 70
128
 71
135
 72
70
 73
68
 74
138
 0
VERTEX
 8
BASE3
 10
0
 20
0
 30
0
 70
128
 71
189
 72
188
 73
128
 74
127
 0
VERTEX
 8
BASE3
 10
0
 20
0
 30
0
 70
128
 71
188
 72
187
 73
129
 74
128
 0
VERTEX
 8
BASE3
 10
0
 20
0
 30
0
 70
128
 71
187
 72
103
 73
62
 74
129
 0
VERTEX
 8
BASE3
 10
0
 20
0
 30
0
 70
128
 71
136
 72
137
 73
122
 74
121
 0
VERTEX
 8
BASE3
 10
0
 20
0
 30
0
 70
128
 71
137
 72
138
 73
123
 74
122
 0
VERTEX
 8
BASE3
 10
0
 20
0
 30
0
 70
128
 71
138
 72
68
 73
78
 74
123
 0
VERTEX
 8
BASE3
 10
0
 20
0
 30
0
 70
128
 71
121
 72
122
 73
125
 74
124
 0
VERTEX
 8
BASE3
 10
0
 20
0
 30
0
 70
128
 71
122
 72
123
 73
126
 74
125
 0
VERTEX
 8
BASE3
 10
0
 20
0
 30
0
 70
128
 71
123
 72
78
 73
80
 74
126
 0
VERTEX
 8
BASE3
 10
0
 20
0
 30
0
 70
128
 71
127
 72
128
 73
116
 74
115
 0
VERTEX
 8
BASE3
 10
0
 20
0
 30
0
 70
128
 71
128
 72
129
 73
117
 74
116
 0
VERTEX
 8
BASE3
 10
0
 20
0
 30
0
 70
128
 71
129
 72
62
 73
91
 74
117
 0
VERTEX
 8
BASE3
 10
0
 20
0
 30
0
 70
128
 71
204
 72
203
 73
176
 74
177
 0
VERTEX
 8
BASE3
 10
0
 20
0
 30
0
 70
128
 71
203
 72
202
 73
175
 74
176
 0
VERTEX
 8
BASE3
 10
0
 20
0
 30
0
 70
128
 71
202
 72
113
 73
72
 74
175
 0
VERTEX
 8
BASE3
 10
0
 20
0
 30
0
 70
128
 71
156
 72
155
 73
152
 74
153
 0
VERTEX
 8
BASE3
 10
0
 20
0
 30
0
 70
128
 71
155
 72
154
 73
151
 74
152
 0
VERTEX
 8
BASE3
 10
0
 20
0
 30
0
 70
128
 71
154
 72
65
 73
90
 74
151
 0
VERTEX
 8
BASE3
 10
0
 20
0
 30
0
 70
128
 71
150
 72
149
 73
146
 74
147
 0
VERTEX
 8
BASE3
 10
0
 20
0
 30
0
 70
128
 71
149
 72
148
 73
145
 74
146
 0
VERTEX
 8
BASE3
 10
0
 20
0
 30
0
 70
128
 71
148
 72
64
 73
97
 74
145
 0
VERTEX
 8
BASE3
 10
0
 20
0
 30
0
 70
128
 71
180
 72
30
 73
207
 74
89
 0
VERTEX
 8
BASE3
 10
0
 20
0
 30
0
 70
128
 71
178
 72
76
 73
30
 74
30
 0
VERTEX
 8
BASE3
 10
0
 20
0
 30
0
 70
128
 71
76
 72
23
 73
30
 74
30
 0
VERTEX
 8
BASE3
 10
0
 20
0
 30
0
 70
128
 71
155
 72
156
 73
30
 74
30
 0
VERTEX
 8
BASE3
 10
0
 20
0
 30
0
 70
128
 71
156
 72
87
 73
30
 74
30
 0
VERTEX
 8
BASE3
 10
0
 20
0
 30
0
 70
128
 71
87
 72
40
 73
30
 74
30
 0
VERTEX
 8
BASE3
 10
0
 20
0
 30
0
 70
128
 71
84
 72
183
 73
29
 74
29
 0
VERTEX
 8
BASE3
 10
0
 20
0
 30
0
 70
128
 71
181
 72
79
 73
29
 74
29
 0
VERTEX
 8
BASE3
 10
0
 20
0
 30
0
 70
128
 71
79
 72
22
 73
29
 74
29
 0
VERTEX
 8
BASE3
 10
0
 20
0
 30
0
 70
128
 71
149
 72
150
 73
29
 74
29
 0
VERTEX
 8
BASE3
 10
0
 20
0
 30
0
 70
128
 71
77
 72
23
 73
76
 74
76
 0
VERTEX
 8
BASE3
 10
0
 20
0
 30
0
 70
128
 71
69
 72
166
 73
180
 74
89
 0
VERTEX
 8
BASE3
 10
0
 20
0
 30
0
 70
128
 71
179
 72
180
 73
166
 74
167
 0
VERTEX
 8
BASE3
 10
0
 20
0
 30
0
 70
128
 71
167
 72
168
 73
178
 74
179
 0
VERTEX
 8
BASE3
 10
0
 20
0
 30
0
 70
128
 71
77
 72
76
 73
178
 74
168
 0
SEQEND
 0
POLYLINE
 8
MANOPOLA3
 66
1
 10
0.0
 20
0.0
 30
0.0
 70
64
 71
160
 72
166
 0
VERTEX
 8
MANOPOLA3
 10
16.8829
 20
-2.7696
 30
55.4349
 70
192
 0
VERTEX
 8
MANOPOLA3
 10
15.9277
 20
-2.7696
 30
51.2387
 70
192
 0
VERTEX
 8
MANOPOLA3
 10
15.6158
 20
-2.7696
 30
51.3723
 70
192
 0
VERTEX
 8
MANOPOLA3
 10
15.9277
 20
-2.7696
 30
55.5185
 70
192
 0
VERTEX
 8
MANOPOLA3
 10
15.6158
 20
-2.7696
 30
53.6943
 70
192
 0
VERTEX
 8
MANOPOLA3
 10
15.9277
 20
-2.7696
 30
53.6943
 70
192
 0
VERTEX
 8
MANOPOLA3
 10
16.2494
 20
-2.7696
 30
51.2106
 70
192
 0
VERTEX
 8
MANOPOLA3
 10
16.571
 20
-2.7696
 30
51.2387
 70
192
 0
VERTEX
 8
MANOPOLA3
 10
16.148
 20
-4.3696
 30
54.917
 70
192
 0
VERTEX
 8
MANOPOLA3
 10
16.1481
 20
-4.2996
 30
54.9171
 70
192
 0
VERTEX
 8
MANOPOLA3
 10
16.1548
 20
-4.3696
 30
54.8666
 70
192
 0
VERTEX
 8
MANOPOLA3
 10
16.1548
 20
-4.2996
 30
54.8667
 70
192
 0
VERTEX
 8
MANOPOLA3
 10
16.2494
 20
-4.3696
 30
54.8408
 70
192
 0
VERTEX
 8
MANOPOLA3
 10
16.2494
 20
-4.2996
 30
54.8408
 70
192
 0
VERTEX
 8
MANOPOLA3
 10
16.344
 20
-4.3696
 30
54.8666
 70
192
 0
VERTEX
 8
MANOPOLA3
 10
16.344
 20
-4.2996
 30
54.8667
 70
192
 0
VERTEX
 8
MANOPOLA3
 10
16.3491
 20
-4.3696
 30
55.2679
 70
192
 0
VERTEX
 8
MANOPOLA3
 10
16.3491
 20
-4.2996
 30
55.2679
 70
192
 0
VERTEX
 8
MANOPOLA3
 10
16.344
 20
-4.3696
 30
55.3183
 70
192
 0
VERTEX
 8
MANOPOLA3
 10
16.344
 20
-4.2996
 30
55.3183
 70
192
 0
VERTEX
 8
MANOPOLA3
 10
16.2494
 20
-4.3696
 30
55.3441
 70
192
 0
VERTEX
 8
MANOPOLA3
 10
16.2494
 20
-4.2996
 30
55.3442
 70
192
 0
VERTEX
 8
MANOPOLA3
 10
16.1548
 20
-4.3696
 30
55.3183
 70
192
 0
VERTEX
 8
MANOPOLA3
 10
16.1548
 20
-4.2996
 30
55.3183
 70
192
 0
VERTEX
 8
MANOPOLA3
 10
16.148
 20
-4.3696
 30
55.2679
 70
192
 0
VERTEX
 8
MANOPOLA3
 10
16.1481
 20
-4.2996
 30
55.2679
 70
192
 0
VERTEX
 8
MANOPOLA3
 10
16.3491
 20
-4.3696
 30
54.917
 70
192
 0
VERTEX
 8
MANOPOLA3
 10
16.3491
 20
-4.2996
 30
54.9171
 70
192
 0
VERTEX
 8
MANOPOLA3
 10
15.6158
 20
-4.3196
 30
51.3723
 70
192
 0
VERTEX
 8
MANOPOLA3
 10
15.9583
 20
-4.3661
 30
55.4915
 70
192
 0
VERTEX
 8
MANOPOLA3
 10
15.6641
 20
-4.3196
 30
51.3094
 70
192
 0
VERTEX
 8
MANOPOLA3
 10
15.9279
 20
-4.3197
 30
51.2398
 70
192
 0
VERTEX
 8
MANOPOLA3
 10
16.2494
 20
-4.3197
 30
51.212
 70
192
 0
VERTEX
 8
MANOPOLA3
 10
16.5708
 20
-4.3197
 30
51.2398
 70
192
 0
VERTEX
 8
MANOPOLA3
 10
16.8346
 20
-4.3196
 30
51.3094
 70
192
 0
VERTEX
 8
MANOPOLA3
 10
16.8346
 20
-2.7696
 30
51.3094
 70
192
 0
VERTEX
 8
MANOPOLA3
 10
15.6641
 20
-2.7696
 30
51.3094
 70
192
 0
VERTEX
 8
MANOPOLA3
 10
16.571
 20
-4.3196
 30
55.5185
 70
192
 0
VERTEX
 8
MANOPOLA3
 10
16.8829
 20
-4.3196
 30
51.3723
 70
192
 0
VERTEX
 8
MANOPOLA3
 10
16.8829
 20
-4.3196
 30
55.4349
 70
192
 0
VERTEX
 8
MANOPOLA3
 10
16.571
 20
-2.7696
 30
55.5185
 70
192
 0
VERTEX
 8
MANOPOLA3
 10
16.2494
 20
-4.3696
 30
55.4965
 70
192
 0
VERTEX
 8
MANOPOLA3
 10
16.5226
 20
-4.3696
 30
55.4758
 70
192
 0
VERTEX
 8
MANOPOLA3
 10
16.8829
 20
-3.0197
 30
55.4349
 70
192
 0
VERTEX
 8
MANOPOLA3
 10
16.2494
 20
-4.3196
 30
55.5466
 70
192
 0
VERTEX
 8
MANOPOLA3
 10
15.6158
 20
-4.3196
 30
55.4349
 70
192
 0
VERTEX
 8
MANOPOLA3
 10
15.6158
 20
-2.7696
 30
55.4349
 70
192
 0
VERTEX
 8
MANOPOLA3
 10
16.8329
 20
-4.3696
 30
51.3607
 70
192
 0
VERTEX
 8
MANOPOLA3
 10
16.5623
 20
-4.3696
 30
51.2882
 70
192
 0
VERTEX
 8
MANOPOLA3
 10
16.2494
 20
-4.3696
 30
51.2608
 70
192
 0
VERTEX
 8
MANOPOLA3
 10
15.9364
 20
-4.3696
 30
51.2882
 70
192
 0
VERTEX
 8
MANOPOLA3
 10
15.6658
 20
-4.3696
 30
51.3607
 70
192
 0
VERTEX
 8
MANOPOLA3
 10
15.6853
 20
-4.3696
 30
55.4131
 70
192
 0
VERTEX
 8
MANOPOLA3
 10
15.6158
 20
-3.0697
 30
51.3723
 70
192
 0
VERTEX
 8
MANOPOLA3
 10
16.8829
 20
-2.7696
 30
51.3723
 70
192
 0
VERTEX
 8
MANOPOLA3
 10
15.9277
 20
-4.3196
 30
55.5185
 70
192
 0
VERTEX
 8
MANOPOLA3
 10
15.6158
 20
-3.0197
 30
55.4349
 70
192
 0
VERTEX
 8
MANOPOLA3
 10
15.9761
 20
-4.3696
 30
55.4758
 70
192
 0
VERTEX
 8
MANOPOLA3
 10
16.8134
 20
-4.3696
 30
55.4132
 70
192
 0
VERTEX
 8
MANOPOLA3
 10
15.6353
 20
-4.3496
 30
51.3373
 70
192
 0
VERTEX
 8
MANOPOLA3
 10
16.8634
 20
-4.3496
 30
51.3373
 70
192
 0
VERTEX
 8
MANOPOLA3
 10
16.2494
 20
-4.3661
 30
55.5149
 70
192
 0
VERTEX
 8
MANOPOLA3
 10
16.2494
 20
-4.355
 30
55.5319
 70
192
 0
VERTEX
 8
MANOPOLA3
 10
16.2494
 20
-4.3381
 30
55.5431
 70
192
 0
VERTEX
 8
MANOPOLA3
 10
15.6305
 20
-4.355
 30
51.3689
 70
192
 0
VERTEX
 8
MANOPOLA3
 10
15.6646
 20
-4.355
 30
51.3244
 70
192
 0
VERTEX
 8
MANOPOLA3
 10
15.6293
 20
-4.3196
 30
51.3326
 70
192
 0
VERTEX
 8
MANOPOLA3
 10
15.6317
 20
-4.3536
 30
51.3513
 70
192
 0
VERTEX
 8
MANOPOLA3
 10
15.6467
 20
-4.3658
 30
51.3651
 70
192
 0
VERTEX
 8
MANOPOLA3
 10
15.6652
 20
-4.3658
 30
51.341
 70
192
 0
VERTEX
 8
MANOPOLA3
 10
15.6479
 20
-4.3536
 30
51.3302
 70
192
 0
VERTEX
 8
MANOPOLA3
 10
15.6642
 20
-4.3388
 30
51.3133
 70
192
 0
VERTEX
 8
MANOPOLA3
 10
15.6448
 20
-4.3196
 30
51.3181
 70
192
 0
VERTEX
 8
MANOPOLA3
 10
15.6308
 20
-4.3362
 30
51.3338
 70
192
 0
VERTEX
 8
MANOPOLA3
 10
15.6193
 20
-4.3196
 30
51.3514
 70
192
 0
VERTEX
 8
MANOPOLA3
 10
15.6196
 20
-4.3388
 30
51.3714
 70
192
 0
VERTEX
 8
MANOPOLA3
 10
15.6467
 20
-4.3622
 30
51.346
 70
192
 0
VERTEX
 8
MANOPOLA3
 10
15.6456
 20
-4.3382
 30
51.3218
 70
192
 0
VERTEX
 8
MANOPOLA3
 10
15.623
 20
-4.3382
 30
51.3512
 70
192
 0
VERTEX
 8
MANOPOLA3
 10
16.878
 20
-4.3381
 30
55.4334
 70
192
 0
VERTEX
 8
MANOPOLA3
 10
16.8626
 20
-4.355
 30
55.4286
 70
192
 0
VERTEX
 8
MANOPOLA3
 10
16.839
 20
-4.3661
 30
55.4212
 70
192
 0
VERTEX
 8
MANOPOLA3
 10
16.5676
 20
-4.3381
 30
55.5155
 70
192
 0
VERTEX
 8
MANOPOLA3
 10
16.5569
 20
-4.355
 30
55.506
 70
192
 0
VERTEX
 8
MANOPOLA3
 10
16.5404
 20
-4.3661
 30
55.4915
 70
192
 0
VERTEX
 8
MANOPOLA3
 10
15.9419
 20
-4.355
 30
55.506
 70
192
 0
VERTEX
 8
MANOPOLA3
 10
15.9311
 20
-4.3381
 30
55.5155
 70
192
 0
VERTEX
 8
MANOPOLA3
 10
16.2494
 20
-4.2996
 30
55.3183
 70
192
 0
VERTEX
 8
MANOPOLA3
 10
16.5703
 20
-4.338
 30
51.2429
 70
192
 0
VERTEX
 8
MANOPOLA3
 10
16.5684
 20
-4.3549
 30
51.2536
 70
192
 0
VERTEX
 8
MANOPOLA3
 10
16.5655
 20
-4.3661
 30
51.2702
 70
192
 0
VERTEX
 8
MANOPOLA3
 10
15.6453
 20
-2.7696
 30
51.3178
 70
192
 0
VERTEX
 8
MANOPOLA3
 10
15.6293
 20
-2.7696
 30
51.3326
 70
192
 0
VERTEX
 8
MANOPOLA3
 10
15.6191
 20
-2.7696
 30
51.3519
 70
192
 0
VERTEX
 8
MANOPOLA3
 10
15.9284
 20
-4.338
 30
51.2429
 70
192
 0
VERTEX
 8
MANOPOLA3
 10
15.9303
 20
-4.3549
 30
51.2536
 70
192
 0
VERTEX
 8
MANOPOLA3
 10
15.9332
 20
-4.3661
 30
51.2702
 70
192
 0
VERTEX
 8
MANOPOLA3
 10
16.2494
 20
-4.3379
 30
51.2151
 70
192
 0
VERTEX
 8
MANOPOLA3
 10
16.2494
 20
-4.3549
 30
51.2258
 70
192
 0
VERTEX
 8
MANOPOLA3
 10
16.2494
 20
-4.3661
 30
51.2426
 70
192
 0
VERTEX
 8
MANOPOLA3
 10
15.6207
 20
-4.3381
 30
55.4334
 70
192
 0
VERTEX
 8
MANOPOLA3
 10
15.6362
 20
-4.355
 30
55.4285
 70
192
 0
VERTEX
 8
MANOPOLA3
 10
15.6597
 20
-4.3661
 30
55.4212
 70
192
 0
VERTEX
 8
MANOPOLA3
 10
16.8341
 20
-4.355
 30
51.3244
 70
192
 0
VERTEX
 8
MANOPOLA3
 10
16.8683
 20
-4.355
 30
51.3689
 70
192
 0
VERTEX
 8
MANOPOLA3
 10
16.8695
 20
-4.3196
 30
51.3326
 70
192
 0
VERTEX
 8
MANOPOLA3
 10
16.8508
 20
-4.3536
 30
51.3302
 70
192
 0
VERTEX
 8
MANOPOLA3
 10
16.8336
 20
-4.3658
 30
51.341
 70
192
 0
VERTEX
 8
MANOPOLA3
 10
16.8521
 20
-4.3658
 30
51.3651
 70
192
 0
VERTEX
 8
MANOPOLA3
 10
16.867
 20
-4.3536
 30
51.3513
 70
192
 0
VERTEX
 8
MANOPOLA3
 10
16.8791
 20
-4.3388
 30
51.3714
 70
192
 0
VERTEX
 8
MANOPOLA3
 10
16.8795
 20
-4.3196
 30
51.3514
 70
192
 0
VERTEX
 8
MANOPOLA3
 10
16.8679
 20
-4.3362
 30
51.3338
 70
192
 0
VERTEX
 8
MANOPOLA3
 10
16.854
 20
-4.3196
 30
51.3181
 70
192
 0
VERTEX
 8
MANOPOLA3
 10
16.8345
 20
-4.3388
 30
51.3133
 70
192
 0
VERTEX
 8
MANOPOLA3
 10
16.8521
 20
-4.3622
 30
51.346
 70
192
 0
VERTEX
 8
MANOPOLA3
 10
16.8757
 20
-4.3382
 30
51.3512
 70
192
 0
VERTEX
 8
MANOPOLA3
 10
16.8532
 20
-4.3382
 30
51.3218
 70
192
 0
VERTEX
 8
MANOPOLA3
 10
16.8535
 20
-2.7696
 30
51.3178
 70
192
 0
VERTEX
 8
MANOPOLA3
 10
16.8695
 20
-2.7696
 30
51.3326
 70
192
 0
VERTEX
 8
MANOPOLA3
 10
16.8797
 20
-2.7696
 30
51.3519
 70
192
 0
VERTEX
 8
MANOPOLA3
 10
16.8829
 20
-3.0697
 30
51.3723
 70
192
 0
VERTEX
 8
MANOPOLA3
 10
16.8796
 20
-3.0697
 30
51.3518
 70
192
 0
VERTEX
 8
MANOPOLA3
 10
16.8695
 20
-3.0697
 30
51.3326
 70
192
 0
VERTEX
 8
MANOPOLA3
 10
16.8346
 20
-3.0697
 30
51.3094
 70
192
 0
VERTEX
 8
MANOPOLA3
 10
16.8536
 20
-3.0697
 30
51.3179
 70
192
 0
VERTEX
 8
MANOPOLA3
 10
16.571
 20
-3.0697
 30
51.2389
 70
192
 0
VERTEX
 8
MANOPOLA3
 10
16.2494
 20
-3.0697
 30
51.2109
 70
192
 0
VERTEX
 8
MANOPOLA3
 10
15.6158
 20
-3.0412
 30
53.6943
 70
192
 0
VERTEX
 8
MANOPOLA3
 10
15.6641
 20
-3.0697
 30
51.3094
 70
192
 0
VERTEX
 8
MANOPOLA3
 10
15.9277
 20
-3.0697
 30
51.2389
 70
192
 0
VERTEX
 8
MANOPOLA3
 10
15.6191
 20
-3.0697
 30
51.3518
 70
192
 0
VERTEX
 8
MANOPOLA3
 10
16.2494
 20
-4.2996
 30
54.9171
 70
192
 0
VERTEX
 8
MANOPOLA3
 10
15.6293
 20
-3.0697
 30
51.3326
 70
192
 0
VERTEX
 8
MANOPOLA3
 10
15.6452
 20
-3.0697
 30
51.3179
 70
192
 0
VERTEX
 8
MANOPOLA3
 10
16.4155
 20
-4.3696
 30
53.6943
 70
192
 0
VERTEX
 8
MANOPOLA3
 10
16.2494
 20
-4.3696
 30
53.6943
 70
192
 0
VERTEX
 8
MANOPOLA3
 10
16.8217
 20
-4.3696
 30
53.6943
 70
192
 0
VERTEX
 8
MANOPOLA3
 10
16.5154
 20
-4.3696
 30
53.6943
 70
192
 0
VERTEX
 8
MANOPOLA3
 10
16.0832
 20
-4.3696
 30
53.6943
 70
192
 0
VERTEX
 8
MANOPOLA3
 10
15.9822
 20
-4.3696
 30
53.6943
 70
192
 0
VERTEX
 8
MANOPOLA3
 10
15.677
 20
-4.3696
 30
53.6943
 70
192
 0
VERTEX
 8
MANOPOLA3
 10
16.8445
 20
-4.366
 30
53.6943
 70
192
 0
VERTEX
 8
MANOPOLA3
 10
15.6542
 20
-4.366
 30
53.6943
 70
192
 0
VERTEX
 8
MANOPOLA3
 10
16.865
 20
-4.355
 30
53.6943
 70
192
 0
VERTEX
 8
MANOPOLA3
 10
16.8785
 20
-4.3384
 30
53.6943
 70
192
 0
VERTEX
 8
MANOPOLA3
 10
16.8829
 20
-4.3196
 30
53.6943
 70
192
 0
VERTEX
 8
MANOPOLA3
 10
15.6337
 20
-4.355
 30
53.6943
 70
192
 0
VERTEX
 8
MANOPOLA3
 10
15.6202
 20
-4.3384
 30
53.6943
 70
192
 0
VERTEX
 8
MANOPOLA3
 10
15.6158
 20
-4.3196
 30
53.6943
 70
192
 0
VERTEX
 8
MANOPOLA3
 10
16.2494
 20
-3.0197
 30
55.5466
 70
192
 0
VERTEX
 8
MANOPOLA3
 10
16.571
 20
-3.0197
 30
55.5185
 70
192
 0
VERTEX
 8
MANOPOLA3
 10
15.9277
 20
-3.0197
 30
55.5185
 70
192
 0
VERTEX
 8
MANOPOLA3
 10
16.2494
 20
-2.7696
 30
55.5466
 70
192
 0
VERTEX
 8
MANOPOLA3
 10
16.2494
 20
-2.7696
 30
53.6943
 70
192
 0
VERTEX
 8
MANOPOLA3
 10
16.571
 20
-2.7696
 30
53.6943
 70
192
 0
VERTEX
 8
MANOPOLA3
 10
16.8829
 20
-2.7696
 30
53.6943
 70
192
 0
VERTEX
 8
MANOPOLA3
 10
16.2494
 20
-4.2996
 30
55.2679
 70
192
 0
VERTEX
 8
MANOPOLA3
 10
16.8829
 20
-3.0412
 30
53.6943
 70
192
 0
VERTEX
 8
MANOPOLA3
 10
16.2494
 20
-4.2996
 30
54.8667
 70
192
 0
VERTEX
 8
MANOPOLA3
 10
0
 20
0
 30
0
 70
128
 71
61
 72
107
 73
116
 74
110
 0
VERTEX
 8
MANOPOLA3
 10
0
 20
0
 30
0
 70
128
 71
60
 72
71
 73
78
 74
74
 0
VERTEX
 8
MANOPOLA3
 10
0
 20
0
 30
0
 70
128
 71
122
 72
39
 73
147
 74
159
 0
VERTEX
 8
MANOPOLA3
 10
0
 20
0
 30
0
 70
128
 71
60
 72
74
 73
79
 74
68
 0
VERTEX
 8
MANOPOLA3
 10
0
 20
0
 30
0
 70
128
 71
68
 72
65
 73
69
 74
77
 0
VERTEX
 8
MANOPOLA3
 10
0
 20
0
 30
0
 70
128
 71
53
 72
103
 73
30
 74
58
 0
VERTEX
 8
MANOPOLA3
 10
0
 20
0
 30
0
 70
128
 71
77
 72
70
 73
66
 74
71
 0
VERTEX
 8
MANOPOLA3
 10
0
 20
0
 30
0
 70
128
 71
69
 72
52
 73
70
 74
77
 0
VERTEX
 8
MANOPOLA3
 10
0
 20
0
 30
0
 70
128
 71
157
 72
55
 73
122
 74
159
 0
VERTEX
 8
MANOPOLA3
 10
0
 20
0
 30
0
 70
128
 71
71
 72
66
 73
72
 74
78
 0
VERTEX
 8
MANOPOLA3
 10
0
 20
0
 30
0
 70
128
 71
78
 72
73
 73
67
 74
74
 0
VERTEX
 8
MANOPOLA3
 10
0
 20
0
 30
0
 70
128
 71
33
 72
34
 73
127
 74
128
 0
VERTEX
 8
MANOPOLA3
 10
0
 20
0
 30
0
 70
128
 71
72
 72
31
 73
73
 74
78
 0
VERTEX
 8
MANOPOLA3
 10
0
 20
0
 30
0
 70
128
 71
74
 72
67
 73
75
 74
79
 0
VERTEX
 8
MANOPOLA3
 10
0
 20
0
 30
0
 70
128
 71
79
 72
76
 73
65
 74
68
 0
VERTEX
 8
MANOPOLA3
 10
0
 20
0
 30
0
 70
128
 71
75
 72
29
 73
76
 74
79
 0
VERTEX
 8
MANOPOLA3
 10
0
 20
0
 30
0
 70
128
 71
61
 72
110
 73
117
 74
113
 0
VERTEX
 8
MANOPOLA3
 10
0
 20
0
 30
0
 70
128
 71
135
 72
92
 73
93
 74
134
 0
VERTEX
 8
MANOPOLA3
 10
0
 20
0
 30
0
 70
128
 71
33
 72
98
 73
89
 74
34
 0
VERTEX
 8
MANOPOLA3
 10
0
 20
0
 30
0
 70
128
 71
61
 72
113
 73
118
 74
107
 0
VERTEX
 8
MANOPOLA3
 10
0
 20
0
 30
0
 70
128
 71
62
 72
63
 73
84
 74
85
 0
VERTEX
 8
MANOPOLA3
 10
0
 20
0
 30
0
 70
128
 71
60
 72
68
 73
77
 74
71
 0
VERTEX
 8
MANOPOLA3
 10
0
 20
0
 30
0
 70
128
 71
151
 72
154
 73
41
 74
152
 0
VERTEX
 8
MANOPOLA3
 10
0
 20
0
 30
0
 70
128
 71
155
 72
154
 73
4
 74
6
 0
VERTEX
 8
MANOPOLA3
 10
0
 20
0
 30
0
 70
128
 71
107
 72
104
 73
108
 74
116
 0
VERTEX
 8
MANOPOLA3
 10
0
 20
0
 30
0
 70
128
 71
38
 72
45
 73
151
 74
152
 0
VERTEX
 8
MANOPOLA3
 10
0
 20
0
 30
0
 70
128
 71
63
 72
64
 73
83
 74
84
 0
VERTEX
 8
MANOPOLA3
 10
0
 20
0
 30
0
 70
128
 71
116
 72
109
 73
105
 74
110
 0
VERTEX
 8
MANOPOLA3
 10
0
 20
0
 30
0
 70
128
 71
149
 72
101
 73
102
 74
148
 0
VERTEX
 8
MANOPOLA3
 10
0
 20
0
 30
0
 70
128
 71
64
 72
45
 73
38
 74
83
 0
VERTEX
 8
MANOPOLA3
 10
0
 20
0
 30
0
 70
128
 71
43
 72
85
 73
82
 74
59
 0
VERTEX
 8
MANOPOLA3
 10
0
 20
0
 30
0
 70
128
 71
57
 72
47
 73
4
 74
153
 0
VERTEX
 8
MANOPOLA3
 10
0
 20
0
 30
0
 70
128
 71
34
 72
35
 73
125
 74
127
 0
VERTEX
 8
MANOPOLA3
 10
0
 20
0
 30
0
 70
128
 71
86
 72
87
 73
64
 74
63
 0
VERTEX
 8
MANOPOLA3
 10
0
 20
0
 30
0
 70
128
 71
147
 72
40
 73
44
 74
159
 0
VERTEX
 8
MANOPOLA3
 10
0
 20
0
 30
0
 70
128
 71
58
 72
30
 73
62
 74
42
 0
VERTEX
 8
MANOPOLA3
 10
0
 20
0
 30
0
 70
128
 71
1
 72
41
 73
156
 74
157
 0
VERTEX
 8
MANOPOLA3
 10
0
 20
0
 30
0
 70
128
 71
114
 72
106
 73
124
 74
126
 0
VERTEX
 8
MANOPOLA3
 10
0
 20
0
 30
0
 70
128
 71
130
 72
37
 73
92
 74
135
 0
VERTEX
 8
MANOPOLA3
 10
0
 20
0
 30
0
 70
128
 71
119
 72
36
 73
125
 74
126
 0
VERTEX
 8
MANOPOLA3
 10
0
 20
0
 30
0
 70
128
 71
140
 72
51
 73
52
 74
141
 0
VERTEX
 8
MANOPOLA3
 10
0
 20
0
 30
0
 70
128
 71
142
 72
9
 73
141
 74
141
 0
VERTEX
 8
MANOPOLA3
 10
0
 20
0
 30
0
 70
128
 71
142
 72
53
 73
25
 74
9
 0
VERTEX
 8
MANOPOLA3
 10
0
 20
0
 30
0
 70
128
 71
30
 72
86
 73
63
 74
62
 0
VERTEX
 8
MANOPOLA3
 10
0
 20
0
 30
0
 70
128
 71
129
 72
150
 73
29
 74
54
 0
VERTEX
 8
MANOPOLA3
 10
0
 20
0
 30
0
 70
128
 71
82
 72
81
 73
145
 74
143
 0
VERTEX
 8
MANOPOLA3
 10
0
 20
0
 30
0
 70
128
 71
108
 72
48
 73
109
 74
116
 0
VERTEX
 8
MANOPOLA3
 10
0
 20
0
 30
0
 70
128
 71
156
 72
41
 73
154
 74
155
 0
VERTEX
 8
MANOPOLA3
 10
0
 20
0
 30
0
 70
128
 71
81
 72
80
 73
146
 74
145
 0
VERTEX
 8
MANOPOLA3
 10
0
 20
0
 30
0
 70
128
 71
80
 72
40
 73
147
 74
146
 0
VERTEX
 8
MANOPOLA3
 10
0
 20
0
 30
0
 70
128
 71
4
 72
47
 73
5
 74
6
 0
VERTEX
 8
MANOPOLA3
 10
0
 20
0
 30
0
 70
128
 71
69
 72
65
 73
148
 74
144
 0
VERTEX
 8
MANOPOLA3
 10
0
 20
0
 30
0
 70
128
 71
110
 72
105
 73
111
 74
117
 0
VERTEX
 8
MANOPOLA3
 10
0
 20
0
 30
0
 70
128
 71
65
 72
76
 73
149
 74
148
 0
VERTEX
 8
MANOPOLA3
 10
0
 20
0
 30
0
 70
128
 71
76
 72
29
 73
150
 74
149
 0
VERTEX
 8
MANOPOLA3
 10
0
 20
0
 30
0
 70
128
 71
72
 72
66
 73
96
 74
95
 0
VERTEX
 8
MANOPOLA3
 10
0
 20
0
 30
0
 70
128
 71
155
 72
7
 73
8
 74
156
 0
VERTEX
 8
MANOPOLA3
 10
0
 20
0
 30
0
 70
128
 71
66
 72
70
 73
97
 74
96
 0
VERTEX
 8
MANOPOLA3
 10
0
 20
0
 30
0
 70
128
 71
117
 72
112
 73
106
 74
113
 0
VERTEX
 8
MANOPOLA3
 10
0
 20
0
 30
0
 70
128
 71
150
 72
46
 73
101
 74
149
 0
VERTEX
 8
MANOPOLA3
 10
0
 20
0
 30
0
 70
128
 71
70
 72
52
 73
51
 74
97
 0
VERTEX
 8
MANOPOLA3
 10
0
 20
0
 30
0
 70
128
 71
95
 72
96
 73
99
 74
98
 0
VERTEX
 8
MANOPOLA3
 10
0
 20
0
 30
0
 70
128
 71
96
 72
97
 73
100
 74
99
 0
VERTEX
 8
MANOPOLA3
 10
0
 20
0
 30
0
 70
128
 71
97
 72
51
 73
50
 74
100
 0
VERTEX
 8
MANOPOLA3
 10
0
 20
0
 30
0
 70
128
 71
111
 72
39
 73
112
 74
117
 0
VERTEX
 8
MANOPOLA3
 10
0
 20
0
 30
0
 70
128
 71
44
 72
40
 73
38
 74
152
 0
VERTEX
 8
MANOPOLA3
 10
0
 20
0
 30
0
 70
128
 71
89
 72
90
 73
104
 74
115
 0
VERTEX
 8
MANOPOLA3
 10
0
 20
0
 30
0
 70
128
 71
90
 72
91
 73
108
 74
104
 0
VERTEX
 8
MANOPOLA3
 10
0
 20
0
 30
0
 70
128
 71
59
 72
82
 73
143
 74
138
 0
VERTEX
 8
MANOPOLA3
 10
0
 20
0
 30
0
 70
128
 71
91
 72
49
 73
48
 74
108
 0
VERTEX
 8
MANOPOLA3
 10
0
 20
0
 30
0
 70
128
 71
113
 72
106
 73
114
 74
118
 0
VERTEX
 8
MANOPOLA3
 10
0
 20
0
 30
0
 70
128
 71
87
 72
56
 73
45
 74
64
 0
VERTEX
 8
MANOPOLA3
 10
0
 20
0
 30
0
 70
128
 71
2
 72
3
 73
94
 74
94
 0
VERTEX
 8
MANOPOLA3
 10
0
 20
0
 30
0
 70
128
 71
153
 72
4
 73
154
 74
151
 0
VERTEX
 8
MANOPOLA3
 10
0
 20
0
 30
0
 70
128
 71
16
 72
14
 73
160
 74
160
 0
VERTEX
 8
MANOPOLA3
 10
0
 20
0
 30
0
 70
128
 71
32
 72
33
 73
128
 74
131
 0
VERTEX
 8
MANOPOLA3
 10
0
 20
0
 30
0
 70
128
 71
143
 72
109
 73
48
 74
138
 0
VERTEX
 8
MANOPOLA3
 10
0
 20
0
 30
0
 70
128
 71
85
 72
84
 73
81
 74
82
 0
VERTEX
 8
MANOPOLA3
 10
0
 20
0
 30
0
 70
128
 71
84
 72
83
 73
80
 74
81
 0
VERTEX
 8
MANOPOLA3
 10
0
 20
0
 30
0
 70
128
 71
29
 72
75
 73
132
 74
54
 0
VERTEX
 8
MANOPOLA3
 10
0
 20
0
 30
0
 70
128
 71
160
 72
133
 73
28
 74
16
 0
VERTEX
 8
MANOPOLA3
 10
0
 20
0
 30
0
 70
128
 71
3
 72
5
 73
129
 74
54
 0
VERTEX
 8
MANOPOLA3
 10
0
 20
0
 30
0
 70
128
 71
144
 72
103
 73
53
 74
142
 0
VERTEX
 8
MANOPOLA3
 10
0
 20
0
 30
0
 70
128
 71
10
 72
26
 73
158
 74
133
 0
VERTEX
 8
MANOPOLA3
 10
0
 20
0
 30
0
 70
128
 71
75
 72
67
 73
134
 74
132
 0
VERTEX
 8
MANOPOLA3
 10
0
 20
0
 30
0
 70
128
 71
67
 72
73
 73
135
 74
134
 0
VERTEX
 8
MANOPOLA3
 10
0
 20
0
 30
0
 70
128
 71
13
 72
14
 73
16
 74
15
 0
VERTEX
 8
MANOPOLA3
 10
0
 20
0
 30
0
 70
128
 71
25
 72
26
 73
10
 74
9
 0
VERTEX
 8
MANOPOLA3
 10
0
 20
0
 30
0
 70
128
 71
73
 72
31
 73
130
 74
135
 0
VERTEX
 8
MANOPOLA3
 10
0
 20
0
 30
0
 70
128
 71
8
 72
36
 73
119
 74
119
 0
VERTEX
 8
MANOPOLA3
 10
0
 20
0
 30
0
 70
128
 71
57
 72
46
 73
150
 74
129
 0
VERTEX
 8
MANOPOLA3
 10
0
 20
0
 30
0
 70
128
 71
125
 72
35
 73
114
 74
126
 0
VERTEX
 8
MANOPOLA3
 10
0
 20
0
 30
0
 70
128
 71
52
 72
69
 73
144
 74
142
 0
VERTEX
 8
MANOPOLA3
 10
0
 20
0
 30
0
 70
128
 71
103
 72
102
 73
86
 74
30
 0
VERTEX
 8
MANOPOLA3
 10
0
 20
0
 30
0
 70
128
 71
102
 72
101
 73
87
 74
86
 0
VERTEX
 8
MANOPOLA3
 10
0
 20
0
 30
0
 70
128
 71
101
 72
46
 73
56
 74
87
 0
VERTEX
 8
MANOPOLA3
 10
0
 20
0
 30
0
 70
128
 71
83
 72
38
 73
40
 74
80
 0
VERTEX
 8
MANOPOLA3
 10
0
 20
0
 30
0
 70
128
 71
145
 72
105
 73
109
 74
143
 0
VERTEX
 8
MANOPOLA3
 10
0
 20
0
 30
0
 70
128
 71
134
 72
93
 73
94
 74
132
 0
VERTEX
 8
MANOPOLA3
 10
0
 20
0
 30
0
 70
128
 71
5
 72
47
 73
57
 74
129
 0
VERTEX
 8
MANOPOLA3
 10
0
 20
0
 30
0
 70
128
 71
45
 72
56
 73
153
 74
151
 0
VERTEX
 8
MANOPOLA3
 10
0
 20
0
 30
0
 70
128
 71
153
 72
56
 73
46
 74
57
 0
VERTEX
 8
MANOPOLA3
 10
0
 20
0
 30
0
 70
128
 71
127
 72
8
 73
7
 74
128
 0
VERTEX
 8
MANOPOLA3
 10
0
 20
0
 30
0
 70
128
 71
125
 72
36
 73
8
 74
127
 0
VERTEX
 8
MANOPOLA3
 10
0
 20
0
 30
0
 70
128
 71
112
 72
39
 73
122
 74
123
 0
VERTEX
 8
MANOPOLA3
 10
0
 20
0
 30
0
 70
128
 71
106
 72
112
 73
123
 74
124
 0
VERTEX
 8
MANOPOLA3
 10
0
 20
0
 30
0
 70
128
 71
98
 72
99
 73
90
 74
89
 0
VERTEX
 8
MANOPOLA3
 10
0
 20
0
 30
0
 70
128
 71
2
 72
7
 73
155
 74
6
 0
VERTEX
 8
MANOPOLA3
 10
0
 20
0
 30
0
 70
128
 71
93
 72
92
 73
2
 74
2
 0
VERTEX
 8
MANOPOLA3
 10
0
 20
0
 30
0
 70
128
 71
139
 72
27
 73
138
 74
138
 0
VERTEX
 8
MANOPOLA3
 10
0
 20
0
 30
0
 70
128
 71
27
 72
17
 73
59
 74
138
 0
VERTEX
 8
MANOPOLA3
 10
0
 20
0
 30
0
 70
128
 71
139
 72
48
 73
49
 74
136
 0
VERTEX
 8
MANOPOLA3
 10
0
 20
0
 30
0
 70
128
 71
34
 72
89
 73
115
 74
35
 0
VERTEX
 8
MANOPOLA3
 10
0
 20
0
 30
0
 70
128
 71
141
 72
52
 73
142
 74
142
 0
VERTEX
 8
MANOPOLA3
 10
0
 20
0
 30
0
 70
128
 71
13
 72
15
 73
136
 74
137
 0
VERTEX
 8
MANOPOLA3
 10
0
 20
0
 30
0
 70
128
 71
20
 72
18
 73
158
 74
88
 0
VERTEX
 8
MANOPOLA3
 10
0
 20
0
 30
0
 70
128
 71
9
 72
10
 73
12
 74
11
 0
VERTEX
 8
MANOPOLA3
 10
0
 20
0
 30
0
 70
128
 71
58
 72
23
 73
25
 74
53
 0
VERTEX
 8
MANOPOLA3
 10
0
 20
0
 30
0
 70
128
 71
138
 72
48
 73
139
 74
139
 0
VERTEX
 8
MANOPOLA3
 10
0
 20
0
 30
0
 70
128
 71
11
 72
12
 73
14
 74
13
 0
VERTEX
 8
MANOPOLA3
 10
0
 20
0
 30
0
 70
128
 71
12
 72
10
 73
133
 74
160
 0
VERTEX
 8
MANOPOLA3
 10
0
 20
0
 30
0
 70
128
 71
15
 72
27
 73
139
 74
136
 0
VERTEX
 8
MANOPOLA3
 10
0
 20
0
 30
0
 70
128
 71
50
 72
51
 73
140
 74
137
 0
VERTEX
 8
MANOPOLA3
 10
0
 20
0
 30
0
 70
128
 71
15
 72
16
 73
28
 74
27
 0
VERTEX
 8
MANOPOLA3
 10
0
 20
0
 30
0
 70
128
 71
27
 72
28
 73
18
 74
17
 0
VERTEX
 8
MANOPOLA3
 10
0
 20
0
 30
0
 70
128
 71
9
 72
11
 73
140
 74
141
 0
VERTEX
 8
MANOPOLA3
 10
0
 20
0
 30
0
 70
128
 71
59
 72
17
 73
19
 74
43
 0
VERTEX
 8
MANOPOLA3
 10
0
 20
0
 30
0
 70
128
 71
17
 72
18
 73
20
 74
19
 0
VERTEX
 8
MANOPOLA3
 10
0
 20
0
 30
0
 70
128
 71
19
 72
20
 73
22
 74
21
 0
VERTEX
 8
MANOPOLA3
 10
0
 20
0
 30
0
 70
128
 71
43
 72
19
 73
21
 74
42
 0
VERTEX
 8
MANOPOLA3
 10
0
 20
0
 30
0
 70
128
 71
42
 72
21
 73
23
 74
58
 0
VERTEX
 8
MANOPOLA3
 10
0
 20
0
 30
0
 70
128
 71
21
 72
22
 73
24
 74
23
 0
VERTEX
 8
MANOPOLA3
 10
0
 20
0
 30
0
 70
128
 71
23
 72
24
 73
26
 74
25
 0
VERTEX
 8
MANOPOLA3
 10
0
 20
0
 30
0
 70
128
 71
24
 72
22
 73
88
 74
88
 0
VERTEX
 8
MANOPOLA3
 10
0
 20
0
 30
0
 70
128
 71
99
 72
100
 73
91
 74
90
 0
VERTEX
 8
MANOPOLA3
 10
0
 20
0
 30
0
 70
128
 71
100
 72
50
 73
49
 74
91
 0
VERTEX
 8
MANOPOLA3
 10
0
 20
0
 30
0
 70
128
 71
136
 72
49
 73
50
 74
137
 0
VERTEX
 8
MANOPOLA3
 10
0
 20
0
 30
0
 70
128
 71
92
 72
37
 73
2
 74
2
 0
VERTEX
 8
MANOPOLA3
 10
0
 20
0
 30
0
 70
128
 71
130
 72
31
 73
32
 74
131
 0
VERTEX
 8
MANOPOLA3
 10
0
 20
0
 30
0
 70
128
 71
140
 72
11
 73
13
 74
137
 0
VERTEX
 8
MANOPOLA3
 10
0
 20
0
 30
0
 70
128
 71
31
 72
72
 73
95
 74
32
 0
VERTEX
 8
MANOPOLA3
 10
0
 20
0
 30
0
 70
128
 71
32
 72
95
 73
98
 74
33
 0
VERTEX
 8
MANOPOLA3
 10
0
 20
0
 30
0
 70
128
 71
146
 72
111
 73
105
 74
145
 0
VERTEX
 8
MANOPOLA3
 10
0
 20
0
 30
0
 70
128
 71
147
 72
39
 73
111
 74
146
 0
VERTEX
 8
MANOPOLA3
 10
0
 20
0
 30
0
 70
128
 71
44
 72
152
 73
41
 74
1
 0
VERTEX
 8
MANOPOLA3
 10
0
 20
0
 30
0
 70
128
 71
42
 72
62
 73
85
 74
43
 0
VERTEX
 8
MANOPOLA3
 10
0
 20
0
 30
0
 70
128
 71
124
 72
120
 73
119
 74
126
 0
VERTEX
 8
MANOPOLA3
 10
0
 20
0
 30
0
 70
128
 71
131
 72
2
 73
37
 74
130
 0
VERTEX
 8
MANOPOLA3
 10
0
 20
0
 30
0
 70
128
 71
118
 72
115
 73
104
 74
107
 0
VERTEX
 8
MANOPOLA3
 10
0
 20
0
 30
0
 70
128
 71
114
 72
35
 73
115
 74
118
 0
VERTEX
 8
MANOPOLA3
 10
0
 20
0
 30
0
 70
128
 71
148
 72
102
 73
103
 74
144
 0
VERTEX
 8
MANOPOLA3
 10
0
 20
0
 30
0
 70
128
 71
128
 72
7
 73
2
 74
131
 0
VERTEX
 8
MANOPOLA3
 10
0
 20
0
 30
0
 70
128
 71
132
 72
94
 73
3
 74
54
 0
VERTEX
 8
MANOPOLA3
 10
0
 20
0
 30
0
 70
128
 71
2
 72
94
 73
93
 74
93
 0
VERTEX
 8
MANOPOLA3
 10
0
 20
0
 30
0
 70
128
 71
2
 72
6
 73
5
 74
3
 0
VERTEX
 8
MANOPOLA3
 10
0
 20
0
 30
0
 70
128
 71
14
 72
12
 73
160
 74
160
 0
VERTEX
 8
MANOPOLA3
 10
0
 20
0
 30
0
 70
128
 71
157
 72
156
 73
8
 74
55
 0
VERTEX
 8
MANOPOLA3
 10
0
 20
0
 30
0
 70
128
 71
18
 72
28
 73
133
 74
158
 0
VERTEX
 8
MANOPOLA3
 10
0
 20
0
 30
0
 70
128
 71
8
 72
121
 73
55
 74
55
 0
VERTEX
 8
MANOPOLA3
 10
0
 20
0
 30
0
 70
128
 71
22
 72
20
 73
88
 74
88
 0
VERTEX
 8
MANOPOLA3
 10
0
 20
0
 30
0
 70
128
 71
88
 72
158
 73
26
 74
24
 0
VERTEX
 8
MANOPOLA3
 10
0
 20
0
 30
0
 70
128
 71
8
 72
120
 73
121
 74
121
 0
VERTEX
 8
MANOPOLA3
 10
0
 20
0
 30
0
 70
128
 71
8
 72
119
 73
120
 74
120
 0
VERTEX
 8
MANOPOLA3
 10
0
 20
0
 30
0
 70
128
 71
55
 72
121
 73
123
 74
122
 0
VERTEX
 8
MANOPOLA3
 10
0
 20
0
 30
0
 70
128
 71
121
 72
120
 73
124
 74
123
 0
VERTEX
 8
MANOPOLA3
 10
0
 20
0
 30
0
 70
128
 71
44
 72
1
 73
157
 74
159
 0
SEQEND
 0
POLYLINE
 8
DIETRO
 66
1
 10
0.0
 20
0.0
 30
0.0
 70
64
 71
12
 72
6
 0
VERTEX
 8
DIETRO
 10
-34.4716
 20
0.3422
 30
1.8669
 70
192
 0
VERTEX
 8
DIETRO
 10
31.9355
 20
54.0287
 30
1.8669
 70
192
 0
VERTEX
 8
DIETRO
 10
31.9355
 20
54.0287
 30
55.5
 70
192
 0
VERTEX
 8
DIETRO
 10
-32.02
 20
54.0287
 30
1.8669
 70
192
 0
VERTEX
 8
DIETRO
 10
-34.4716
 20
0.3422
 30
57.7193
 70
192
 0
VERTEX
 8
DIETRO
 10
-32.02
 20
0.3422
 30
57.7193
 70
192
 0
VERTEX
 8
DIETRO
 10
34.3783
 20
0.3422
 30
1.8669
 70
192
 0
VERTEX
 8
DIETRO
 10
31.9355
 20
0.3422
 30
1.8669
 70
192
 0
VERTEX
 8
DIETRO
 10
31.9355
 20
0.3422
 30
57.7193
 70
192
 0
VERTEX
 8
DIETRO
 10
-32.02
 20
0.3422
 30
1.8669
 70
192
 0
VERTEX
 8
DIETRO
 10
34.3783
 20
0.3422
 30
57.7193
 70
192
 0
VERTEX
 8
DIETRO
 10
-32.02
 20
54.0287
 30
55.5
 70
192
 0
VERTEX
 8
DIETRO
 10
0
 20
0
 30
0
 70
128
 71
8
 72
2
 73
4
 74
10
 0
VERTEX
 8
DIETRO
 10
0
 20
0
 30
0
 70
128
 71
10
 72
4
 73
12
 74
6
 0
VERTEX
 8
DIETRO
 10
0
 20
0
 30
0
 70
128
 71
6
 72
12
 73
3
 74
9
 0
VERTEX
 8
DIETRO
 10
0
 20
0
 30
0
 70
128
 71
2
 72
3
 73
12
 74
4
 0
VERTEX
 8
DIETRO
 10
0
 20
0
 30
0
 70
128
 71
9
 72
3
 73
2
 74
8
 0
VERTEX
 8
DIETRO
 10
0
 20
0
 30
0
 70
128
 71
9
 72
8
 73
10
 74
6
 0
SEQEND
 0
POLYLINE
 8
FONDO
 66
1
 10
0.0
 20
0.0
 30
0.0
 70
64
 71
24
 72
22
 0
VERTEX
 8
FONDO
 10
-36.877
 20
-0.0976
 30
1.167
 70
192
 0
VERTEX
 8
FONDO
 10
-36.877
 20
-1.4137
 30
1.167
 70
192
 0
VERTEX
 8
FONDO
 10
-36.877
 20
-1.4137
 30
57.2777
 70
192
 0
VERTEX
 8
FONDO
 10
-36.877
 20
-1.4137
 30
58.6887
 70
192
 0
VERTEX
 8
FONDO
 10
-36.877
 20
-0.0976
 30
57.2777
 70
192
 0
VERTEX
 8
FONDO
 10
-32.02
 20
-1.4137
 30
1.167
 70
192
 0
VERTEX
 8
FONDO
 10
-32.02
 20
-1.4137
 30
57.2777
 70
192
 0
VERTEX
 8
FONDO
 10
-32.02
 20
-1.4137
 30
58.6887
 70
192
 0
VERTEX
 8
FONDO
 10
-36.877
 20
-0.0976
 30
58.6887
 70
192
 0
VERTEX
 8
FONDO
 10
31.9355
 20
-1.4137
 30
1.167
 70
192
 0
VERTEX
 8
FONDO
 10
31.9355
 20
-1.4137
 30
57.2777
 70
192
 0
VERTEX
 8
FONDO
 10
31.9355
 20
-1.4137
 30
58.6887
 70
192
 0
VERTEX
 8
FONDO
 10
-32.02
 20
-0.0976
 30
1.167
 70
192
 0
VERTEX
 8
FONDO
 10
36.8324
 20
-1.4137
 30
1.167
 70
192
 0
VERTEX
 8
FONDO
 10
36.8324
 20
-1.4137
 30
57.2777
 70
192
 0
VERTEX
 8
FONDO
 10
36.8324
 20
-1.4137
 30
58.6887
 70
192
 0
VERTEX
 8
FONDO
 10
-32.02
 20
-0.0976
 30
57.2777
 70
192
 0
VERTEX
 8
FONDO
 10
36.8324
 20
-0.0976
 30
1.167
 70
192
 0
VERTEX
 8
FONDO
 10
36.8324
 20
-0.0976
 30
57.2777
 70
192
 0
VERTEX
 8
FONDO
 10
36.8324
 20
-0.0976
 30
58.6887
 70
192
 0
VERTEX
 8
FONDO
 10
-32.02
 20
-0.0976
 30
58.6887
 70
192
 0
VERTEX
 8
FONDO
 10
31.9355
 20
-0.0976
 30
1.167
 70
192
 0
VERTEX
 8
FONDO
 10
31.9355
 20
-0.0976
 30
57.2777
 70
192
 0
VERTEX
 8
FONDO
 10
31.9355
 20
-0.0976
 30
58.6887
 70
192
 0
VERTEX
 8
FONDO
 10
0
 20
0
 30
0
 70
128
 71
5
 72
9
 73
4
 74
3
 0
VERTEX
 8
FONDO
 10
0
 20
0
 30
0
 70
128
 71
4
 72
9
 73
21
 74
8
 0
VERTEX
 8
FONDO
 10
0
 20
0
 30
0
 70
128
 71
8
 72
21
 73
24
 74
12
 0
VERTEX
 8
FONDO
 10
0
 20
0
 30
0
 70
128
 71
2
 72
3
 73
7
 74
6
 0
VERTEX
 8
FONDO
 10
0
 20
0
 30
0
 70
128
 71
6
 72
7
 73
11
 74
10
 0
VERTEX
 8
FONDO
 10
0
 20
0
 30
0
 70
128
 71
10
 72
11
 73
15
 74
14
 0
VERTEX
 8
FONDO
 10
0
 20
0
 30
0
 70
128
 71
3
 72
4
 73
8
 74
7
 0
VERTEX
 8
FONDO
 10
0
 20
0
 30
0
 70
128
 71
7
 72
8
 73
12
 74
11
 0
VERTEX
 8
FONDO
 10
0
 20
0
 30
0
 70
128
 71
11
 72
12
 73
16
 74
15
 0
VERTEX
 8
FONDO
 10
0
 20
0
 30
0
 70
128
 71
12
 72
24
 73
20
 74
16
 0
VERTEX
 8
FONDO
 10
0
 20
0
 30
0
 70
128
 71
14
 72
15
 73
19
 74
18
 0
VERTEX
 8
FONDO
 10
0
 20
0
 30
0
 70
128
 71
15
 72
16
 73
20
 74
19
 0
VERTEX
 8
FONDO
 10
0
 20
0
 30
0
 70
128
 71
1
 72
5
 73
3
 74
2
 0
VERTEX
 8
FONDO
 10
0
 20
0
 30
0
 70
128
 71
10
 72
14
 73
18
 74
22
 0
VERTEX
 8
FONDO
 10
0
 20
0
 30
0
 70
128
 71
6
 72
10
 73
22
 74
13
 0
VERTEX
 8
FONDO
 10
0
 20
0
 30
0
 70
128
 71
18
 72
19
 73
23
 74
22
 0
VERTEX
 8
FONDO
 10
0
 20
0
 30
0
 70
128
 71
2
 72
6
 73
13
 74
1
 0
VERTEX
 8
FONDO
 10
0
 20
0
 30
0
 70
128
 71
13
 72
17
 73
5
 74
1
 0
VERTEX
 8
FONDO
 10
0
 20
0
 30
0
 70
128
 71
19
 72
20
 73
24
 74
23
 0
VERTEX
 8
FONDO
 10
0
 20
0
 30
0
 70
128
 71
23
 72
24
 73
21
 74
17
 0
VERTEX
 8
FONDO
 10
0
 20
0
 30
0
 70
128
 71
17
 72
21
 73
9
 74
5
 0
VERTEX
 8
FONDO
 10
0
 20
0
 30
0
 70
128
 71
17
 72
13
 73
22
 74
23
 0
SEQEND
 0
POLYLINE
 8
ASTA
 66
1
 10
0.0
 20
0.0
 30
0.0
 70
64
 71
8
 72
6
 0
VERTEX
 8
ASTA
 10
-37.1075
 20
-2.3119
 30
47.7641
 70
192
 0
VERTEX
 8
ASTA
 10
-37.1075
 20
-2.3119
 30
48.1766
 70
192
 0
VERTEX
 8
ASTA
 10
37.1043
 20
-0.7035
 30
47.7641
 70
192
 0
VERTEX
 8
ASTA
 10
37.1043
 20
-0.7035
 30
48.1766
 70
192
 0
VERTEX
 8
ASTA
 10
37.1043
 20
-2.3119
 30
47.7641
 70
192
 0
VERTEX
 8
ASTA
 10
37.1043
 20
-2.3119
 30
48.1766
 70
192
 0
VERTEX
 8
ASTA
 10
-37.1075
 20
-0.7035
 30
47.7641
 70
192
 0
VERTEX
 8
ASTA
 10
-37.1075
 20
-0.7035
 30
48.1766
 70
192
 0
VERTEX
 8
ASTA
 10
0
 20
0
 30
0
 70
128
 71
1
 72
2
 73
6
 74
5
 0
VERTEX
 8
ASTA
 10
0
 20
0
 30
0
 70
128
 71
7
 72
8
 73
2
 74
1
 0
VERTEX
 8
ASTA
 10
0
 20
0
 30
0
 70
128
 71
4
 72
6
 73
2
 74
8
 0
VERTEX
 8
ASTA
 10
0
 20
0
 30
0
 70
128
 71
3
 72
4
 73
8
 74
7
 0
VERTEX
 8
ASTA
 10
0
 20
0
 30
0
 70
128
 71
7
 72
1
 73
5
 74
3
 0
VERTEX
 8
ASTA
 10
0
 20
0
 30
0
 70
128
 71
5
 72
6
 73
4
 74
3
 0
SEQEND
 0
POLYLINE
 8
CUBO
 66
1
 10
0.0
 20
0.0
 30
0.0
 70
64
 71
8
 72
6
 0
VERTEX
 8
CUBO
 10
-28.7966
 20
-2.0432
 30
49.4198
 70
192
 0
VERTEX
 8
CUBO
 10
-28.7966
 20
-2.0432
 30
58.2198
 70
192
 0
VERTEX
 8
CUBO
 10
29.1277
 20
-2.0432
 30
49.4198
 70
192
 0
VERTEX
 8
CUBO
 10
29.1277
 20
-2.0432
 30
58.2198
 70
192
 0
VERTEX
 8
CUBO
 10
29.1277
 20
-1.5587
 30
49.4198
 70
192
 0
VERTEX
 8
CUBO
 10
29.1277
 20
-1.5587
 30
58.2198
 70
192
 0
VERTEX
 8
CUBO
 10
-28.7966
 20
-1.5587
 30
49.4198
 70
192
 0
VERTEX
 8
CUBO
 10
-28.7966
 20
-1.5587
 30
58.2198
 70
192
 0
VERTEX
 8
CUBO
 10
0
 20
0
 30
0
 70
128
 71
1
 72
2
 73
4
 74
3
 0
VERTEX
 8
CUBO
 10
0
 20
0
 30
0
 70
128
 71
3
 72
4
 73
6
 74
5
 0
VERTEX
 8
CUBO
 10
0
 20
0
 30
0
 70
128
 71
5
 72
6
 73
8
 74
7
 0
VERTEX
 8
CUBO
 10
0
 20
0
 30
0
 70
128
 71
7
 72
8
 73
2
 74
1
 0
VERTEX
 8
CUBO
 10
0
 20
0
 30
0
 70
128
 71
2
 72
8
 73
6
 74
4
 0
VERTEX
 8
CUBO
 10
0
 20
0
 30
0
 70
128
 71
7
 72
1
 73
3
 74
5
 0
SEQEND
 0
POLYLINE
 8
ANTA
 66
1
 10
0.0
 20
0.0
 30
0.0
 70
64
 71
32
 72
32
 0
VERTEX
 8
ANTA
 10
-37.2465
 20
-2.1686
 30
0.5116
 70
192
 0
VERTEX
 8
ANTA
 10
-37.2465
 20
-2.1686
 30
15.0269
 70
192
 0
VERTEX
 8
ANTA
 10
-37.2465
 20
-2.1686
 30
40.7326
 70
192
 0
VERTEX
 8
ANTA
 10
-37.2465
 20
-2.1686
 30
46.6962
 70
192
 0
VERTEX
 8
ANTA
 10
-35.2211
 20
-2.1686
 30
0.5116
 70
192
 0
VERTEX
 8
ANTA
 10
-35.2211
 20
-2.1686
 30
15.0269
 70
192
 0
VERTEX
 8
ANTA
 10
-35.2211
 20
-2.1686
 30
40.7326
 70
192
 0
VERTEX
 8
ANTA
 10
-35.2211
 20
-2.1686
 30
46.6962
 70
192
 0
VERTEX
 8
ANTA
 10
35.263
 20
-2.1686
 30
0.5116
 70
192
 0
VERTEX
 8
ANTA
 10
35.263
 20
-2.1686
 30
15.0269
 70
192
 0
VERTEX
 8
ANTA
 10
35.263
 20
-2.1686
 30
40.7326
 70
192
 0
VERTEX
 8
ANTA
 10
35.263
 20
-2.1686
 30
46.6962
 70
192
 0
VERTEX
 8
ANTA
 10
37.2301
 20
-2.1686
 30
0.5116
 70
192
 0
VERTEX
 8
ANTA
 10
37.2301
 20
-2.1686
 30
15.0269
 70
192
 0
VERTEX
 8
ANTA
 10
37.2301
 20
-2.1686
 30
40.7326
 70
192
 0
VERTEX
 8
ANTA
 10
37.2301
 20
-2.1686
 30
46.6962
 70
192
 0
VERTEX
 8
ANTA
 10
37.2301
 20
-0.5621
 30
0.5116
 70
192
 0
VERTEX
 8
ANTA
 10
37.2301
 20
-0.5621
 30
15.0269
 70
192
 0
VERTEX
 8
ANTA
 10
37.2301
 20
-0.5621
 30
40.7326
 70
192
 0
VERTEX
 8
ANTA
 10
37.2301
 20
-0.5621
 30
46.6962
 70
192
 0
VERTEX
 8
ANTA
 10
35.263
 20
-0.5621
 30
0.5116
 70
192
 0
VERTEX
 8
ANTA
 10
35.263
 20
-0.5621
 30
15.0269
 70
192
 0
VERTEX
 8
ANTA
 10
35.263
 20
-0.5621
 30
40.7326
 70
192
 0
VERTEX
 8
ANTA
 10
35.263
 20
-0.5621
 30
46.6962
 70
192
 0
VERTEX
 8
ANTA
 10
-35.2211
 20
-0.5621
 30
0.5116
 70
192
 0
VERTEX
 8
ANTA
 10
-35.2211
 20
-0.5621
 30
15.0269
 70
192
 0
VERTEX
 8
ANTA
 10
-35.2211
 20
-0.5621
 30
40.7326
 70
192
 0
VERTEX
 8
ANTA
 10
-35.2211
 20
-0.5621
 30
46.6962
 70
192
 0
VERTEX
 8
ANTA
 10
-37.2465
 20
-0.5621
 30
0.5116
 70
192
 0
VERTEX
 8
ANTA
 10
-37.2465
 20
-0.5621
 30
15.0269
 70
192
 0
VERTEX
 8
ANTA
 10
-37.2465
 20
-0.5621
 30
40.7326
 70
192
 0
VERTEX
 8
ANTA
 10
-37.2465
 20
-0.5621
 30
46.6962
 70
192
 0
VERTEX
 8
ANTA
 10
0
 20
0
 30
0
 70
128
 71
1
 72
2
 73
6
 74
5
 0
VERTEX
 8
ANTA
 10
0
 20
0
 30
0
 70
128
 71
5
 72
6
 73
10
 74
9
 0
VERTEX
 8
ANTA
 10
0
 20
0
 30
0
 70
128
 71
9
 72
10
 73
14
 74
13
 0
VERTEX
 8
ANTA
 10
0
 20
0
 30
0
 70
128
 71
2
 72
3
 73
7
 74
6
 0
VERTEX
 8
ANTA
 10
0
 20
0
 30
0
 70
128
 71
21
 72
9
 73
13
 74
17
 0
VERTEX
 8
ANTA
 10
0
 20
0
 30
0
 70
128
 71
10
 72
11
 73
15
 74
14
 0
VERTEX
 8
ANTA
 10
0
 20
0
 30
0
 70
128
 71
3
 72
4
 73
8
 74
7
 0
VERTEX
 8
ANTA
 10
0
 20
0
 30
0
 70
128
 71
7
 72
8
 73
12
 74
11
 0
VERTEX
 8
ANTA
 10
0
 20
0
 30
0
 70
128
 71
11
 72
12
 73
16
 74
15
 0
VERTEX
 8
ANTA
 10
0
 20
0
 30
0
 70
128
 71
13
 72
14
 73
18
 74
17
 0
VERTEX
 8
ANTA
 10
0
 20
0
 30
0
 70
128
 71
14
 72
15
 73
19
 74
18
 0
VERTEX
 8
ANTA
 10
0
 20
0
 30
0
 70
128
 71
15
 72
16
 73
20
 74
19
 0
VERTEX
 8
ANTA
 10
0
 20
0
 30
0
 70
128
 71
17
 72
18
 73
22
 74
21
 0
VERTEX
 8
ANTA
 10
0
 20
0
 30
0
 70
128
 71
21
 72
22
 73
26
 74
25
 0
VERTEX
 8
ANTA
 10
0
 20
0
 30
0
 70
128
 71
25
 72
26
 73
30
 74
29
 0
VERTEX
 8
ANTA
 10
0
 20
0
 30
0
 70
128
 71
18
 72
19
 73
23
 74
22
 0
VERTEX
 8
ANTA
 10
0
 20
0
 30
0
 70
128
 71
25
 72
5
 73
9
 74
21
 0
VERTEX
 8
ANTA
 10
0
 20
0
 30
0
 70
128
 71
26
 72
27
 73
31
 74
30
 0
VERTEX
 8
ANTA
 10
0
 20
0
 30
0
 70
128
 71
19
 72
20
 73
24
 74
23
 0
VERTEX
 8
ANTA
 10
0
 20
0
 30
0
 70
128
 71
23
 72
24
 73
28
 74
27
 0
VERTEX
 8
ANTA
 10
0
 20
0
 30
0
 70
128
 71
27
 72
28
 73
32
 74
31
 0
VERTEX
 8
ANTA
 10
0
 20
0
 30
0
 70
128
 71
29
 72
30
 73
2
 74
1
 0
VERTEX
 8
ANTA
 10
0
 20
0
 30
0
 70
128
 71
30
 72
31
 73
3
 74
2
 0
VERTEX
 8
ANTA
 10
0
 20
0
 30
0
 70
128
 71
31
 72
32
 73
4
 74
3
 0
VERTEX
 8
ANTA
 10
0
 20
0
 30
0
 70
128
 71
4
 72
32
 73
28
 74
8
 0
VERTEX
 8
ANTA
 10
0
 20
0
 30
0
 70
128
 71
8
 72
28
 73
24
 74
12
 0
VERTEX
 8
ANTA
 10
0
 20
0
 30
0
 70
128
 71
12
 72
24
 73
20
 74
16
 0
VERTEX
 8
ANTA
 10
0
 20
0
 30
0
 70
128
 71
29
 72
1
 73
5
 74
25
 0
VERTEX
 8
ANTA
 10
0
 20
0
 30
0
 70
128
 71
27
 72
26
 73
6
 74
7
 0
VERTEX
 8
ANTA
 10
0
 20
0
 30
0
 70
128
 71
23
 72
27
 73
7
 74
11
 0
VERTEX
 8
ANTA
 10
0
 20
0
 30
0
 70
128
 71
22
 72
23
 73
11
 74
10
 0
VERTEX
 8
ANTA
 10
0
 20
0
 30
0
 70
128
 71
26
 72
22
 73
10
 74
6
 0
SEQEND
 0
POLYLINE
 8
CRUSCOTTO
 66
1
 10
0.0
 20
0.0
 30
0.0
 70
64
 71
32
 72
32
 0
VERTEX
 8
CRUSCOTTO
 10
-37.2465
 20
-2.3119
 30
49.0554
 70
192
 0
VERTEX
 8
CRUSCOTTO
 10
-37.2465
 20
-2.3119
 30
50.2268
 70
192
 0
VERTEX
 8
CRUSCOTTO
 10
-37.2465
 20
-2.3119
 30
57.7503
 70
192
 0
VERTEX
 8
CRUSCOTTO
 10
-37.2465
 20
-2.3119
 30
58.9732
 70
192
 0
VERTEX
 8
CRUSCOTTO
 10
-27.2617
 20
-2.3119
 30
49.0554
 70
192
 0
VERTEX
 8
CRUSCOTTO
 10
-27.2617
 20
-2.3119
 30
50.2268
 70
192
 0
VERTEX
 8
CRUSCOTTO
 10
-27.2617
 20
-2.3119
 30
57.7503
 70
192
 0
VERTEX
 8
CRUSCOTTO
 10
-27.2617
 20
-2.3119
 30
58.9732
 70
192
 0
VERTEX
 8
CRUSCOTTO
 10
27.2795
 20
-2.3119
 30
49.0554
 70
192
 0
VERTEX
 8
CRUSCOTTO
 10
27.2795
 20
-2.3119
 30
50.2268
 70
192
 0
VERTEX
 8
CRUSCOTTO
 10
27.2795
 20
-2.3119
 30
57.7503
 70
192
 0
VERTEX
 8
CRUSCOTTO
 10
27.2795
 20
-2.3119
 30
58.9732
 70
192
 0
VERTEX
 8
CRUSCOTTO
 10
37.2301
 20
-2.3119
 30
49.0554
 70
192
 0
VERTEX
 8
CRUSCOTTO
 10
37.2301
 20
-2.3119
 30
50.2268
 70
192
 0
VERTEX
 8
CRUSCOTTO
 10
37.2301
 20
-2.3119
 30
57.7503
 70
192
 0
VERTEX
 8
CRUSCOTTO
 10
37.2301
 20
-2.3119
 30
58.9732
 70
192
 0
VERTEX
 8
CRUSCOTTO
 10
37.2301
 20
-0.7035
 30
49.0554
 70
192
 0
VERTEX
 8
CRUSCOTTO
 10
37.2301
 20
-0.7035
 30
50.2268
 70
192
 0
VERTEX
 8
CRUSCOTTO
 10
37.2301
 20
-0.7035
 30
57.7503
 70
192
 0
VERTEX
 8
CRUSCOTTO
 10
37.2301
 20
-0.7035
 30
58.9732
 70
192
 0
VERTEX
 8
CRUSCOTTO
 10
27.2795
 20
-0.7035
 30
49.0554
 70
192
 0
VERTEX
 8
CRUSCOTTO
 10
27.2795
 20
-0.7035
 30
50.2268
 70
192
 0
VERTEX
 8
CRUSCOTTO
 10
27.2795
 20
-0.7035
 30
57.7503
 70
192
 0
VERTEX
 8
CRUSCOTTO
 10
27.2795
 20
-0.7035
 30
58.9732
 70
192
 0
VERTEX
 8
CRUSCOTTO
 10
-27.2617
 20
-0.7035
 30
49.0554
 70
192
 0
VERTEX
 8
CRUSCOTTO
 10
-27.2617
 20
-0.7035
 30
50.2268
 70
192
 0
VERTEX
 8
CRUSCOTTO
 10
-27.2617
 20
-0.7035
 30
57.7503
 70
192
 0
VERTEX
 8
CRUSCOTTO
 10
-27.2617
 20
-0.7035
 30
58.9732
 70
192
 0
VERTEX
 8
CRUSCOTTO
 10
-37.2465
 20
-0.7035
 30
49.0554
 70
192
 0
VERTEX
 8
CRUSCOTTO
 10
-37.2465
 20
-0.7035
 30
50.2268
 70
192
 0
VERTEX
 8
CRUSCOTTO
 10
-37.2465
 20
-0.7035
 30
57.7503
 70
192
 0
VERTEX
 8
CRUSCOTTO
 10
-37.2465
 20
-0.7035
 30
58.9732
 70
192
 0
VERTEX
 8
CRUSCOTTO
 10
0
 20
0
 30
0
 70
128
 71
1
 72
2
 73
6
 74
5
 0
VERTEX
 8
CRUSCOTTO
 10
0
 20
0
 30
0
 70
128
 71
5
 72
6
 73
10
 74
9
 0
VERTEX
 8
CRUSCOTTO
 10
0
 20
0
 30
0
 70
128
 71
9
 72
10
 73
14
 74
13
 0
VERTEX
 8
CRUSCOTTO
 10
0
 20
0
 30
0
 70
128
 71
2
 72
3
 73
7
 74
6
 0
VERTEX
 8
CRUSCOTTO
 10
0
 20
0
 30
0
 70
128
 71
21
 72
9
 73
13
 74
17
 0
VERTEX
 8
CRUSCOTTO
 10
0
 20
0
 30
0
 70
128
 71
10
 72
11
 73
15
 74
14
 0
VERTEX
 8
CRUSCOTTO
 10
0
 20
0
 30
0
 70
128
 71
3
 72
4
 73
8
 74
7
 0
VERTEX
 8
CRUSCOTTO
 10
0
 20
0
 30
0
 70
128
 71
7
 72
8
 73
12
 74
11
 0
VERTEX
 8
CRUSCOTTO
 10
0
 20
0
 30
0
 70
128
 71
11
 72
12
 73
16
 74
15
 0
VERTEX
 8
CRUSCOTTO
 10
0
 20
0
 30
0
 70
128
 71
13
 72
14
 73
18
 74
17
 0
VERTEX
 8
CRUSCOTTO
 10
0
 20
0
 30
0
 70
128
 71
14
 72
15
 73
19
 74
18
 0
VERTEX
 8
CRUSCOTTO
 10
0
 20
0
 30
0
 70
128
 71
15
 72
16
 73
20
 74
19
 0
VERTEX
 8
CRUSCOTTO
 10
0
 20
0
 30
0
 70
128
 71
17
 72
18
 73
22
 74
21
 0
VERTEX
 8
CRUSCOTTO
 10
0
 20
0
 30
0
 70
128
 71
21
 72
22
 73
26
 74
25
 0
VERTEX
 8
CRUSCOTTO
 10
0
 20
0
 30
0
 70
128
 71
25
 72
26
 73
30
 74
29
 0
VERTEX
 8
CRUSCOTTO
 10
0
 20
0
 30
0
 70
128
 71
18
 72
19
 73
23
 74
22
 0
VERTEX
 8
CRUSCOTTO
 10
0
 20
0
 30
0
 70
128
 71
25
 72
5
 73
9
 74
21
 0
VERTEX
 8
CRUSCOTTO
 10
0
 20
0
 30
0
 70
128
 71
26
 72
27
 73
31
 74
30
 0
VERTEX
 8
CRUSCOTTO
 10
0
 20
0
 30
0
 70
128
 71
19
 72
20
 73
24
 74
23
 0
VERTEX
 8
CRUSCOTTO
 10
0
 20
0
 30
0
 70
128
 71
23
 72
24
 73
28
 74
27
 0
VERTEX
 8
CRUSCOTTO
 10
0
 20
0
 30
0
 70
128
 71
27
 72
28
 73
32
 74
31
 0
VERTEX
 8
CRUSCOTTO
 10
0
 20
0
 30
0
 70
128
 71
29
 72
30
 73
2
 74
1
 0
VERTEX
 8
CRUSCOTTO
 10
0
 20
0
 30
0
 70
128
 71
30
 72
31
 73
3
 74
2
 0
VERTEX
 8
CRUSCOTTO
 10
0
 20
0
 30
0
 70
128
 71
31
 72
32
 73
4
 74
3
 0
VERTEX
 8
CRUSCOTTO
 10
0
 20
0
 30
0
 70
128
 71
4
 72
32
 73
28
 74
8
 0
VERTEX
 8
CRUSCOTTO
 10
0
 20
0
 30
0
 70
128
 71
8
 72
28
 73
24
 74
12
 0
VERTEX
 8
CRUSCOTTO
 10
0
 20
0
 30
0
 70
128
 71
12
 72
24
 73
20
 74
16
 0
VERTEX
 8
CRUSCOTTO
 10
0
 20
0
 30
0
 70
128
 71
29
 72
1
 73
5
 74
25
 0
VERTEX
 8
CRUSCOTTO
 10
0
 20
0
 30
0
 70
128
 71
27
 72
26
 73
6
 74
7
 0
VERTEX
 8
CRUSCOTTO
 10
0
 20
0
 30
0
 70
128
 71
23
 72
27
 73
7
 74
11
 0
VERTEX
 8
CRUSCOTTO
 10
0
 20
0
 30
0
 70
128
 71
22
 72
23
 73
11
 74
10
 0
VERTEX
 8
CRUSCOTTO
 10
0
 20
0
 30
0
 70
128
 71
26
 72
22
 73
10
 74
6
 0
SEQEND
 0
POLYLINE
 8
MANIGLIA
 66
1
 10
0.0
 20
0.0
 30
0.0
 70
64
 71
603
 72
565
 0
VERTEX
 8
MANIGLIA
 10
26.1983
 20
-6.8741
 30
44.0871
 70
192
 0
VERTEX
 8
MANIGLIA
 10
26.1983
 20
-6.8741
 30
44.0871
 70
192
 0
VERTEX
 8
MANIGLIA
 10
-26.1842
 20
-6.8553
 30
44.0024
 70
192
 0
VERTEX
 8
MANIGLIA
 10
-26.1842
 20
-6.8553
 30
44.0024
 70
192
 0
VERTEX
 8
MANIGLIA
 10
-21.9998
 20
-6.8553
 30
44.0024
 70
192
 0
VERTEX
 8
MANIGLIA
 10
21.999
 20
-6.8553
 30
44.0024
 70
192
 0
VERTEX
 8
MANIGLIA
 10
26.1983
 20
-6.8553
 30
44.0024
 70
192
 0
VERTEX
 8
MANIGLIA
 10
26.1983
 20
-6.8553
 30
44.0024
 70
192
 0
VERTEX
 8
MANIGLIA
 10
-26.1842
 20
-6.8292
 30
43.9198
 70
192
 0
VERTEX
 8
MANIGLIA
 10
-26.1842
 20
-6.8292
 30
43.9198
 70
192
 0
VERTEX
 8
MANIGLIA
 10
-21.9998
 20
-6.8292
 30
43.9198
 70
192
 0
VERTEX
 8
MANIGLIA
 10
21.999
 20
-6.8292
 30
43.9198
 70
192
 0
VERTEX
 8
MANIGLIA
 10
26.1983
 20
-6.8292
 30
43.9198
 70
192
 0
VERTEX
 8
MANIGLIA
 10
26.1983
 20
-6.8292
 30
43.9198
 70
192
 0
VERTEX
 8
MANIGLIA
 10
-26.1842
 20
-6.7961
 30
43.8397
 70
192
 0
VERTEX
 8
MANIGLIA
 10
-26.1842
 20
-6.7961
 30
43.8397
 70
192
 0
VERTEX
 8
MANIGLIA
 10
-21.9998
 20
-6.7961
 30
43.8397
 70
192
 0
VERTEX
 8
MANIGLIA
 10
21.999
 20
-6.7961
 30
43.8397
 70
192
 0
VERTEX
 8
MANIGLIA
 10
26.1983
 20
-6.7961
 30
43.8397
 70
192
 0
VERTEX
 8
MANIGLIA
 10
26.1983
 20
-6.7961
 30
43.8397
 70
192
 0
VERTEX
 8
MANIGLIA
 10
-26.1842
 20
-6.756
 30
43.7628
 70
192
 0
VERTEX
 8
MANIGLIA
 10
-26.1842
 20
-6.756
 30
43.7628
 70
192
 0
VERTEX
 8
MANIGLIA
 10
-21.9998
 20
-6.756
 30
43.7628
 70
192
 0
VERTEX
 8
MANIGLIA
 10
21.999
 20
-6.756
 30
43.7628
 70
192
 0
VERTEX
 8
MANIGLIA
 10
26.1983
 20
-6.756
 30
43.7628
 70
192
 0
VERTEX
 8
MANIGLIA
 10
26.1983
 20
-6.756
 30
43.7628
 70
192
 0
VERTEX
 8
MANIGLIA
 10
-26.1842
 20
-6.7095
 30
43.6897
 70
192
 0
VERTEX
 8
MANIGLIA
 10
-26.1842
 20
-6.7095
 30
43.6897
 70
192
 0
VERTEX
 8
MANIGLIA
 10
-21.9998
 20
-6.7095
 30
43.6897
 70
192
 0
VERTEX
 8
MANIGLIA
 10
21.999
 20
-6.7095
 30
43.6897
 70
192
 0
VERTEX
 8
MANIGLIA
 10
26.1983
 20
-6.7095
 30
43.6897
 70
192
 0
VERTEX
 8
MANIGLIA
 10
26.1983
 20
-6.7095
 30
43.6897
 70
192
 0
VERTEX
 8
MANIGLIA
 10
-26.1842
 20
-6.6567
 30
43.6209
 70
192
 0
VERTEX
 8
MANIGLIA
 10
-26.1842
 20
-6.6567
 30
43.6209
 70
192
 0
VERTEX
 8
MANIGLIA
 10
-21.9998
 20
-6.6567
 30
43.6209
 70
192
 0
VERTEX
 8
MANIGLIA
 10
21.999
 20
-6.6567
 30
43.6209
 70
192
 0
VERTEX
 8
MANIGLIA
 10
26.1983
 20
-6.6567
 30
43.6209
 70
192
 0
VERTEX
 8
MANIGLIA
 10
26.1983
 20
-6.6567
 30
43.6209
 70
192
 0
VERTEX
 8
MANIGLIA
 10
-26.1842
 20
-6.5981
 30
43.557
 70
192
 0
VERTEX
 8
MANIGLIA
 10
-26.1842
 20
-6.5981
 30
43.557
 70
192
 0
VERTEX
 8
MANIGLIA
 10
-21.9998
 20
-6.5981
 30
43.557
 70
192
 0
VERTEX
 8
MANIGLIA
 10
21.999
 20
-6.5981
 30
43.557
 70
192
 0
VERTEX
 8
MANIGLIA
 10
26.1983
 20
-6.5981
 30
43.557
 70
192
 0
VERTEX
 8
MANIGLIA
 10
26.1983
 20
-6.5981
 30
43.557
 70
192
 0
VERTEX
 8
MANIGLIA
 10
-26.1842
 20
-6.5342
 30
43.4984
 70
192
 0
VERTEX
 8
MANIGLIA
 10
-26.1842
 20
-6.5342
 30
43.4984
 70
192
 0
VERTEX
 8
MANIGLIA
 10
-21.9998
 20
-6.5342
 30
43.4984
 70
192
 0
VERTEX
 8
MANIGLIA
 10
21.999
 20
-6.5342
 30
43.4984
 70
192
 0
VERTEX
 8
MANIGLIA
 10
26.1983
 20
-6.5342
 30
43.4984
 70
192
 0
VERTEX
 8
MANIGLIA
 10
26.1983
 20
-6.5342
 30
43.4984
 70
192
 0
VERTEX
 8
MANIGLIA
 10
-26.1842
 20
-6.4654
 30
43.4457
 70
192
 0
VERTEX
 8
MANIGLIA
 10
-26.1842
 20
-6.4654
 30
43.4457
 70
192
 0
VERTEX
 8
MANIGLIA
 10
-21.9998
 20
-6.4654
 30
43.4457
 70
192
 0
VERTEX
 8
MANIGLIA
 10
21.999
 20
-6.4654
 30
43.4457
 70
192
 0
VERTEX
 8
MANIGLIA
 10
26.1983
 20
-6.4654
 30
43.4457
 70
192
 0
VERTEX
 8
MANIGLIA
 10
26.1983
 20
-6.4654
 30
43.4457
 70
192
 0
VERTEX
 8
MANIGLIA
 10
-26.1842
 20
-6.3923
 30
43.3991
 70
192
 0
VERTEX
 8
MANIGLIA
 10
-26.1842
 20
-6.3923
 30
43.3991
 70
192
 0
VERTEX
 8
MANIGLIA
 10
-21.9998
 20
-6.3923
 30
43.3991
 70
192
 0
VERTEX
 8
MANIGLIA
 10
21.999
 20
-6.3923
 30
43.3991
 70
192
 0
VERTEX
 8
MANIGLIA
 10
26.1983
 20
-6.3923
 30
43.3991
 70
192
 0
VERTEX
 8
MANIGLIA
 10
26.1983
 20
-6.3923
 30
43.3991
 70
192
 0
VERTEX
 8
MANIGLIA
 10
-26.1842
 20
-6.3154
 30
43.3591
 70
192
 0
VERTEX
 8
MANIGLIA
 10
-26.1842
 20
-6.3154
 30
43.3591
 70
192
 0
VERTEX
 8
MANIGLIA
 10
-21.9998
 20
-6.3154
 30
43.3591
 70
192
 0
VERTEX
 8
MANIGLIA
 10
21.999
 20
-6.3154
 30
43.3591
 70
192
 0
VERTEX
 8
MANIGLIA
 10
26.1983
 20
-6.3154
 30
43.3591
 70
192
 0
VERTEX
 8
MANIGLIA
 10
26.1983
 20
-6.3154
 30
43.3591
 70
192
 0
VERTEX
 8
MANIGLIA
 10
-26.1842
 20
-6.2354
 30
43.3259
 70
192
 0
VERTEX
 8
MANIGLIA
 10
-26.1842
 20
-6.2354
 30
43.3259
 70
192
 0
VERTEX
 8
MANIGLIA
 10
-21.9998
 20
-6.2354
 30
43.3259
 70
192
 0
VERTEX
 8
MANIGLIA
 10
21.999
 20
-6.2354
 30
43.3259
 70
192
 0
VERTEX
 8
MANIGLIA
 10
26.1983
 20
-6.2354
 30
43.3259
 70
192
 0
VERTEX
 8
MANIGLIA
 10
26.1983
 20
-6.2354
 30
43.3259
 70
192
 0
VERTEX
 8
MANIGLIA
 10
-26.1842
 20
-6.1527
 30
43.2998
 70
192
 0
VERTEX
 8
MANIGLIA
 10
-26.1842
 20
-6.1527
 30
43.2998
 70
192
 0
VERTEX
 8
MANIGLIA
 10
-21.9998
 20
-6.1527
 30
43.2998
 70
192
 0
VERTEX
 8
MANIGLIA
 10
21.999
 20
-6.1527
 30
43.2998
 70
192
 0
VERTEX
 8
MANIGLIA
 10
26.1983
 20
-6.1527
 30
43.2998
 70
192
 0
VERTEX
 8
MANIGLIA
 10
26.1983
 20
-6.1527
 30
43.2998
 70
192
 0
VERTEX
 8
MANIGLIA
 10
-26.1842
 20
-6.0681
 30
43.2811
 70
192
 0
VERTEX
 8
MANIGLIA
 10
-26.1842
 20
-6.0681
 30
43.2811
 70
192
 0
VERTEX
 8
MANIGLIA
 10
-21.9998
 20
-6.0681
 30
43.2811
 70
192
 0
VERTEX
 8
MANIGLIA
 10
21.999
 20
-6.0681
 30
43.2811
 70
192
 0
VERTEX
 8
MANIGLIA
 10
26.1983
 20
-6.0681
 30
43.2811
 70
192
 0
VERTEX
 8
MANIGLIA
 10
26.1983
 20
-6.0681
 30
43.2811
 70
192
 0
VERTEX
 8
MANIGLIA
 10
-26.1842
 20
-5.9821
 30
43.2697
 70
192
 0
VERTEX
 8
MANIGLIA
 10
-26.1842
 20
-5.9821
 30
43.2697
 70
192
 0
VERTEX
 8
MANIGLIA
 10
-21.9998
 20
-5.9821
 30
43.2697
 70
192
 0
VERTEX
 8
MANIGLIA
 10
21.999
 20
-5.9821
 30
43.2697
 70
192
 0
VERTEX
 8
MANIGLIA
 10
26.1983
 20
-5.9821
 30
43.2697
 70
192
 0
VERTEX
 8
MANIGLIA
 10
26.1983
 20
-5.9821
 30
43.2697
 70
192
 0
VERTEX
 8
MANIGLIA
 10
-21.9998
 20
-6.3154
 30
45.1601
 70
192
 0
VERTEX
 8
MANIGLIA
 10
21.999
 20
-6.3154
 30
45.1601
 70
192
 0
VERTEX
 8
MANIGLIA
 10
26.1983
 20
-6.3154
 30
45.1601
 70
192
 0
VERTEX
 8
MANIGLIA
 10
26.1983
 20
-6.3154
 30
45.1601
 70
192
 0
VERTEX
 8
MANIGLIA
 10
-26.1842
 20
-6.3923
 30
45.1201
 70
192
 0
VERTEX
 8
MANIGLIA
 10
-26.1842
 20
-6.3923
 30
45.1201
 70
192
 0
VERTEX
 8
MANIGLIA
 10
-21.9998
 20
-6.3923
 30
45.1201
 70
192
 0
VERTEX
 8
MANIGLIA
 10
21.999
 20
-6.3923
 30
45.1201
 70
192
 0
VERTEX
 8
MANIGLIA
 10
26.1983
 20
-6.3923
 30
45.1201
 70
192
 0
VERTEX
 8
MANIGLIA
 10
26.1983
 20
-6.3923
 30
45.1201
 70
192
 0
VERTEX
 8
MANIGLIA
 10
-26.1842
 20
-6.4654
 30
45.0735
 70
192
 0
VERTEX
 8
MANIGLIA
 10
-26.1842
 20
-6.4654
 30
45.0735
 70
192
 0
VERTEX
 8
MANIGLIA
 10
-21.9998
 20
-6.4654
 30
45.0735
 70
192
 0
VERTEX
 8
MANIGLIA
 10
21.999
 20
-6.4654
 30
45.0735
 70
192
 0
VERTEX
 8
MANIGLIA
 10
26.1983
 20
-6.4654
 30
45.0735
 70
192
 0
VERTEX
 8
MANIGLIA
 10
26.1983
 20
-6.4654
 30
45.0735
 70
192
 0
VERTEX
 8
MANIGLIA
 10
-26.1842
 20
-6.5342
 30
45.0208
 70
192
 0
VERTEX
 8
MANIGLIA
 10
-26.1842
 20
-6.5342
 30
45.0208
 70
192
 0
VERTEX
 8
MANIGLIA
 10
-21.9998
 20
-6.5342
 30
45.0208
 70
192
 0
VERTEX
 8
MANIGLIA
 10
21.999
 20
-6.5342
 30
45.0208
 70
192
 0
VERTEX
 8
MANIGLIA
 10
26.1983
 20
-6.5342
 30
45.0208
 70
192
 0
VERTEX
 8
MANIGLIA
 10
26.1983
 20
-6.5342
 30
45.0208
 70
192
 0
VERTEX
 8
MANIGLIA
 10
-26.1842
 20
-6.5981
 30
44.9622
 70
192
 0
VERTEX
 8
MANIGLIA
 10
-26.1842
 20
-6.5981
 30
44.9622
 70
192
 0
VERTEX
 8
MANIGLIA
 10
-21.9998
 20
-6.5981
 30
44.9622
 70
192
 0
VERTEX
 8
MANIGLIA
 10
21.999
 20
-6.5981
 30
44.9622
 70
192
 0
VERTEX
 8
MANIGLIA
 10
26.1983
 20
-6.5981
 30
44.9622
 70
192
 0
VERTEX
 8
MANIGLIA
 10
26.1983
 20
-6.5981
 30
44.9622
 70
192
 0
VERTEX
 8
MANIGLIA
 10
-26.1842
 20
-6.6567
 30
44.8983
 70
192
 0
VERTEX
 8
MANIGLIA
 10
-26.1842
 20
-6.6567
 30
44.8983
 70
192
 0
VERTEX
 8
MANIGLIA
 10
-21.9998
 20
-6.6567
 30
44.8983
 70
192
 0
VERTEX
 8
MANIGLIA
 10
21.999
 20
-6.6567
 30
44.8983
 70
192
 0
VERTEX
 8
MANIGLIA
 10
26.1983
 20
-6.6567
 30
44.8983
 70
192
 0
VERTEX
 8
MANIGLIA
 10
26.1983
 20
-6.6567
 30
44.8983
 70
192
 0
VERTEX
 8
MANIGLIA
 10
-26.1842
 20
-6.7095
 30
44.8295
 70
192
 0
VERTEX
 8
MANIGLIA
 10
-26.1842
 20
-6.7095
 30
44.8295
 70
192
 0
VERTEX
 8
MANIGLIA
 10
-21.9998
 20
-6.7095
 30
44.8295
 70
192
 0
VERTEX
 8
MANIGLIA
 10
21.999
 20
-6.7095
 30
44.8295
 70
192
 0
VERTEX
 8
MANIGLIA
 10
26.1983
 20
-6.7095
 30
44.8295
 70
192
 0
VERTEX
 8
MANIGLIA
 10
26.1983
 20
-6.7095
 30
44.8295
 70
192
 0
VERTEX
 8
MANIGLIA
 10
-26.1842
 20
-6.756
 30
44.7564
 70
192
 0
VERTEX
 8
MANIGLIA
 10
-26.1842
 20
-6.756
 30
44.7564
 70
192
 0
VERTEX
 8
MANIGLIA
 10
-21.9998
 20
-6.756
 30
44.7564
 70
192
 0
VERTEX
 8
MANIGLIA
 10
21.999
 20
-6.756
 30
44.7564
 70
192
 0
VERTEX
 8
MANIGLIA
 10
26.1983
 20
-6.756
 30
44.7564
 70
192
 0
VERTEX
 8
MANIGLIA
 10
26.1983
 20
-6.756
 30
44.7564
 70
192
 0
VERTEX
 8
MANIGLIA
 10
-26.1842
 20
-6.7961
 30
44.6795
 70
192
 0
VERTEX
 8
MANIGLIA
 10
-26.1842
 20
-6.7961
 30
44.6795
 70
192
 0
VERTEX
 8
MANIGLIA
 10
-21.9998
 20
-6.7961
 30
44.6795
 70
192
 0
VERTEX
 8
MANIGLIA
 10
21.999
 20
-6.7961
 30
44.6795
 70
192
 0
VERTEX
 8
MANIGLIA
 10
26.1983
 20
-6.7961
 30
44.6795
 70
192
 0
VERTEX
 8
MANIGLIA
 10
26.1983
 20
-6.7961
 30
44.6795
 70
192
 0
VERTEX
 8
MANIGLIA
 10
-26.1842
 20
-6.8292
 30
44.5994
 70
192
 0
VERTEX
 8
MANIGLIA
 10
-26.1842
 20
-6.8292
 30
44.5994
 70
192
 0
VERTEX
 8
MANIGLIA
 10
-21.9998
 20
-6.8292
 30
44.5994
 70
192
 0
VERTEX
 8
MANIGLIA
 10
21.999
 20
-6.8292
 30
44.5994
 70
192
 0
VERTEX
 8
MANIGLIA
 10
26.1983
 20
-6.8292
 30
44.5994
 70
192
 0
VERTEX
 8
MANIGLIA
 10
26.1983
 20
-6.8292
 30
44.5994
 70
192
 0
VERTEX
 8
MANIGLIA
 10
-26.1842
 20
-6.8553
 30
44.5168
 70
192
 0
VERTEX
 8
MANIGLIA
 10
-26.1842
 20
-6.8553
 30
44.5168
 70
192
 0
VERTEX
 8
MANIGLIA
 10
-21.9998
 20
-6.8553
 30
44.5168
 70
192
 0
VERTEX
 8
MANIGLIA
 10
21.999
 20
-6.8553
 30
44.5168
 70
192
 0
VERTEX
 8
MANIGLIA
 10
26.1983
 20
-6.8553
 30
44.5168
 70
192
 0
VERTEX
 8
MANIGLIA
 10
26.1983
 20
-6.8553
 30
44.5168
 70
192
 0
VERTEX
 8
MANIGLIA
 10
-26.1842
 20
-6.8741
 30
44.4321
 70
192
 0
VERTEX
 8
MANIGLIA
 10
-26.1842
 20
-6.8741
 30
44.4321
 70
192
 0
VERTEX
 8
MANIGLIA
 10
-21.9998
 20
-6.8741
 30
44.4321
 70
192
 0
VERTEX
 8
MANIGLIA
 10
21.999
 20
-6.8741
 30
44.4321
 70
192
 0
VERTEX
 8
MANIGLIA
 10
26.1983
 20
-6.8741
 30
44.4321
 70
192
 0
VERTEX
 8
MANIGLIA
 10
26.1983
 20
-6.8741
 30
44.4321
 70
192
 0
VERTEX
 8
MANIGLIA
 10
-26.1842
 20
-6.8854
 30
44.3462
 70
192
 0
VERTEX
 8
MANIGLIA
 10
-26.1842
 20
-6.8854
 30
44.3462
 70
192
 0
VERTEX
 8
MANIGLIA
 10
-21.9998
 20
-6.8854
 30
44.3462
 70
192
 0
VERTEX
 8
MANIGLIA
 10
21.999
 20
-6.8854
 30
44.3462
 70
192
 0
VERTEX
 8
MANIGLIA
 10
26.1983
 20
-6.8854
 30
44.3462
 70
192
 0
VERTEX
 8
MANIGLIA
 10
26.1983
 20
-6.8854
 30
44.3462
 70
192
 0
VERTEX
 8
MANIGLIA
 10
-26.1842
 20
-6.8892
 30
44.2596
 70
192
 0
VERTEX
 8
MANIGLIA
 10
-26.1842
 20
-6.8892
 30
44.2596
 70
192
 0
VERTEX
 8
MANIGLIA
 10
-21.9998
 20
-6.8892
 30
44.2596
 70
192
 0
VERTEX
 8
MANIGLIA
 10
21.999
 20
-6.8892
 30
44.2596
 70
192
 0
VERTEX
 8
MANIGLIA
 10
26.1983
 20
-6.8892
 30
44.2596
 70
192
 0
VERTEX
 8
MANIGLIA
 10
26.1983
 20
-6.8892
 30
44.2596
 70
192
 0
VERTEX
 8
MANIGLIA
 10
-26.1842
 20
-6.8854
 30
44.173
 70
192
 0
VERTEX
 8
MANIGLIA
 10
-26.1842
 20
-6.8854
 30
44.173
 70
192
 0
VERTEX
 8
MANIGLIA
 10
-21.9998
 20
-6.8854
 30
44.173
 70
192
 0
VERTEX
 8
MANIGLIA
 10
21.999
 20
-6.8854
 30
44.173
 70
192
 0
VERTEX
 8
MANIGLIA
 10
26.1983
 20
-6.8854
 30
44.173
 70
192
 0
VERTEX
 8
MANIGLIA
 10
26.1983
 20
-6.8854
 30
44.173
 70
192
 0
VERTEX
 8
MANIGLIA
 10
-26.1842
 20
-6.8741
 30
44.0871
 70
192
 0
VERTEX
 8
MANIGLIA
 10
-26.1842
 20
-6.8741
 30
44.0871
 70
192
 0
VERTEX
 8
MANIGLIA
 10
-21.9998
 20
-6.8741
 30
44.0871
 70
192
 0
VERTEX
 8
MANIGLIA
 10
21.999
 20
-6.8741
 30
44.0871
 70
192
 0
VERTEX
 8
MANIGLIA
 10
-26.1842
 20
-5.8955
 30
44.2596
 70
192
 0
VERTEX
 8
MANIGLIA
 10
26.1983
 20
-5.8955
 30
44.2596
 70
192
 0
VERTEX
 8
MANIGLIA
 10
-26.1842
 20
-5.8955
 30
43.266
 70
192
 0
VERTEX
 8
MANIGLIA
 10
-26.1842
 20
-5.8955
 30
43.266
 70
192
 0
VERTEX
 8
MANIGLIA
 10
-21.9998
 20
-5.8955
 30
43.266
 70
192
 0
VERTEX
 8
MANIGLIA
 10
21.999
 20
-5.8955
 30
43.266
 70
192
 0
VERTEX
 8
MANIGLIA
 10
26.1983
 20
-5.8955
 30
43.266
 70
192
 0
VERTEX
 8
MANIGLIA
 10
26.1983
 20
-5.8955
 30
43.266
 70
192
 0
VERTEX
 8
MANIGLIA
 10
-26.1842
 20
-5.8089
 30
43.2697
 70
192
 0
VERTEX
 8
MANIGLIA
 10
-26.1842
 20
-5.8089
 30
43.2697
 70
192
 0
VERTEX
 8
MANIGLIA
 10
-21.9998
 20
-5.8089
 30
43.2697
 70
192
 0
VERTEX
 8
MANIGLIA
 10
21.999
 20
-5.8089
 30
43.2697
 70
192
 0
VERTEX
 8
MANIGLIA
 10
26.1983
 20
-5.8089
 30
43.2697
 70
192
 0
VERTEX
 8
MANIGLIA
 10
26.1983
 20
-5.8089
 30
43.2697
 70
192
 0
VERTEX
 8
MANIGLIA
 10
-26.1842
 20
-5.723
 30
43.2811
 70
192
 0
VERTEX
 8
MANIGLIA
 10
-26.1842
 20
-5.723
 30
43.2811
 70
192
 0
VERTEX
 8
MANIGLIA
 10
-21.9998
 20
-5.723
 30
43.2811
 70
192
 0
VERTEX
 8
MANIGLIA
 10
21.999
 20
-5.723
 30
43.2811
 70
192
 0
VERTEX
 8
MANIGLIA
 10
26.1983
 20
-5.723
 30
43.2811
 70
192
 0
VERTEX
 8
MANIGLIA
 10
26.1983
 20
-5.723
 30
43.2811
 70
192
 0
VERTEX
 8
MANIGLIA
 10
-26.1842
 20
-5.6384
 30
43.2998
 70
192
 0
VERTEX
 8
MANIGLIA
 10
-26.1842
 20
-5.6384
 30
43.2998
 70
192
 0
VERTEX
 8
MANIGLIA
 10
-21.9998
 20
-5.6384
 30
43.2998
 70
192
 0
VERTEX
 8
MANIGLIA
 10
21.999
 20
-5.6384
 30
43.2998
 70
192
 0
VERTEX
 8
MANIGLIA
 10
26.1983
 20
-5.6384
 30
43.2998
 70
192
 0
VERTEX
 8
MANIGLIA
 10
26.1983
 20
-5.6384
 30
43.2998
 70
192
 0
VERTEX
 8
MANIGLIA
 10
-26.1842
 20
-5.5557
 30
43.3259
 70
192
 0
VERTEX
 8
MANIGLIA
 10
-26.1842
 20
-5.5557
 30
43.3259
 70
192
 0
VERTEX
 8
MANIGLIA
 10
-21.9998
 20
-5.5557
 30
43.3259
 70
192
 0
VERTEX
 8
MANIGLIA
 10
21.999
 20
-5.5557
 30
43.3259
 70
192
 0
VERTEX
 8
MANIGLIA
 10
26.1983
 20
-5.5557
 30
43.3259
 70
192
 0
VERTEX
 8
MANIGLIA
 10
26.1983
 20
-5.5557
 30
43.3259
 70
192
 0
VERTEX
 8
MANIGLIA
 10
-26.1842
 20
-5.4756
 30
43.3591
 70
192
 0
VERTEX
 8
MANIGLIA
 10
-26.1842
 20
-5.4756
 30
43.3591
 70
192
 0
VERTEX
 8
MANIGLIA
 10
-21.9998
 20
-5.4756
 30
43.3591
 70
192
 0
VERTEX
 8
MANIGLIA
 10
21.999
 20
-5.4756
 30
43.3591
 70
192
 0
VERTEX
 8
MANIGLIA
 10
26.1983
 20
-5.4756
 30
43.3591
 70
192
 0
VERTEX
 8
MANIGLIA
 10
26.1983
 20
-5.4756
 30
43.3591
 70
192
 0
VERTEX
 8
MANIGLIA
 10
-26.1842
 20
-5.3504
 30
43.4251
 70
192
 0
VERTEX
 8
MANIGLIA
 10
-26.1842
 20
-5.3504
 30
43.4251
 70
192
 0
VERTEX
 8
MANIGLIA
 10
-21.9998
 20
-5.3504
 30
43.4251
 70
192
 0
VERTEX
 8
MANIGLIA
 10
21.999
 20
-5.3504
 30
43.4251
 70
192
 0
VERTEX
 8
MANIGLIA
 10
26.1983
 20
-5.3504
 30
43.4251
 70
192
 0
VERTEX
 8
MANIGLIA
 10
26.1983
 20
-5.3504
 30
43.4251
 70
192
 0
VERTEX
 8
MANIGLIA
 10
-26.1842
 20
-5.3256
 30
43.4457
 70
192
 0
VERTEX
 8
MANIGLIA
 10
-26.1842
 20
-5.3256
 30
43.4457
 70
192
 0
VERTEX
 8
MANIGLIA
 10
-21.9998
 20
-5.3256
 30
43.4457
 70
192
 0
VERTEX
 8
MANIGLIA
 10
21.999
 20
-5.3256
 30
43.4457
 70
192
 0
VERTEX
 8
MANIGLIA
 10
26.1983
 20
-5.3256
 30
43.4457
 70
192
 0
VERTEX
 8
MANIGLIA
 10
26.1983
 20
-5.3256
 30
43.4457
 70
192
 0
VERTEX
 8
MANIGLIA
 10
-26.1842
 20
-5.2568
 30
43.4984
 70
192
 0
VERTEX
 8
MANIGLIA
 10
-26.1842
 20
-5.2568
 30
43.4984
 70
192
 0
VERTEX
 8
MANIGLIA
 10
-21.9998
 20
-5.2568
 30
43.4984
 70
192
 0
VERTEX
 8
MANIGLIA
 10
21.999
 20
-5.2568
 30
43.4984
 70
192
 0
VERTEX
 8
MANIGLIA
 10
26.1983
 20
-5.2568
 30
43.4984
 70
192
 0
VERTEX
 8
MANIGLIA
 10
26.1983
 20
-5.2568
 30
43.4984
 70
192
 0
VERTEX
 8
MANIGLIA
 10
-26.1842
 20
-5.1929
 30
43.557
 70
192
 0
VERTEX
 8
MANIGLIA
 10
-26.1842
 20
-5.1929
 30
43.557
 70
192
 0
VERTEX
 8
MANIGLIA
 10
-21.9998
 20
-5.1929
 30
43.557
 70
192
 0
VERTEX
 8
MANIGLIA
 10
21.999
 20
-5.1929
 30
43.557
 70
192
 0
VERTEX
 8
MANIGLIA
 10
26.1983
 20
-5.1929
 30
43.557
 70
192
 0
VERTEX
 8
MANIGLIA
 10
26.1983
 20
-5.1929
 30
43.557
 70
192
 0
VERTEX
 8
MANIGLIA
 10
-26.1842
 20
-5.1344
 30
43.6209
 70
192
 0
VERTEX
 8
MANIGLIA
 10
-26.1842
 20
-5.1344
 30
43.6209
 70
192
 0
VERTEX
 8
MANIGLIA
 10
-21.9998
 20
-5.1344
 30
43.6209
 70
192
 0
VERTEX
 8
MANIGLIA
 10
21.999
 20
-5.1344
 30
43.6209
 70
192
 0
VERTEX
 8
MANIGLIA
 10
26.1983
 20
-5.1344
 30
43.6209
 70
192
 0
VERTEX
 8
MANIGLIA
 10
26.1983
 20
-5.1344
 30
43.6209
 70
192
 0
VERTEX
 8
MANIGLIA
 10
-26.1842
 20
-5.0816
 30
43.6897
 70
192
 0
VERTEX
 8
MANIGLIA
 10
-26.1842
 20
-5.0816
 30
43.6897
 70
192
 0
VERTEX
 8
MANIGLIA
 10
-21.9998
 20
-5.0816
 30
43.6897
 70
192
 0
VERTEX
 8
MANIGLIA
 10
21.999
 20
-5.0816
 30
43.6897
 70
192
 0
VERTEX
 8
MANIGLIA
 10
26.1983
 20
-5.0816
 30
43.6897
 70
192
 0
VERTEX
 8
MANIGLIA
 10
26.1983
 20
-5.0816
 30
43.6897
 70
192
 0
VERTEX
 8
MANIGLIA
 10
-26.1842
 20
-5.035
 30
43.7628
 70
192
 0
VERTEX
 8
MANIGLIA
 10
-26.1842
 20
-5.035
 30
43.7628
 70
192
 0
VERTEX
 8
MANIGLIA
 10
-21.9998
 20
-5.035
 30
43.7628
 70
192
 0
VERTEX
 8
MANIGLIA
 10
21.999
 20
-5.035
 30
43.7628
 70
192
 0
VERTEX
 8
MANIGLIA
 10
26.1983
 20
-5.035
 30
43.7628
 70
192
 0
VERTEX
 8
MANIGLIA
 10
26.1983
 20
-5.035
 30
43.7628
 70
192
 0
VERTEX
 8
MANIGLIA
 10
-26.1842
 20
-4.995
 30
43.8397
 70
192
 0
VERTEX
 8
MANIGLIA
 10
-26.1842
 20
-4.995
 30
43.8397
 70
192
 0
VERTEX
 8
MANIGLIA
 10
-21.9998
 20
-4.995
 30
43.8397
 70
192
 0
VERTEX
 8
MANIGLIA
 10
21.999
 20
-4.995
 30
43.8397
 70
192
 0
VERTEX
 8
MANIGLIA
 10
26.1983
 20
-4.995
 30
43.8397
 70
192
 0
VERTEX
 8
MANIGLIA
 10
26.1983
 20
-4.995
 30
43.8397
 70
192
 0
VERTEX
 8
MANIGLIA
 10
-26.1842
 20
-4.9618
 30
43.9198
 70
192
 0
VERTEX
 8
MANIGLIA
 10
-26.1842
 20
-4.9618
 30
43.9198
 70
192
 0
VERTEX
 8
MANIGLIA
 10
-21.9998
 20
-4.9618
 30
43.9198
 70
192
 0
VERTEX
 8
MANIGLIA
 10
21.999
 20
-4.9618
 30
43.9198
 70
192
 0
VERTEX
 8
MANIGLIA
 10
26.1983
 20
-4.9618
 30
43.9198
 70
192
 0
VERTEX
 8
MANIGLIA
 10
26.1983
 20
-4.9618
 30
43.9198
 70
192
 0
VERTEX
 8
MANIGLIA
 10
-26.1842
 20
-4.9357
 30
44.0024
 70
192
 0
VERTEX
 8
MANIGLIA
 10
-26.1842
 20
-4.9357
 30
44.0024
 70
192
 0
VERTEX
 8
MANIGLIA
 10
-21.9998
 20
-4.9357
 30
44.0024
 70
192
 0
VERTEX
 8
MANIGLIA
 10
21.999
 20
-4.9357
 30
44.0024
 70
192
 0
VERTEX
 8
MANIGLIA
 10
26.1983
 20
-4.9357
 30
44.0024
 70
192
 0
VERTEX
 8
MANIGLIA
 10
26.1983
 20
-4.9357
 30
44.0024
 70
192
 0
VERTEX
 8
MANIGLIA
 10
-26.1842
 20
-4.917
 30
44.0871
 70
192
 0
VERTEX
 8
MANIGLIA
 10
-26.1842
 20
-4.917
 30
44.0871
 70
192
 0
VERTEX
 8
MANIGLIA
 10
-21.9998
 20
-4.917
 30
44.0871
 70
192
 0
VERTEX
 8
MANIGLIA
 10
21.999
 20
-4.917
 30
44.0871
 70
192
 0
VERTEX
 8
MANIGLIA
 10
26.1983
 20
-4.917
 30
44.0871
 70
192
 0
VERTEX
 8
MANIGLIA
 10
26.1983
 20
-4.917
 30
44.0871
 70
192
 0
VERTEX
 8
MANIGLIA
 10
-26.1842
 20
-4.9057
 30
44.173
 70
192
 0
VERTEX
 8
MANIGLIA
 10
-26.1842
 20
-4.9057
 30
44.173
 70
192
 0
VERTEX
 8
MANIGLIA
 10
-21.9998
 20
-4.9057
 30
44.173
 70
192
 0
VERTEX
 8
MANIGLIA
 10
21.999
 20
-4.9057
 30
44.173
 70
192
 0
VERTEX
 8
MANIGLIA
 10
26.1983
 20
-4.9057
 30
44.173
 70
192
 0
VERTEX
 8
MANIGLIA
 10
26.1983
 20
-4.9057
 30
44.173
 70
192
 0
VERTEX
 8
MANIGLIA
 10
-26.1842
 20
-4.9019
 30
44.2596
 70
192
 0
VERTEX
 8
MANIGLIA
 10
-26.1842
 20
-4.9019
 30
44.2596
 70
192
 0
VERTEX
 8
MANIGLIA
 10
-21.9998
 20
-4.9019
 30
44.2596
 70
192
 0
VERTEX
 8
MANIGLIA
 10
21.999
 20
-4.9019
 30
44.2596
 70
192
 0
VERTEX
 8
MANIGLIA
 10
26.1983
 20
-4.9019
 30
44.2596
 70
192
 0
VERTEX
 8
MANIGLIA
 10
26.1983
 20
-4.9019
 30
44.2596
 70
192
 0
VERTEX
 8
MANIGLIA
 10
-26.1842
 20
-4.9057
 30
44.3462
 70
192
 0
VERTEX
 8
MANIGLIA
 10
-26.1842
 20
-4.9057
 30
44.3462
 70
192
 0
VERTEX
 8
MANIGLIA
 10
-21.9998
 20
-4.9057
 30
44.3462
 70
192
 0
VERTEX
 8
MANIGLIA
 10
21.999
 20
-4.9057
 30
44.3462
 70
192
 0
VERTEX
 8
MANIGLIA
 10
26.1983
 20
-4.9057
 30
44.3462
 70
192
 0
VERTEX
 8
MANIGLIA
 10
26.1983
 20
-4.9057
 30
44.3462
 70
192
 0
VERTEX
 8
MANIGLIA
 10
-26.1842
 20
-4.917
 30
44.4321
 70
192
 0
VERTEX
 8
MANIGLIA
 10
-26.1842
 20
-4.917
 30
44.4321
 70
192
 0
VERTEX
 8
MANIGLIA
 10
-21.9998
 20
-4.917
 30
44.4321
 70
192
 0
VERTEX
 8
MANIGLIA
 10
21.999
 20
-4.917
 30
44.4321
 70
192
 0
VERTEX
 8
MANIGLIA
 10
26.1983
 20
-4.917
 30
44.4321
 70
192
 0
VERTEX
 8
MANIGLIA
 10
26.1983
 20
-4.917
 30
44.4321
 70
192
 0
VERTEX
 8
MANIGLIA
 10
-26.1842
 20
-4.9357
 30
44.5168
 70
192
 0
VERTEX
 8
MANIGLIA
 10
-26.1842
 20
-4.9357
 30
44.5168
 70
192
 0
VERTEX
 8
MANIGLIA
 10
-21.9998
 20
-4.9357
 30
44.5168
 70
192
 0
VERTEX
 8
MANIGLIA
 10
21.999
 20
-4.9357
 30
44.5168
 70
192
 0
VERTEX
 8
MANIGLIA
 10
26.1983
 20
-4.9357
 30
44.5168
 70
192
 0
VERTEX
 8
MANIGLIA
 10
26.1983
 20
-4.9357
 30
44.5168
 70
192
 0
VERTEX
 8
MANIGLIA
 10
-26.1842
 20
-4.9618
 30
44.5994
 70
192
 0
VERTEX
 8
MANIGLIA
 10
-26.1842
 20
-4.9618
 30
44.5994
 70
192
 0
VERTEX
 8
MANIGLIA
 10
-21.9998
 20
-4.9618
 30
44.5994
 70
192
 0
VERTEX
 8
MANIGLIA
 10
21.999
 20
-4.9618
 30
44.5994
 70
192
 0
VERTEX
 8
MANIGLIA
 10
26.1983
 20
-4.9618
 30
44.5994
 70
192
 0
VERTEX
 8
MANIGLIA
 10
26.1983
 20
-4.9618
 30
44.5994
 70
192
 0
VERTEX
 8
MANIGLIA
 10
-26.1842
 20
-4.995
 30
44.6795
 70
192
 0
VERTEX
 8
MANIGLIA
 10
-26.1842
 20
-4.995
 30
44.6795
 70
192
 0
VERTEX
 8
MANIGLIA
 10
-21.9998
 20
-4.995
 30
44.6795
 70
192
 0
VERTEX
 8
MANIGLIA
 10
21.999
 20
-4.995
 30
44.6795
 70
192
 0
VERTEX
 8
MANIGLIA
 10
26.1983
 20
-4.995
 30
44.6795
 70
192
 0
VERTEX
 8
MANIGLIA
 10
26.1983
 20
-4.995
 30
44.6795
 70
192
 0
VERTEX
 8
MANIGLIA
 10
-26.1842
 20
-5.035
 30
44.7564
 70
192
 0
VERTEX
 8
MANIGLIA
 10
-26.1842
 20
-5.035
 30
44.7564
 70
192
 0
VERTEX
 8
MANIGLIA
 10
-21.9998
 20
-5.035
 30
44.7564
 70
192
 0
VERTEX
 8
MANIGLIA
 10
21.999
 20
-5.035
 30
44.7564
 70
192
 0
VERTEX
 8
MANIGLIA
 10
26.1983
 20
-5.035
 30
44.7564
 70
192
 0
VERTEX
 8
MANIGLIA
 10
26.1983
 20
-5.035
 30
44.7564
 70
192
 0
VERTEX
 8
MANIGLIA
 10
-26.1842
 20
-5.0816
 30
44.8295
 70
192
 0
VERTEX
 8
MANIGLIA
 10
-26.1842
 20
-5.0816
 30
44.8295
 70
192
 0
VERTEX
 8
MANIGLIA
 10
-21.9998
 20
-5.0816
 30
44.8295
 70
192
 0
VERTEX
 8
MANIGLIA
 10
21.999
 20
-5.0816
 30
44.8295
 70
192
 0
VERTEX
 8
MANIGLIA
 10
26.1983
 20
-5.0816
 30
44.8295
 70
192
 0
VERTEX
 8
MANIGLIA
 10
26.1983
 20
-5.0816
 30
44.8295
 70
192
 0
VERTEX
 8
MANIGLIA
 10
-26.1842
 20
-5.1344
 30
44.8983
 70
192
 0
VERTEX
 8
MANIGLIA
 10
-26.1842
 20
-5.1344
 30
44.8983
 70
192
 0
VERTEX
 8
MANIGLIA
 10
-21.9998
 20
-5.1344
 30
44.8983
 70
192
 0
VERTEX
 8
MANIGLIA
 10
21.999
 20
-5.1344
 30
44.8983
 70
192
 0
VERTEX
 8
MANIGLIA
 10
26.1983
 20
-5.1344
 30
44.8983
 70
192
 0
VERTEX
 8
MANIGLIA
 10
26.1983
 20
-5.1344
 30
44.8983
 70
192
 0
VERTEX
 8
MANIGLIA
 10
-26.1842
 20
-5.1929
 30
44.9622
 70
192
 0
VERTEX
 8
MANIGLIA
 10
-26.1842
 20
-5.1929
 30
44.9622
 70
192
 0
VERTEX
 8
MANIGLIA
 10
-21.9998
 20
-5.1929
 30
44.9622
 70
192
 0
VERTEX
 8
MANIGLIA
 10
21.999
 20
-5.1929
 30
44.9622
 70
192
 0
VERTEX
 8
MANIGLIA
 10
26.1983
 20
-5.1929
 30
44.9622
 70
192
 0
VERTEX
 8
MANIGLIA
 10
26.1983
 20
-5.1929
 30
44.9622
 70
192
 0
VERTEX
 8
MANIGLIA
 10
-26.1842
 20
-5.2568
 30
45.0208
 70
192
 0
VERTEX
 8
MANIGLIA
 10
-26.1842
 20
-5.2568
 30
45.0208
 70
192
 0
VERTEX
 8
MANIGLIA
 10
-21.9998
 20
-5.2568
 30
45.0208
 70
192
 0
VERTEX
 8
MANIGLIA
 10
21.999
 20
-5.2568
 30
45.0208
 70
192
 0
VERTEX
 8
MANIGLIA
 10
26.1983
 20
-5.2568
 30
45.0208
 70
192
 0
VERTEX
 8
MANIGLIA
 10
26.1983
 20
-5.2568
 30
45.0208
 70
192
 0
VERTEX
 8
MANIGLIA
 10
-26.1842
 20
-5.3256
 30
45.0735
 70
192
 0
VERTEX
 8
MANIGLIA
 10
-26.1842
 20
-5.3256
 30
45.0735
 70
192
 0
VERTEX
 8
MANIGLIA
 10
-21.9998
 20
-5.3256
 30
45.0735
 70
192
 0
VERTEX
 8
MANIGLIA
 10
21.999
 20
-5.3256
 30
45.0735
 70
192
 0
VERTEX
 8
MANIGLIA
 10
26.1983
 20
-5.3256
 30
45.0735
 70
192
 0
VERTEX
 8
MANIGLIA
 10
26.1983
 20
-5.3256
 30
45.0735
 70
192
 0
VERTEX
 8
MANIGLIA
 10
-26.1842
 20
-5.3569
 30
45.095
 70
192
 0
VERTEX
 8
MANIGLIA
 10
-26.1842
 20
-5.3569
 30
45.095
 70
192
 0
VERTEX
 8
MANIGLIA
 10
-21.9998
 20
-5.3569
 30
45.095
 70
192
 0
VERTEX
 8
MANIGLIA
 10
21.999
 20
-5.3569
 30
45.095
 70
192
 0
VERTEX
 8
MANIGLIA
 10
26.1983
 20
-5.3569
 30
45.095
 70
192
 0
VERTEX
 8
MANIGLIA
 10
26.1983
 20
-5.3569
 30
45.095
 70
192
 0
VERTEX
 8
MANIGLIA
 10
-26.1842
 20
-5.4756
 30
45.1601
 70
192
 0
VERTEX
 8
MANIGLIA
 10
-26.1842
 20
-5.4756
 30
45.1601
 70
192
 0
VERTEX
 8
MANIGLIA
 10
-21.9998
 20
-5.4756
 30
45.1601
 70
192
 0
VERTEX
 8
MANIGLIA
 10
21.999
 20
-5.4756
 30
45.1601
 70
192
 0
VERTEX
 8
MANIGLIA
 10
26.1983
 20
-5.4756
 30
45.1601
 70
192
 0
VERTEX
 8
MANIGLIA
 10
26.1983
 20
-5.4756
 30
45.1601
 70
192
 0
VERTEX
 8
MANIGLIA
 10
-26.1842
 20
-5.5557
 30
45.1933
 70
192
 0
VERTEX
 8
MANIGLIA
 10
-26.1842
 20
-5.5557
 30
45.1933
 70
192
 0
VERTEX
 8
MANIGLIA
 10
-21.9998
 20
-5.5557
 30
45.1933
 70
192
 0
VERTEX
 8
MANIGLIA
 10
21.999
 20
-5.5557
 30
45.1933
 70
192
 0
VERTEX
 8
MANIGLIA
 10
26.1983
 20
-5.5557
 30
45.1933
 70
192
 0
VERTEX
 8
MANIGLIA
 10
26.1983
 20
-5.5557
 30
45.1933
 70
192
 0
VERTEX
 8
MANIGLIA
 10
-26.1842
 20
-5.6384
 30
45.2194
 70
192
 0
VERTEX
 8
MANIGLIA
 10
-26.1842
 20
-5.6384
 30
45.2194
 70
192
 0
VERTEX
 8
MANIGLIA
 10
-21.9998
 20
-5.6384
 30
45.2194
 70
192
 0
VERTEX
 8
MANIGLIA
 10
21.999
 20
-5.6384
 30
45.2194
 70
192
 0
VERTEX
 8
MANIGLIA
 10
26.1983
 20
-5.6384
 30
45.2194
 70
192
 0
VERTEX
 8
MANIGLIA
 10
26.1983
 20
-5.6384
 30
45.2194
 70
192
 0
VERTEX
 8
MANIGLIA
 10
-26.1842
 20
-5.723
 30
45.2381
 70
192
 0
VERTEX
 8
MANIGLIA
 10
-26.1842
 20
-5.723
 30
45.2381
 70
192
 0
VERTEX
 8
MANIGLIA
 10
-21.9998
 20
-5.723
 30
45.2381
 70
192
 0
VERTEX
 8
MANIGLIA
 10
21.999
 20
-5.723
 30
45.2381
 70
192
 0
VERTEX
 8
MANIGLIA
 10
26.1983
 20
-5.723
 30
45.2381
 70
192
 0
VERTEX
 8
MANIGLIA
 10
26.1983
 20
-5.723
 30
45.2381
 70
192
 0
VERTEX
 8
MANIGLIA
 10
-26.1842
 20
-5.8089
 30
45.2494
 70
192
 0
VERTEX
 8
MANIGLIA
 10
-26.1842
 20
-5.8089
 30
45.2494
 70
192
 0
VERTEX
 8
MANIGLIA
 10
-21.9998
 20
-5.8089
 30
45.2494
 70
192
 0
VERTEX
 8
MANIGLIA
 10
21.999
 20
-5.8089
 30
45.2494
 70
192
 0
VERTEX
 8
MANIGLIA
 10
26.1983
 20
-5.8089
 30
45.2494
 70
192
 0
VERTEX
 8
MANIGLIA
 10
26.1983
 20
-5.8089
 30
45.2494
 70
192
 0
VERTEX
 8
MANIGLIA
 10
-26.1842
 20
-5.8955
 30
45.2532
 70
192
 0
VERTEX
 8
MANIGLIA
 10
-26.1842
 20
-5.8955
 30
45.2532
 70
192
 0
VERTEX
 8
MANIGLIA
 10
-21.9998
 20
-5.8955
 30
45.2532
 70
192
 0
VERTEX
 8
MANIGLIA
 10
21.999
 20
-5.8955
 30
45.2532
 70
192
 0
VERTEX
 8
MANIGLIA
 10
26.1983
 20
-5.8955
 30
45.2532
 70
192
 0
VERTEX
 8
MANIGLIA
 10
26.1983
 20
-5.8955
 30
45.2532
 70
192
 0
VERTEX
 8
MANIGLIA
 10
-26.1842
 20
-5.9821
 30
45.2494
 70
192
 0
VERTEX
 8
MANIGLIA
 10
-26.1842
 20
-5.9821
 30
45.2494
 70
192
 0
VERTEX
 8
MANIGLIA
 10
-21.9998
 20
-5.9821
 30
45.2494
 70
192
 0
VERTEX
 8
MANIGLIA
 10
21.999
 20
-5.9821
 30
45.2494
 70
192
 0
VERTEX
 8
MANIGLIA
 10
26.1983
 20
-5.9821
 30
45.2494
 70
192
 0
VERTEX
 8
MANIGLIA
 10
26.1983
 20
-5.9821
 30
45.2494
 70
192
 0
VERTEX
 8
MANIGLIA
 10
-26.1842
 20
-6.0681
 30
45.2381
 70
192
 0
VERTEX
 8
MANIGLIA
 10
-26.1842
 20
-6.0681
 30
45.2381
 70
192
 0
VERTEX
 8
MANIGLIA
 10
-21.9998
 20
-6.0681
 30
45.2381
 70
192
 0
VERTEX
 8
MANIGLIA
 10
21.999
 20
-6.0681
 30
45.2381
 70
192
 0
VERTEX
 8
MANIGLIA
 10
26.1983
 20
-6.0681
 30
45.2381
 70
192
 0
VERTEX
 8
MANIGLIA
 10
26.1983
 20
-6.0681
 30
45.2381
 70
192
 0
VERTEX
 8
MANIGLIA
 10
-26.1842
 20
-6.1527
 30
45.2194
 70
192
 0
VERTEX
 8
MANIGLIA
 10
-26.1842
 20
-6.1527
 30
45.2194
 70
192
 0
VERTEX
 8
MANIGLIA
 10
-21.9998
 20
-6.1527
 30
45.2194
 70
192
 0
VERTEX
 8
MANIGLIA
 10
21.999
 20
-6.1527
 30
45.2194
 70
192
 0
VERTEX
 8
MANIGLIA
 10
26.1983
 20
-6.1527
 30
45.2194
 70
192
 0
VERTEX
 8
MANIGLIA
 10
26.1983
 20
-6.1527
 30
45.2194
 70
192
 0
VERTEX
 8
MANIGLIA
 10
-26.1842
 20
-6.2354
 30
45.1933
 70
192
 0
VERTEX
 8
MANIGLIA
 10
-26.1842
 20
-6.2354
 30
45.1933
 70
192
 0
VERTEX
 8
MANIGLIA
 10
-21.9998
 20
-6.2354
 30
45.1933
 70
192
 0
VERTEX
 8
MANIGLIA
 10
21.999
 20
-6.2354
 30
45.1933
 70
192
 0
VERTEX
 8
MANIGLIA
 10
26.1983
 20
-6.2354
 30
45.1933
 70
192
 0
VERTEX
 8
MANIGLIA
 10
26.1983
 20
-6.2354
 30
45.1933
 70
192
 0
VERTEX
 8
MANIGLIA
 10
-26.1842
 20
-6.3154
 30
45.1601
 70
192
 0
VERTEX
 8
MANIGLIA
 10
-26.1842
 20
-6.3154
 30
45.1601
 70
192
 0
VERTEX
 8
MANIGLIA
 10
-25.9922
 20
-6.8892
 30
44.2596
 70
192
 0
VERTEX
 8
MANIGLIA
 10
25.9922
 20
-2.3278
 30
43.4982
 70
192
 0
VERTEX
 8
MANIGLIA
 10
22.0001
 20
-4.1067
 30
43.4982
 70
192
 0
VERTEX
 8
MANIGLIA
 10
-25.9922
 20
-5.6384
 30
43.2998
 70
192
 0
VERTEX
 8
MANIGLIA
 10
-25.9922
 20
-5.5557
 30
43.3259
 70
192
 0
VERTEX
 8
MANIGLIA
 10
-25.9922
 20
-6.3923
 30
43.3991
 70
192
 0
VERTEX
 8
MANIGLIA
 10
-25.9922
 20
-6.3154
 30
43.3591
 70
192
 0
VERTEX
 8
MANIGLIA
 10
-25.9922
 20
-5.4756
 30
43.3591
 70
192
 0
VERTEX
 8
MANIGLIA
 10
-25.9922
 20
-6.0681
 30
43.2811
 70
192
 0
VERTEX
 8
MANIGLIA
 10
-25.9922
 20
-6.5342
 30
43.4984
 70
192
 0
VERTEX
 8
MANIGLIA
 10
-25.9922
 20
-5.3569
 30
45.095
 70
192
 0
VERTEX
 8
MANIGLIA
 10
-25.9922
 20
-5.3256
 30
45.0735
 70
192
 0
VERTEX
 8
MANIGLIA
 10
-25.9922
 20
-5.9821
 30
43.2697
 70
192
 0
VERTEX
 8
MANIGLIA
 10
-25.9922
 20
-5.1929
 30
44.9622
 70
192
 0
VERTEX
 8
MANIGLIA
 10
-25.9922
 20
-6.7961
 30
44.6795
 70
192
 0
VERTEX
 8
MANIGLIA
 10
-25.9922
 20
-6.8292
 30
44.5994
 70
192
 0
VERTEX
 8
MANIGLIA
 10
-25.9922
 20
-6.8553
 30
44.5168
 70
192
 0
VERTEX
 8
MANIGLIA
 10
-25.9922
 20
-5.3569
 30
45.095
 70
192
 0
VERTEX
 8
MANIGLIA
 10
-25.9922
 20
-5.4756
 30
45.1601
 70
192
 0
VERTEX
 8
MANIGLIA
 10
-25.9922
 20
-6.756
 30
44.7564
 70
192
 0
VERTEX
 8
MANIGLIA
 10
-25.9922
 20
-6.8741
 30
44.4321
 70
192
 0
VERTEX
 8
MANIGLIA
 10
-25.9922
 20
-6.8854
 30
44.3462
 70
192
 0
VERTEX
 8
MANIGLIA
 10
22.0001
 20
-4.1067
 30
45.0205
 70
192
 0
VERTEX
 8
MANIGLIA
 10
-25.9922
 20
-5.8089
 30
45.2494
 70
192
 0
VERTEX
 8
MANIGLIA
 10
-25.9922
 20
-2.3278
 30
45.0205
 70
192
 0
VERTEX
 8
MANIGLIA
 10
-25.9922
 20
-5.8955
 30
45.2532
 70
192
 0
VERTEX
 8
MANIGLIA
 10
-25.9922
 20
-5.9821
 30
45.2494
 70
192
 0
VERTEX
 8
MANIGLIA
 10
25.9922
 20
-4.9357
 30
44.5168
 70
192
 0
VERTEX
 8
MANIGLIA
 10
25.9922
 20
-4.917
 30
44.4321
 70
192
 0
VERTEX
 8
MANIGLIA
 10
25.9922
 20
-4.9618
 30
43.9198
 70
192
 0
VERTEX
 8
MANIGLIA
 10
25.9922
 20
-4.9357
 30
44.0024
 70
192
 0
VERTEX
 8
MANIGLIA
 10
25.9922
 20
-5.035
 30
43.7628
 70
192
 0
VERTEX
 8
MANIGLIA
 10
25.9922
 20
-5.0816
 30
43.6897
 70
192
 0
VERTEX
 8
MANIGLIA
 10
25.9922
 20
-5.3256
 30
45.0735
 70
192
 0
VERTEX
 8
MANIGLIA
 10
25.9922
 20
-5.3569
 30
45.095
 70
192
 0
VERTEX
 8
MANIGLIA
 10
25.9922
 20
-5.2568
 30
45.0208
 70
192
 0
VERTEX
 8
MANIGLIA
 10
25.9922
 20
-5.0816
 30
44.8295
 70
192
 0
VERTEX
 8
MANIGLIA
 10
25.9922
 20
-5.035
 30
44.7564
 70
192
 0
VERTEX
 8
MANIGLIA
 10
25.9922
 20
-4.995
 30
44.6795
 70
192
 0
VERTEX
 8
MANIGLIA
 10
25.9922
 20
-4.9618
 30
44.5994
 70
192
 0
VERTEX
 8
MANIGLIA
 10
25.9922
 20
-4.9057
 30
44.3462
 70
192
 0
VERTEX
 8
MANIGLIA
 10
25.9922
 20
-4.9019
 30
44.2596
 70
192
 0
VERTEX
 8
MANIGLIA
 10
25.9922
 20
-4.9057
 30
44.173
 70
192
 0
VERTEX
 8
MANIGLIA
 10
25.9922
 20
-4.917
 30
44.0871
 70
192
 0
VERTEX
 8
MANIGLIA
 10
25.9922
 20
-4.995
 30
43.8397
 70
192
 0
VERTEX
 8
MANIGLIA
 10
25.9922
 20
-5.2568
 30
43.4984
 70
192
 0
VERTEX
 8
MANIGLIA
 10
25.9922
 20
-5.3256
 30
43.4457
 70
192
 0
VERTEX
 8
MANIGLIA
 10
25.9922
 20
-5.3504
 30
43.4251
 70
192
 0
VERTEX
 8
MANIGLIA
 10
-25.9922
 20
-6.0681
 30
45.2381
 70
192
 0
VERTEX
 8
MANIGLIA
 10
-25.9922
 20
-6.1527
 30
45.2194
 70
192
 0
VERTEX
 8
MANIGLIA
 10
-25.9922
 20
-6.2354
 30
45.1933
 70
192
 0
VERTEX
 8
MANIGLIA
 10
-25.9922
 20
-6.3154
 30
45.1601
 70
192
 0
VERTEX
 8
MANIGLIA
 10
-25.9922
 20
-6.7095
 30
44.8295
 70
192
 0
VERTEX
 8
MANIGLIA
 10
-25.9922
 20
-5.5557
 30
45.1933
 70
192
 0
VERTEX
 8
MANIGLIA
 10
-25.9922
 20
-5.6384
 30
45.2194
 70
192
 0
VERTEX
 8
MANIGLIA
 10
-25.9922
 20
-5.723
 30
45.2381
 70
192
 0
VERTEX
 8
MANIGLIA
 10
25.9922
 20
-6.7961
 30
44.6795
 70
192
 0
VERTEX
 8
MANIGLIA
 10
25.9922
 20
-6.8292
 30
44.5994
 70
192
 0
VERTEX
 8
MANIGLIA
 10
25.9922
 20
-6.8553
 30
44.5168
 70
192
 0
VERTEX
 8
MANIGLIA
 10
25.9922
 20
-6.756
 30
44.7564
 70
192
 0
VERTEX
 8
MANIGLIA
 10
25.9922
 20
-6.8741
 30
44.4321
 70
192
 0
VERTEX
 8
MANIGLIA
 10
25.9922
 20
-6.8854
 30
44.3462
 70
192
 0
VERTEX
 8
MANIGLIA
 10
25.9922
 20
-6.8892
 30
44.2596
 70
192
 0
VERTEX
 8
MANIGLIA
 10
25.9922
 20
-5.8089
 30
45.2494
 70
192
 0
VERTEX
 8
MANIGLIA
 10
25.9922
 20
-5.8955
 30
45.2532
 70
192
 0
VERTEX
 8
MANIGLIA
 10
25.9922
 20
-5.9821
 30
45.2494
 70
192
 0
VERTEX
 8
MANIGLIA
 10
25.9922
 20
-6.0681
 30
45.2381
 70
192
 0
VERTEX
 8
MANIGLIA
 10
25.9922
 20
-6.1527
 30
45.2194
 70
192
 0
VERTEX
 8
MANIGLIA
 10
25.9922
 20
-6.2354
 30
45.1933
 70
192
 0
VERTEX
 8
MANIGLIA
 10
25.9922
 20
-5.1344
 30
43.6209
 70
192
 0
VERTEX
 8
MANIGLIA
 10
25.9922
 20
-5.1929
 30
43.557
 70
192
 0
VERTEX
 8
MANIGLIA
 10
25.9922
 20
-5.1929
 30
44.9622
 70
192
 0
VERTEX
 8
MANIGLIA
 10
25.9922
 20
-5.1344
 30
44.8983
 70
192
 0
VERTEX
 8
MANIGLIA
 10
-25.9922
 20
-6.3923
 30
45.1201
 70
192
 0
VERTEX
 8
MANIGLIA
 10
-25.9922
 20
-6.4654
 30
45.0735
 70
192
 0
VERTEX
 8
MANIGLIA
 10
-25.9922
 20
-6.5342
 30
45.0208
 70
192
 0
VERTEX
 8
MANIGLIA
 10
-25.9922
 20
-6.5981
 30
44.9622
 70
192
 0
VERTEX
 8
MANIGLIA
 10
22.0001
 20
-2.3278
 30
43.4982
 70
192
 0
VERTEX
 8
MANIGLIA
 10
25.9922
 20
-6.3154
 30
43.3591
 70
192
 0
VERTEX
 8
MANIGLIA
 10
25.9922
 20
-6.7095
 30
43.6897
 70
192
 0
VERTEX
 8
MANIGLIA
 10
25.9922
 20
-6.6567
 30
43.6209
 70
192
 0
VERTEX
 8
MANIGLIA
 10
-22.0006
 20
-2.3278
 30
45.0205
 70
192
 0
VERTEX
 8
MANIGLIA
 10
-25.9922
 20
-6.8741
 30
44.0871
 70
192
 0
VERTEX
 8
MANIGLIA
 10
-25.9922
 20
-6.8553
 30
44.0024
 70
192
 0
VERTEX
 8
MANIGLIA
 10
-25.9922
 20
-2.3278
 30
43.4982
 70
192
 0
VERTEX
 8
MANIGLIA
 10
-25.9922
 20
-4.1067
 30
43.4983
 70
192
 0
VERTEX
 8
MANIGLIA
 10
-25.9922
 20
-5.2568
 30
45.0208
 70
192
 0
VERTEX
 8
MANIGLIA
 10
22.0001
 20
-4.1067
 30
43.4982
 70
192
 0
VERTEX
 8
MANIGLIA
 10
25.9922
 20
-4.1067
 30
43.4983
 70
192
 0
VERTEX
 8
MANIGLIA
 10
25.9922
 20
-2.3278
 30
45.0205
 70
192
 0
VERTEX
 8
MANIGLIA
 10
-25.9922
 20
-5.8955
 30
43.266
 70
192
 0
VERTEX
 8
MANIGLIA
 10
-25.9922
 20
-5.8089
 30
43.2697
 70
192
 0
VERTEX
 8
MANIGLIA
 10
-25.9922
 20
-5.723
 30
43.2811
 70
192
 0
VERTEX
 8
MANIGLIA
 10
-25.9922
 20
-6.6567
 30
43.6209
 70
192
 0
VERTEX
 8
MANIGLIA
 10
-25.9922
 20
-6.5981
 30
43.557
 70
192
 0
VERTEX
 8
MANIGLIA
 10
-25.9922
 20
-6.2354
 30
43.3259
 70
192
 0
VERTEX
 8
MANIGLIA
 10
-25.9922
 20
-6.1527
 30
43.2998
 70
192
 0
VERTEX
 8
MANIGLIA
 10
22.0001
 20
-2.3278
 30
45.0205
 70
192
 0
VERTEX
 8
MANIGLIA
 10
-25.9922
 20
-6.6567
 30
44.8983
 70
192
 0
VERTEX
 8
MANIGLIA
 10
26.1983
 20
-5.8955
 30
44.2596
 70
192
 0
VERTEX
 8
MANIGLIA
 10
-22.0006
 20
-4.1067
 30
43.4982
 70
192
 0
VERTEX
 8
MANIGLIA
 10
-22.0006
 20
-4.1067
 30
45.0205
 70
192
 0
VERTEX
 8
MANIGLIA
 10
-25.9922
 20
-5.1344
 30
44.8983
 70
192
 0
VERTEX
 8
MANIGLIA
 10
-25.9922
 20
-5.0816
 30
44.8295
 70
192
 0
VERTEX
 8
MANIGLIA
 10
-25.9922
 20
-5.035
 30
44.7564
 70
192
 0
VERTEX
 8
MANIGLIA
 10
-25.9922
 20
-4.995
 30
44.6795
 70
192
 0
VERTEX
 8
MANIGLIA
 10
-25.9922
 20
-4.9618
 30
44.5994
 70
192
 0
VERTEX
 8
MANIGLIA
 10
-25.9922
 20
-5.3256
 30
43.4457
 70
192
 0
VERTEX
 8
MANIGLIA
 10
-25.9922
 20
-5.3504
 30
43.4251
 70
192
 0
VERTEX
 8
MANIGLIA
 10
-25.9922
 20
-5.2568
 30
43.4984
 70
192
 0
VERTEX
 8
MANIGLIA
 10
-25.9922
 20
-5.1929
 30
43.557
 70
192
 0
VERTEX
 8
MANIGLIA
 10
-25.9922
 20
-5.1344
 30
43.6209
 70
192
 0
VERTEX
 8
MANIGLIA
 10
-25.9922
 20
-5.0816
 30
43.6897
 70
192
 0
VERTEX
 8
MANIGLIA
 10
-25.9922
 20
-5.035
 30
43.7628
 70
192
 0
VERTEX
 8
MANIGLIA
 10
-25.9922
 20
-4.995
 30
43.8397
 70
192
 0
VERTEX
 8
MANIGLIA
 10
-25.9922
 20
-4.9618
 30
43.9198
 70
192
 0
VERTEX
 8
MANIGLIA
 10
-25.9922
 20
-4.9357
 30
44.0024
 70
192
 0
VERTEX
 8
MANIGLIA
 10
-25.9922
 20
-4.917
 30
44.0871
 70
192
 0
VERTEX
 8
MANIGLIA
 10
-25.9922
 20
-4.9057
 30
44.173
 70
192
 0
VERTEX
 8
MANIGLIA
 10
-25.9922
 20
-4.9357
 30
44.5168
 70
192
 0
VERTEX
 8
MANIGLIA
 10
-25.9922
 20
-4.917
 30
44.4321
 70
192
 0
VERTEX
 8
MANIGLIA
 10
-25.9922
 20
-4.9057
 30
44.3462
 70
192
 0
VERTEX
 8
MANIGLIA
 10
-25.9922
 20
-4.9019
 30
44.2596
 70
192
 0
VERTEX
 8
MANIGLIA
 10
-25.9922
 20
-6.8292
 30
43.9198
 70
192
 0
VERTEX
 8
MANIGLIA
 10
-25.9922
 20
-6.7961
 30
43.8397
 70
192
 0
VERTEX
 8
MANIGLIA
 10
-25.9922
 20
-6.756
 30
43.7628
 70
192
 0
VERTEX
 8
MANIGLIA
 10
-25.9922
 20
-6.7095
 30
43.6897
 70
192
 0
VERTEX
 8
MANIGLIA
 10
-22.0006
 20
-4.1067
 30
43.4982
 70
192
 0
VERTEX
 8
MANIGLIA
 10
25.9922
 20
-6.5981
 30
43.557
 70
192
 0
VERTEX
 8
MANIGLIA
 10
25.9922
 20
-6.5342
 30
43.4984
 70
192
 0
VERTEX
 8
MANIGLIA
 10
25.9922
 20
-6.0681
 30
43.2811
 70
192
 0
VERTEX
 8
MANIGLIA
 10
25.9922
 20
-5.9821
 30
43.2697
 70
192
 0
VERTEX
 8
MANIGLIA
 10
25.9922
 20
-6.4654
 30
43.4457
 70
192
 0
VERTEX
 8
MANIGLIA
 10
25.9922
 20
-5.6384
 30
43.2998
 70
192
 0
VERTEX
 8
MANIGLIA
 10
25.9922
 20
-5.5557
 30
43.3259
 70
192
 0
VERTEX
 8
MANIGLIA
 10
25.9922
 20
-5.4756
 30
43.3591
 70
192
 0
VERTEX
 8
MANIGLIA
 10
25.9922
 20
-5.723
 30
43.2811
 70
192
 0
VERTEX
 8
MANIGLIA
 10
25.9922
 20
-6.2354
 30
43.3259
 70
192
 0
VERTEX
 8
MANIGLIA
 10
25.9922
 20
-6.1527
 30
43.2998
 70
192
 0
VERTEX
 8
MANIGLIA
 10
25.9922
 20
-6.8854
 30
44.173
 70
192
 0
VERTEX
 8
MANIGLIA
 10
25.9922
 20
-6.8741
 30
44.0871
 70
192
 0
VERTEX
 8
MANIGLIA
 10
25.9922
 20
-6.8553
 30
44.0024
 70
192
 0
VERTEX
 8
MANIGLIA
 10
25.9922
 20
-6.8292
 30
43.9198
 70
192
 0
VERTEX
 8
MANIGLIA
 10
25.9922
 20
-6.7961
 30
43.8397
 70
192
 0
VERTEX
 8
MANIGLIA
 10
25.9922
 20
-6.756
 30
43.7628
 70
192
 0
VERTEX
 8
MANIGLIA
 10
22.0001
 20
-4.1067
 30
45.0205
 70
192
 0
VERTEX
 8
MANIGLIA
 10
25.9922
 20
-4.1067
 30
45.0206
 70
192
 0
VERTEX
 8
MANIGLIA
 10
-22.0006
 20
-4.1067
 30
45.0205
 70
192
 0
VERTEX
 8
MANIGLIA
 10
-25.9922
 20
-6.4654
 30
43.4457
 70
192
 0
VERTEX
 8
MANIGLIA
 10
-25.9922
 20
-6.8854
 30
44.173
 70
192
 0
VERTEX
 8
MANIGLIA
 10
-25.9922
 20
-5.3504
 30
43.4251
 70
192
 0
VERTEX
 8
MANIGLIA
 10
-25.9922
 20
-4.1067
 30
45.0206
 70
192
 0
VERTEX
 8
MANIGLIA
 10
-22.0006
 20
-2.3278
 30
43.4982
 70
192
 0
VERTEX
 8
MANIGLIA
 10
25.9922
 20
-6.3154
 30
45.1601
 70
192
 0
VERTEX
 8
MANIGLIA
 10
25.9922
 20
-6.3923
 30
45.1201
 70
192
 0
VERTEX
 8
MANIGLIA
 10
25.9922
 20
-6.4654
 30
45.0735
 70
192
 0
VERTEX
 8
MANIGLIA
 10
25.9922
 20
-6.5342
 30
45.0208
 70
192
 0
VERTEX
 8
MANIGLIA
 10
25.9922
 20
-6.5981
 30
44.9622
 70
192
 0
VERTEX
 8
MANIGLIA
 10
25.9922
 20
-6.6567
 30
44.8983
 70
192
 0
VERTEX
 8
MANIGLIA
 10
25.9922
 20
-6.7095
 30
44.8295
 70
192
 0
VERTEX
 8
MANIGLIA
 10
25.9922
 20
-5.3569
 30
45.095
 70
192
 0
VERTEX
 8
MANIGLIA
 10
25.9922
 20
-5.4756
 30
45.1601
 70
192
 0
VERTEX
 8
MANIGLIA
 10
25.9922
 20
-5.5557
 30
45.1933
 70
192
 0
VERTEX
 8
MANIGLIA
 10
25.9922
 20
-5.6384
 30
45.2194
 70
192
 0
VERTEX
 8
MANIGLIA
 10
25.9922
 20
-5.723
 30
45.2381
 70
192
 0
VERTEX
 8
MANIGLIA
 10
25.9922
 20
-5.3504
 30
43.4251
 70
192
 0
VERTEX
 8
MANIGLIA
 10
25.9922
 20
-5.8955
 30
43.266
 70
192
 0
VERTEX
 8
MANIGLIA
 10
25.9922
 20
-5.8089
 30
43.2697
 70
192
 0
VERTEX
 8
MANIGLIA
 10
25.9922
 20
-6.3923
 30
43.3991
 70
192
 0
VERTEX
 8
MANIGLIA
 10
0
 20
0
 30
0
 70
128
 71
495
 72
161
 73
167
 74
496
 0
VERTEX
 8
MANIGLIA
 10
0
 20
0
 30
0
 70
128
 71
185
 72
139
 73
145
 74
145
 0
VERTEX
 8
MANIGLIA
 10
0
 20
0
 30
0
 70
128
 71
140
 72
449
 73
450
 74
146
 0
VERTEX
 8
MANIGLIA
 10
0
 20
0
 30
0
 70
128
 71
141
 72
142
 73
148
 74
147
 0
VERTEX
 8
MANIGLIA
 10
0
 20
0
 30
0
 70
128
 71
142
 72
491
 73
492
 74
148
 0
VERTEX
 8
MANIGLIA
 10
0
 20
0
 30
0
 70
128
 71
496
 72
167
 73
173
 74
497
 0
VERTEX
 8
MANIGLIA
 10
0
 20
0
 30
0
 70
128
 71
185
 72
145
 73
151
 74
151
 0
VERTEX
 8
MANIGLIA
 10
0
 20
0
 30
0
 70
128
 71
146
 72
450
 73
451
 74
152
 0
VERTEX
 8
MANIGLIA
 10
0
 20
0
 30
0
 70
128
 71
147
 72
148
 73
154
 74
153
 0
VERTEX
 8
MANIGLIA
 10
0
 20
0
 30
0
 70
128
 71
148
 72
492
 73
493
 74
154
 0
VERTEX
 8
MANIGLIA
 10
0
 20
0
 30
0
 70
128
 71
498
 72
401
 73
407
 74
499
 0
VERTEX
 8
MANIGLIA
 10
0
 20
0
 30
0
 70
128
 71
185
 72
151
 73
157
 74
157
 0
VERTEX
 8
MANIGLIA
 10
0
 20
0
 30
0
 70
128
 71
152
 72
451
 73
455
 74
158
 0
VERTEX
 8
MANIGLIA
 10
0
 20
0
 30
0
 70
128
 71
153
 72
154
 73
160
 74
159
 0
VERTEX
 8
MANIGLIA
 10
0
 20
0
 30
0
 70
128
 71
154
 72
493
 73
495
 74
160
 0
VERTEX
 8
MANIGLIA
 10
0
 20
0
 30
0
 70
128
 71
499
 72
407
 73
413
 74
500
 0
VERTEX
 8
MANIGLIA
 10
0
 20
0
 30
0
 70
128
 71
185
 72
157
 73
163
 74
163
 0
VERTEX
 8
MANIGLIA
 10
0
 20
0
 30
0
 70
128
 71
158
 72
455
 73
456
 74
164
 0
VERTEX
 8
MANIGLIA
 10
0
 20
0
 30
0
 70
128
 71
159
 72
160
 73
166
 74
165
 0
VERTEX
 8
MANIGLIA
 10
0
 20
0
 30
0
 70
128
 71
160
 72
495
 73
496
 74
166
 0
VERTEX
 8
MANIGLIA
 10
0
 20
0
 30
0
 70
128
 71
500
 72
413
 73
419
 74
501
 0
VERTEX
 8
MANIGLIA
 10
0
 20
0
 30
0
 70
128
 71
185
 72
163
 73
169
 74
169
 0
VERTEX
 8
MANIGLIA
 10
0
 20
0
 30
0
 70
128
 71
164
 72
456
 73
435
 74
170
 0
VERTEX
 8
MANIGLIA
 10
0
 20
0
 30
0
 70
128
 71
165
 72
166
 73
172
 74
171
 0
VERTEX
 8
MANIGLIA
 10
0
 20
0
 30
0
 70
128
 71
166
 72
496
 73
497
 74
172
 0
VERTEX
 8
MANIGLIA
 10
0
 20
0
 30
0
 70
128
 71
501
 72
419
 73
425
 74
502
 0
VERTEX
 8
MANIGLIA
 10
0
 20
0
 30
0
 70
128
 71
185
 72
169
 73
175
 74
175
 0
VERTEX
 8
MANIGLIA
 10
0
 20
0
 30
0
 70
128
 71
218
 72
442
 73
585
 74
224
 0
VERTEX
 8
MANIGLIA
 10
0
 20
0
 30
0
 70
128
 71
171
 72
172
 73
178
 74
177
 0
VERTEX
 8
MANIGLIA
 10
0
 20
0
 30
0
 70
128
 71
601
 72
191
 73
197
 74
602
 0
VERTEX
 8
MANIGLIA
 10
0
 20
0
 30
0
 70
128
 71
502
 72
425
 73
431
 74
503
 0
VERTEX
 8
MANIGLIA
 10
0
 20
0
 30
0
 70
128
 71
185
 72
175
 73
181
 74
181
 0
VERTEX
 8
MANIGLIA
 10
0
 20
0
 30
0
 70
128
 71
176
 72
584
 73
517
 74
182
 0
VERTEX
 8
MANIGLIA
 10
0
 20
0
 30
0
 70
128
 71
177
 72
178
 73
184
 74
183
 0
VERTEX
 8
MANIGLIA
 10
0
 20
0
 30
0
 70
128
 71
178
 72
574
 73
575
 74
184
 0
VERTEX
 8
MANIGLIA
 10
0
 20
0
 30
0
 70
128
 71
503
 72
431
 73
95
 74
588
 0
VERTEX
 8
MANIGLIA
 10
0
 20
0
 30
0
 70
128
 71
185
 72
181
 73
3
 74
3
 0
VERTEX
 8
MANIGLIA
 10
0
 20
0
 30
0
 70
128
 71
182
 72
517
 73
518
 74
4
 0
VERTEX
 8
MANIGLIA
 10
0
 20
0
 30
0
 70
128
 71
183
 72
184
 73
6
 74
5
 0
VERTEX
 8
MANIGLIA
 10
0
 20
0
 30
0
 70
128
 71
184
 72
575
 73
576
 74
6
 0
VERTEX
 8
MANIGLIA
 10
0
 20
0
 30
0
 70
128
 71
588
 72
95
 73
101
 74
589
 0
VERTEX
 8
MANIGLIA
 10
0
 20
0
 30
0
 70
128
 71
185
 72
3
 73
9
 74
9
 0
VERTEX
 8
MANIGLIA
 10
0
 20
0
 30
0
 70
128
 71
4
 72
518
 73
558
 74
10
 0
VERTEX
 8
MANIGLIA
 10
0
 20
0
 30
0
 70
128
 71
5
 72
6
 73
12
 74
11
 0
VERTEX
 8
MANIGLIA
 10
0
 20
0
 30
0
 70
128
 71
6
 72
576
 73
577
 74
12
 0
VERTEX
 8
MANIGLIA
 10
0
 20
0
 30
0
 70
128
 71
589
 72
101
 73
107
 74
590
 0
VERTEX
 8
MANIGLIA
 10
0
 20
0
 30
0
 70
128
 71
185
 72
9
 73
15
 74
15
 0
VERTEX
 8
MANIGLIA
 10
0
 20
0
 30
0
 70
128
 71
10
 72
558
 73
559
 74
16
 0
VERTEX
 8
MANIGLIA
 10
0
 20
0
 30
0
 70
128
 71
11
 72
12
 73
18
 74
17
 0
VERTEX
 8
MANIGLIA
 10
0
 20
0
 30
0
 70
128
 71
12
 72
577
 73
578
 74
18
 0
VERTEX
 8
MANIGLIA
 10
0
 20
0
 30
0
 70
128
 71
590
 72
107
 73
113
 74
591
 0
VERTEX
 8
MANIGLIA
 10
0
 20
0
 30
0
 70
128
 71
185
 72
15
 73
21
 74
21
 0
VERTEX
 8
MANIGLIA
 10
0
 20
0
 30
0
 70
128
 71
16
 72
559
 73
560
 74
22
 0
VERTEX
 8
MANIGLIA
 10
0
 20
0
 30
0
 70
128
 71
17
 72
18
 73
24
 74
23
 0
VERTEX
 8
MANIGLIA
 10
0
 20
0
 30
0
 70
128
 71
18
 72
578
 73
579
 74
24
 0
VERTEX
 8
MANIGLIA
 10
0
 20
0
 30
0
 70
128
 71
591
 72
113
 73
119
 74
592
 0
VERTEX
 8
MANIGLIA
 10
0
 20
0
 30
0
 70
128
 71
185
 72
21
 73
27
 74
27
 0
VERTEX
 8
MANIGLIA
 10
0
 20
0
 30
0
 70
128
 71
22
 72
560
 73
561
 74
28
 0
VERTEX
 8
MANIGLIA
 10
0
 20
0
 30
0
 70
128
 71
23
 72
24
 73
30
 74
29
 0
VERTEX
 8
MANIGLIA
 10
0
 20
0
 30
0
 70
128
 71
24
 72
579
 73
514
 74
30
 0
VERTEX
 8
MANIGLIA
 10
0
 20
0
 30
0
 70
128
 71
592
 72
119
 73
125
 74
593
 0
VERTEX
 8
MANIGLIA
 10
0
 20
0
 30
0
 70
128
 71
185
 72
27
 73
33
 74
33
 0
VERTEX
 8
MANIGLIA
 10
0
 20
0
 30
0
 70
128
 71
28
 72
561
 73
528
 74
34
 0
VERTEX
 8
MANIGLIA
 10
0
 20
0
 30
0
 70
128
 71
29
 72
30
 73
36
 74
35
 0
VERTEX
 8
MANIGLIA
 10
0
 20
0
 30
0
 70
128
 71
30
 72
514
 73
515
 74
36
 0
VERTEX
 8
MANIGLIA
 10
0
 20
0
 30
0
 70
128
 71
593
 72
125
 73
131
 74
594
 0
VERTEX
 8
MANIGLIA
 10
0
 20
0
 30
0
 70
128
 71
185
 72
33
 73
39
 74
39
 0
VERTEX
 8
MANIGLIA
 10
0
 20
0
 30
0
 70
128
 71
34
 72
528
 73
529
 74
40
 0
VERTEX
 8
MANIGLIA
 10
0
 20
0
 30
0
 70
128
 71
398
 72
458
 73
460
 74
404
 0
VERTEX
 8
MANIGLIA
 10
0
 20
0
 30
0
 70
128
 71
399
 72
400
 73
406
 74
405
 0
VERTEX
 8
MANIGLIA
 10
0
 20
0
 30
0
 70
128
 71
400
 72
498
 73
499
 74
406
 0
VERTEX
 8
MANIGLIA
 10
0
 20
0
 30
0
 70
128
 71
594
 72
131
 73
137
 74
494
 0
VERTEX
 8
MANIGLIA
 10
0
 20
0
 30
0
 70
128
 71
185
 72
403
 73
409
 74
409
 0
VERTEX
 8
MANIGLIA
 10
0
 20
0
 30
0
 70
128
 71
404
 72
460
 73
461
 74
410
 0
VERTEX
 8
MANIGLIA
 10
0
 20
0
 30
0
 70
128
 71
405
 72
406
 73
412
 74
411
 0
VERTEX
 8
MANIGLIA
 10
0
 20
0
 30
0
 70
128
 71
406
 72
499
 73
500
 74
412
 0
VERTEX
 8
MANIGLIA
 10
0
 20
0
 30
0
 70
128
 71
595
 72
371
 73
377
 74
596
 0
VERTEX
 8
MANIGLIA
 10
0
 20
0
 30
0
 70
128
 71
185
 72
409
 73
415
 74
415
 0
VERTEX
 8
MANIGLIA
 10
0
 20
0
 30
0
 70
128
 71
410
 72
461
 73
483
 74
416
 0
VERTEX
 8
MANIGLIA
 10
0
 20
0
 30
0
 70
128
 71
411
 72
412
 73
418
 74
417
 0
VERTEX
 8
MANIGLIA
 10
0
 20
0
 30
0
 70
128
 71
412
 72
500
 73
501
 74
418
 0
VERTEX
 8
MANIGLIA
 10
0
 20
0
 30
0
 70
128
 71
596
 72
377
 73
383
 74
597
 0
VERTEX
 8
MANIGLIA
 10
0
 20
0
 30
0
 70
128
 71
185
 72
415
 73
421
 74
421
 0
VERTEX
 8
MANIGLIA
 10
0
 20
0
 30
0
 70
128
 71
416
 72
483
 73
484
 74
422
 0
VERTEX
 8
MANIGLIA
 10
0
 20
0
 30
0
 70
128
 71
417
 72
418
 73
424
 74
423
 0
VERTEX
 8
MANIGLIA
 10
0
 20
0
 30
0
 70
128
 71
418
 72
501
 73
502
 74
424
 0
VERTEX
 8
MANIGLIA
 10
0
 20
0
 30
0
 70
128
 71
597
 72
383
 73
389
 74
598
 0
VERTEX
 8
MANIGLIA
 10
0
 20
0
 30
0
 70
128
 71
185
 72
421
 73
427
 74
427
 0
VERTEX
 8
MANIGLIA
 10
0
 20
0
 30
0
 70
128
 71
422
 72
484
 73
485
 74
428
 0
VERTEX
 8
MANIGLIA
 10
0
 20
0
 30
0
 70
128
 71
423
 72
424
 73
430
 74
429
 0
VERTEX
 8
MANIGLIA
 10
0
 20
0
 30
0
 70
128
 71
424
 72
502
 73
503
 74
430
 0
VERTEX
 8
MANIGLIA
 10
0
 20
0
 30
0
 70
128
 71
598
 72
389
 73
395
 74
599
 0
VERTEX
 8
MANIGLIA
 10
0
 20
0
 30
0
 70
128
 71
185
 72
427
 73
433
 74
433
 0
VERTEX
 8
MANIGLIA
 10
0
 20
0
 30
0
 70
128
 71
428
 72
485
 73
486
 74
434
 0
VERTEX
 8
MANIGLIA
 10
0
 20
0
 30
0
 70
128
 71
429
 72
430
 73
94
 74
93
 0
VERTEX
 8
MANIGLIA
 10
0
 20
0
 30
0
 70
128
 71
430
 72
503
 73
588
 74
94
 0
VERTEX
 8
MANIGLIA
 10
0
 20
0
 30
0
 70
128
 71
599
 72
395
 73
401
 74
498
 0
VERTEX
 8
MANIGLIA
 10
0
 20
0
 30
0
 70
128
 71
185
 72
433
 73
97
 74
97
 0
VERTEX
 8
MANIGLIA
 10
0
 20
0
 30
0
 70
128
 71
434
 72
486
 73
508
 74
98
 0
VERTEX
 8
MANIGLIA
 10
0
 20
0
 30
0
 70
128
 71
93
 72
94
 73
100
 74
99
 0
VERTEX
 8
MANIGLIA
 10
0
 20
0
 30
0
 70
128
 71
94
 72
588
 73
589
 74
100
 0
VERTEX
 8
MANIGLIA
 10
0
 20
0
 30
0
 70
128
 71
600
 72
226
 73
220
 74
570
 0
VERTEX
 8
MANIGLIA
 10
0
 20
0
 30
0
 70
128
 71
185
 72
97
 73
103
 74
103
 0
VERTEX
 8
MANIGLIA
 10
0
 20
0
 30
0
 70
128
 71
98
 72
508
 73
509
 74
104
 0
VERTEX
 8
MANIGLIA
 10
0
 20
0
 30
0
 70
128
 71
99
 72
100
 73
106
 74
105
 0
VERTEX
 8
MANIGLIA
 10
0
 20
0
 30
0
 70
128
 71
100
 72
589
 73
590
 74
106
 0
VERTEX
 8
MANIGLIA
 10
0
 20
0
 30
0
 70
128
 71
603
 72
61
 73
67
 74
513
 0
VERTEX
 8
MANIGLIA
 10
0
 20
0
 30
0
 70
128
 71
185
 72
103
 73
109
 74
109
 0
VERTEX
 8
MANIGLIA
 10
0
 20
0
 30
0
 70
128
 71
104
 72
509
 73
510
 74
110
 0
VERTEX
 8
MANIGLIA
 10
0
 20
0
 30
0
 70
128
 71
105
 72
106
 73
112
 74
111
 0
VERTEX
 8
MANIGLIA
 10
0
 20
0
 30
0
 70
128
 71
106
 72
590
 73
591
 74
112
 0
VERTEX
 8
MANIGLIA
 10
0
 20
0
 30
0
 70
128
 71
514
 72
31
 73
37
 74
515
 0
VERTEX
 8
MANIGLIA
 10
0
 20
0
 30
0
 70
128
 71
185
 72
109
 73
115
 74
115
 0
VERTEX
 8
MANIGLIA
 10
0
 20
0
 30
0
 70
128
 71
110
 72
510
 73
511
 74
116
 0
VERTEX
 8
MANIGLIA
 10
0
 20
0
 30
0
 70
128
 71
111
 72
112
 73
118
 74
117
 0
VERTEX
 8
MANIGLIA
 10
0
 20
0
 30
0
 70
128
 71
112
 72
591
 73
592
 74
118
 0
VERTEX
 8
MANIGLIA
 10
0
 20
0
 30
0
 70
128
 71
563
 72
43
 73
49
 74
564
 0
VERTEX
 8
MANIGLIA
 10
0
 20
0
 30
0
 70
128
 71
185
 72
115
 73
121
 74
121
 0
VERTEX
 8
MANIGLIA
 10
0
 20
0
 30
0
 70
128
 71
116
 72
511
 73
533
 74
122
 0
VERTEX
 8
MANIGLIA
 10
0
 20
0
 30
0
 70
128
 71
117
 72
118
 73
124
 74
123
 0
VERTEX
 8
MANIGLIA
 10
0
 20
0
 30
0
 70
128
 71
118
 72
592
 73
593
 74
124
 0
VERTEX
 8
MANIGLIA
 10
0
 20
0
 30
0
 70
128
 71
565
 72
85
 73
91
 74
566
 0
VERTEX
 8
MANIGLIA
 10
0
 20
0
 30
0
 70
128
 71
185
 72
121
 73
127
 74
127
 0
VERTEX
 8
MANIGLIA
 10
0
 20
0
 30
0
 70
128
 71
122
 72
533
 73
487
 74
128
 0
VERTEX
 8
MANIGLIA
 10
0
 20
0
 30
0
 70
128
 71
123
 72
124
 73
130
 74
129
 0
VERTEX
 8
MANIGLIA
 10
0
 20
0
 30
0
 70
128
 71
124
 72
593
 73
594
 74
130
 0
VERTEX
 8
MANIGLIA
 10
0
 20
0
 30
0
 70
128
 71
564
 72
49
 73
55
 74
567
 0
VERTEX
 8
MANIGLIA
 10
0
 20
0
 30
0
 70
128
 71
185
 72
127
 73
133
 74
133
 0
VERTEX
 8
MANIGLIA
 10
0
 20
0
 30
0
 70
128
 71
128
 72
487
 73
454
 74
134
 0
VERTEX
 8
MANIGLIA
 10
0
 20
0
 30
0
 70
128
 71
129
 72
130
 73
136
 74
135
 0
VERTEX
 8
MANIGLIA
 10
0
 20
0
 30
0
 70
128
 71
130
 72
594
 73
494
 74
136
 0
VERTEX
 8
MANIGLIA
 10
0
 20
0
 30
0
 70
128
 71
568
 72
209
 73
215
 74
569
 0
VERTEX
 8
MANIGLIA
 10
0
 20
0
 30
0
 70
128
 71
185
 72
133
 73
139
 74
139
 0
VERTEX
 8
MANIGLIA
 10
0
 20
0
 30
0
 70
128
 71
134
 72
454
 73
449
 74
140
 0
VERTEX
 8
MANIGLIA
 10
0
 20
0
 30
0
 70
128
 71
135
 72
136
 73
142
 74
141
 0
VERTEX
 8
MANIGLIA
 10
0
 20
0
 30
0
 70
128
 71
136
 72
494
 73
491
 74
142
 0
VERTEX
 8
MANIGLIA
 10
0
 20
0
 30
0
 70
128
 71
185
 72
187
 73
193
 74
193
 0
VERTEX
 8
MANIGLIA
 10
0
 20
0
 30
0
 70
128
 71
188
 72
525
 73
526
 74
194
 0
VERTEX
 8
MANIGLIA
 10
0
 20
0
 30
0
 70
128
 71
189
 72
190
 73
196
 74
195
 0
VERTEX
 8
MANIGLIA
 10
0
 20
0
 30
0
 70
128
 71
190
 72
601
 73
602
 74
196
 0
VERTEX
 8
MANIGLIA
 10
0
 20
0
 30
0
 70
128
 71
569
 72
215
 73
221
 74
570
 0
VERTEX
 8
MANIGLIA
 10
0
 20
0
 30
0
 70
128
 71
185
 72
193
 73
199
 74
199
 0
VERTEX
 8
MANIGLIA
 10
0
 20
0
 30
0
 70
128
 71
194
 72
526
 73
527
 74
200
 0
VERTEX
 8
MANIGLIA
 10
0
 20
0
 30
0
 70
128
 71
195
 72
196
 73
202
 74
201
 0
VERTEX
 8
MANIGLIA
 10
0
 20
0
 30
0
 70
128
 71
196
 72
602
 73
571
 74
202
 0
VERTEX
 8
MANIGLIA
 10
0
 20
0
 30
0
 70
128
 71
602
 72
197
 73
203
 74
571
 0
VERTEX
 8
MANIGLIA
 10
0
 20
0
 30
0
 70
128
 71
185
 72
199
 73
205
 74
205
 0
VERTEX
 8
MANIGLIA
 10
0
 20
0
 30
0
 70
128
 71
200
 72
527
 73
438
 74
206
 0
VERTEX
 8
MANIGLIA
 10
0
 20
0
 30
0
 70
128
 71
201
 72
202
 73
208
 74
207
 0
VERTEX
 8
MANIGLIA
 10
0
 20
0
 30
0
 70
128
 71
202
 72
571
 73
568
 74
208
 0
VERTEX
 8
MANIGLIA
 10
0
 20
0
 30
0
 70
128
 71
572
 72
73
 73
79
 74
573
 0
VERTEX
 8
MANIGLIA
 10
0
 20
0
 30
0
 70
128
 71
185
 72
205
 73
211
 74
211
 0
VERTEX
 8
MANIGLIA
 10
0
 20
0
 30
0
 70
128
 71
206
 72
438
 73
439
 74
212
 0
VERTEX
 8
MANIGLIA
 10
0
 20
0
 30
0
 70
128
 71
207
 72
208
 73
214
 74
213
 0
VERTEX
 8
MANIGLIA
 10
0
 20
0
 30
0
 70
128
 71
208
 72
568
 73
569
 74
214
 0
VERTEX
 8
MANIGLIA
 10
0
 20
0
 30
0
 70
128
 71
571
 72
203
 73
209
 74
568
 0
VERTEX
 8
MANIGLIA
 10
0
 20
0
 30
0
 70
128
 71
185
 72
211
 73
217
 74
217
 0
VERTEX
 8
MANIGLIA
 10
0
 20
0
 30
0
 70
128
 71
212
 72
439
 73
442
 74
218
 0
VERTEX
 8
MANIGLIA
 10
0
 20
0
 30
0
 70
128
 71
213
 72
214
 73
220
 74
219
 0
VERTEX
 8
MANIGLIA
 10
0
 20
0
 30
0
 70
128
 71
214
 72
569
 73
570
 74
220
 0
VERTEX
 8
MANIGLIA
 10
0
 20
0
 30
0
 70
128
 71
574
 72
179
 73
1
 74
575
 0
VERTEX
 8
MANIGLIA
 10
0
 20
0
 30
0
 70
128
 71
185
 72
217
 73
223
 74
223
 0
VERTEX
 8
MANIGLIA
 10
0
 20
0
 30
0
 70
128
 71
442
 72
219
 73
225
 74
585
 0
VERTEX
 8
MANIGLIA
 10
0
 20
0
 30
0
 70
128
 71
219
 72
220
 73
226
 74
225
 0
VERTEX
 8
MANIGLIA
 10
0
 20
0
 30
0
 70
128
 71
570
 72
221
 73
227
 74
600
 0
VERTEX
 8
MANIGLIA
 10
0
 20
0
 30
0
 70
128
 71
566
 72
91
 73
191
 74
601
 0
VERTEX
 8
MANIGLIA
 10
0
 20
0
 30
0
 70
128
 71
185
 72
223
 73
229
 74
229
 0
VERTEX
 8
MANIGLIA
 10
0
 20
0
 30
0
 70
128
 71
35
 72
36
 73
42
 74
41
 0
VERTEX
 8
MANIGLIA
 10
0
 20
0
 30
0
 70
128
 71
225
 72
226
 73
232
 74
231
 0
VERTEX
 8
MANIGLIA
 10
0
 20
0
 30
0
 70
128
 71
90
 72
566
 73
601
 74
190
 0
VERTEX
 8
MANIGLIA
 10
0
 20
0
 30
0
 70
128
 71
573
 72
79
 73
85
 74
565
 0
VERTEX
 8
MANIGLIA
 10
0
 20
0
 30
0
 70
128
 71
185
 72
229
 73
235
 74
235
 0
VERTEX
 8
MANIGLIA
 10
0
 20
0
 30
0
 70
128
 71
36
 72
515
 73
563
 74
42
 0
VERTEX
 8
MANIGLIA
 10
0
 20
0
 30
0
 70
128
 71
231
 72
232
 73
238
 74
237
 0
VERTEX
 8
MANIGLIA
 10
0
 20
0
 30
0
 70
128
 71
64
 72
441
 73
530
 74
70
 0
VERTEX
 8
MANIGLIA
 10
0
 20
0
 30
0
 70
128
 71
575
 72
1
 73
7
 74
576
 0
VERTEX
 8
MANIGLIA
 10
0
 20
0
 30
0
 70
128
 71
185
 72
235
 73
241
 74
241
 0
VERTEX
 8
MANIGLIA
 10
0
 20
0
 30
0
 70
128
 71
515
 72
37
 73
43
 74
563
 0
VERTEX
 8
MANIGLIA
 10
0
 20
0
 30
0
 70
128
 71
237
 72
238
 73
244
 74
243
 0
VERTEX
 8
MANIGLIA
 10
0
 20
0
 30
0
 70
128
 71
65
 72
66
 73
72
 74
71
 0
VERTEX
 8
MANIGLIA
 10
0
 20
0
 30
0
 70
128
 71
576
 72
7
 73
13
 74
577
 0
VERTEX
 8
MANIGLIA
 10
0
 20
0
 30
0
 70
128
 71
185
 72
241
 73
247
 74
247
 0
VERTEX
 8
MANIGLIA
 10
0
 20
0
 30
0
 70
128
 71
185
 72
39
 73
45
 74
45
 0
VERTEX
 8
MANIGLIA
 10
0
 20
0
 30
0
 70
128
 71
243
 72
244
 73
250
 74
249
 0
VERTEX
 8
MANIGLIA
 10
0
 20
0
 30
0
 70
128
 71
66
 72
513
 73
572
 74
72
 0
VERTEX
 8
MANIGLIA
 10
0
 20
0
 30
0
 70
128
 71
577
 72
13
 73
19
 74
578
 0
VERTEX
 8
MANIGLIA
 10
0
 20
0
 30
0
 70
128
 71
185
 72
247
 73
253
 74
253
 0
VERTEX
 8
MANIGLIA
 10
0
 20
0
 30
0
 70
128
 71
40
 72
529
 73
444
 74
46
 0
VERTEX
 8
MANIGLIA
 10
0
 20
0
 30
0
 70
128
 71
249
 72
250
 73
256
 74
255
 0
VERTEX
 8
MANIGLIA
 10
0
 20
0
 30
0
 70
128
 71
513
 72
67
 73
73
 74
572
 0
VERTEX
 8
MANIGLIA
 10
0
 20
0
 30
0
 70
128
 71
578
 72
19
 73
25
 74
579
 0
VERTEX
 8
MANIGLIA
 10
0
 20
0
 30
0
 70
128
 71
185
 72
253
 73
259
 74
259
 0
VERTEX
 8
MANIGLIA
 10
0
 20
0
 30
0
 70
128
 71
41
 72
42
 73
48
 74
47
 0
VERTEX
 8
MANIGLIA
 10
0
 20
0
 30
0
 70
128
 71
255
 72
256
 73
262
 74
261
 0
VERTEX
 8
MANIGLIA
 10
0
 20
0
 30
0
 70
128
 71
185
 72
69
 73
75
 74
75
 0
VERTEX
 8
MANIGLIA
 10
0
 20
0
 30
0
 70
128
 71
579
 72
25
 73
31
 74
514
 0
VERTEX
 8
MANIGLIA
 10
0
 20
0
 30
0
 70
128
 71
185
 72
259
 73
265
 74
265
 0
VERTEX
 8
MANIGLIA
 10
0
 20
0
 30
0
 70
128
 71
42
 72
563
 73
564
 74
48
 0
VERTEX
 8
MANIGLIA
 10
0
 20
0
 30
0
 70
128
 71
261
 72
262
 73
268
 74
267
 0
VERTEX
 8
MANIGLIA
 10
0
 20
0
 30
0
 70
128
 71
70
 72
530
 73
531
 74
76
 0
VERTEX
 8
MANIGLIA
 10
0
 20
0
 30
0
 70
128
 71
567
 72
55
 73
61
 74
603
 0
VERTEX
 8
MANIGLIA
 10
0
 20
0
 30
0
 70
128
 71
185
 72
265
 73
271
 74
271
 0
VERTEX
 8
MANIGLIA
 10
0
 20
0
 30
0
 70
128
 71
497
 72
173
 73
179
 74
574
 0
VERTEX
 8
MANIGLIA
 10
0
 20
0
 30
0
 70
128
 71
267
 72
268
 73
274
 74
273
 0
VERTEX
 8
MANIGLIA
 10
0
 20
0
 30
0
 70
128
 71
71
 72
72
 73
78
 74
77
 0
VERTEX
 8
MANIGLIA
 10
0
 20
0
 30
0
 70
128
 71
294
 72
288
 73
534
 74
534
 0
VERTEX
 8
MANIGLIA
 10
0
 20
0
 30
0
 70
128
 71
185
 72
271
 73
277
 74
277
 0
VERTEX
 8
MANIGLIA
 10
0
 20
0
 30
0
 70
128
 71
185
 72
45
 73
51
 74
51
 0
VERTEX
 8
MANIGLIA
 10
0
 20
0
 30
0
 70
128
 71
273
 72
274
 73
280
 74
279
 0
VERTEX
 8
MANIGLIA
 10
0
 20
0
 30
0
 70
128
 71
72
 72
572
 73
573
 74
78
 0
VERTEX
 8
MANIGLIA
 10
0
 20
0
 30
0
 70
128
 71
524
 72
532
 73
512
 74
436
 0
VERTEX
 8
MANIGLIA
 10
0
 20
0
 30
0
 70
128
 71
185
 72
277
 73
283
 74
283
 0
VERTEX
 8
MANIGLIA
 10
0
 20
0
 30
0
 70
128
 71
46
 72
444
 73
583
 74
52
 0
VERTEX
 8
MANIGLIA
 10
0
 20
0
 30
0
 70
128
 71
279
 72
280
 73
286
 74
285
 0
VERTEX
 8
MANIGLIA
 10
0
 20
0
 30
0
 70
128
 71
493
 72
155
 73
161
 74
495
 0
VERTEX
 8
MANIGLIA
 10
0
 20
0
 30
0
 70
128
 71
360
 72
366
 73
468
 74
470
 0
VERTEX
 8
MANIGLIA
 10
0
 20
0
 30
0
 70
128
 71
185
 72
283
 73
289
 74
289
 0
VERTEX
 8
MANIGLIA
 10
0
 20
0
 30
0
 70
128
 71
47
 72
48
 73
54
 74
53
 0
VERTEX
 8
MANIGLIA
 10
0
 20
0
 30
0
 70
128
 71
285
 72
286
 73
292
 74
291
 0
VERTEX
 8
MANIGLIA
 10
0
 20
0
 30
0
 70
128
 71
185
 72
75
 73
81
 74
81
 0
VERTEX
 8
MANIGLIA
 10
0
 20
0
 30
0
 70
128
 71
354
 72
360
 73
470
 74
506
 0
VERTEX
 8
MANIGLIA
 10
0
 20
0
 30
0
 70
128
 71
185
 72
289
 73
295
 74
295
 0
VERTEX
 8
MANIGLIA
 10
0
 20
0
 30
0
 70
128
 71
48
 72
564
 73
567
 74
54
 0
VERTEX
 8
MANIGLIA
 10
0
 20
0
 30
0
 70
128
 71
291
 72
292
 73
298
 74
297
 0
VERTEX
 8
MANIGLIA
 10
0
 20
0
 30
0
 70
128
 71
76
 72
531
 73
443
 74
82
 0
VERTEX
 8
MANIGLIA
 10
0
 20
0
 30
0
 70
128
 71
348
 72
354
 73
506
 74
507
 0
VERTEX
 8
MANIGLIA
 10
0
 20
0
 30
0
 70
128
 71
185
 72
295
 73
301
 74
301
 0
VERTEX
 8
MANIGLIA
 10
0
 20
0
 30
0
 70
128
 71
383
 72
377
 73
534
 74
534
 0
VERTEX
 8
MANIGLIA
 10
0
 20
0
 30
0
 70
128
 71
297
 72
298
 73
304
 74
303
 0
VERTEX
 8
MANIGLIA
 10
0
 20
0
 30
0
 70
128
 71
77
 72
78
 73
84
 74
83
 0
VERTEX
 8
MANIGLIA
 10
0
 20
0
 30
0
 70
128
 71
336
 72
342
 73
471
 74
472
 0
VERTEX
 8
MANIGLIA
 10
0
 20
0
 30
0
 70
128
 71
185
 72
301
 73
307
 74
307
 0
VERTEX
 8
MANIGLIA
 10
0
 20
0
 30
0
 70
128
 71
185
 72
51
 73
57
 74
57
 0
VERTEX
 8
MANIGLIA
 10
0
 20
0
 30
0
 70
128
 71
303
 72
304
 73
310
 74
309
 0
VERTEX
 8
MANIGLIA
 10
0
 20
0
 30
0
 70
128
 71
78
 72
573
 73
565
 74
84
 0
VERTEX
 8
MANIGLIA
 10
0
 20
0
 30
0
 70
128
 71
330
 72
336
 73
472
 74
473
 0
VERTEX
 8
MANIGLIA
 10
0
 20
0
 30
0
 70
128
 71
185
 72
307
 73
313
 74
313
 0
VERTEX
 8
MANIGLIA
 10
0
 20
0
 30
0
 70
128
 71
52
 72
583
 73
440
 74
58
 0
VERTEX
 8
MANIGLIA
 10
0
 20
0
 30
0
 70
128
 71
309
 72
310
 73
316
 74
315
 0
VERTEX
 8
MANIGLIA
 10
0
 20
0
 30
0
 70
128
 71
324
 72
330
 73
473
 74
474
 0
VERTEX
 8
MANIGLIA
 10
0
 20
0
 30
0
 70
128
 71
318
 72
324
 73
474
 74
462
 0
VERTEX
 8
MANIGLIA
 10
0
 20
0
 30
0
 70
128
 71
185
 72
313
 73
319
 74
319
 0
VERTEX
 8
MANIGLIA
 10
0
 20
0
 30
0
 70
128
 71
53
 72
54
 73
60
 74
59
 0
VERTEX
 8
MANIGLIA
 10
0
 20
0
 30
0
 70
128
 71
315
 72
316
 73
322
 74
321
 0
VERTEX
 8
MANIGLIA
 10
0
 20
0
 30
0
 70
128
 71
185
 72
81
 73
87
 74
87
 0
VERTEX
 8
MANIGLIA
 10
0
 20
0
 30
0
 70
128
 71
312
 72
318
 73
462
 74
463
 0
VERTEX
 8
MANIGLIA
 10
0
 20
0
 30
0
 70
128
 71
185
 72
319
 73
325
 74
325
 0
VERTEX
 8
MANIGLIA
 10
0
 20
0
 30
0
 70
128
 71
54
 72
567
 73
603
 74
60
 0
VERTEX
 8
MANIGLIA
 10
0
 20
0
 30
0
 70
128
 71
321
 72
322
 73
328
 74
327
 0
VERTEX
 8
MANIGLIA
 10
0
 20
0
 30
0
 70
128
 71
82
 72
443
 73
447
 74
88
 0
VERTEX
 8
MANIGLIA
 10
0
 20
0
 30
0
 70
128
 71
306
 72
312
 73
463
 74
475
 0
VERTEX
 8
MANIGLIA
 10
0
 20
0
 30
0
 70
128
 71
185
 72
325
 73
331
 74
331
 0
VERTEX
 8
MANIGLIA
 10
0
 20
0
 30
0
 70
128
 71
377
 72
371
 73
534
 74
534
 0
VERTEX
 8
MANIGLIA
 10
0
 20
0
 30
0
 70
128
 71
327
 72
328
 73
334
 74
333
 0
VERTEX
 8
MANIGLIA
 10
0
 20
0
 30
0
 70
128
 71
83
 72
84
 73
90
 74
89
 0
VERTEX
 8
MANIGLIA
 10
0
 20
0
 30
0
 70
128
 71
294
 72
300
 73
476
 74
477
 0
VERTEX
 8
MANIGLIA
 10
0
 20
0
 30
0
 70
128
 71
185
 72
331
 73
337
 74
337
 0
VERTEX
 8
MANIGLIA
 10
0
 20
0
 30
0
 70
128
 71
185
 72
57
 73
63
 74
63
 0
VERTEX
 8
MANIGLIA
 10
0
 20
0
 30
0
 70
128
 71
333
 72
334
 73
340
 74
339
 0
VERTEX
 8
MANIGLIA
 10
0
 20
0
 30
0
 70
128
 71
84
 72
565
 73
566
 74
90
 0
VERTEX
 8
MANIGLIA
 10
0
 20
0
 30
0
 70
128
 71
294
 72
477
 73
478
 74
288
 0
VERTEX
 8
MANIGLIA
 10
0
 20
0
 30
0
 70
128
 71
185
 72
337
 73
343
 74
343
 0
VERTEX
 8
MANIGLIA
 10
0
 20
0
 30
0
 70
128
 71
58
 72
440
 73
441
 74
64
 0
VERTEX
 8
MANIGLIA
 10
0
 20
0
 30
0
 70
128
 71
339
 72
340
 73
346
 74
345
 0
VERTEX
 8
MANIGLIA
 10
0
 20
0
 30
0
 70
128
 71
282
 72
288
 73
478
 74
465
 0
VERTEX
 8
MANIGLIA
 10
0
 20
0
 30
0
 70
128
 71
282
 72
465
 73
464
 74
276
 0
VERTEX
 8
MANIGLIA
 10
0
 20
0
 30
0
 70
128
 71
185
 72
343
 73
349
 74
349
 0
VERTEX
 8
MANIGLIA
 10
0
 20
0
 30
0
 70
128
 71
59
 72
60
 73
66
 74
65
 0
VERTEX
 8
MANIGLIA
 10
0
 20
0
 30
0
 70
128
 71
345
 72
346
 73
352
 74
351
 0
VERTEX
 8
MANIGLIA
 10
0
 20
0
 30
0
 70
128
 71
185
 72
87
 73
187
 74
187
 0
VERTEX
 8
MANIGLIA
 10
0
 20
0
 30
0
 70
128
 71
270
 72
276
 73
464
 74
479
 0
VERTEX
 8
MANIGLIA
 10
0
 20
0
 30
0
 70
128
 71
185
 72
349
 73
355
 74
355
 0
VERTEX
 8
MANIGLIA
 10
0
 20
0
 30
0
 70
128
 71
60
 72
603
 73
513
 74
66
 0
VERTEX
 8
MANIGLIA
 10
0
 20
0
 30
0
 70
128
 71
351
 72
352
 73
358
 74
357
 0
VERTEX
 8
MANIGLIA
 10
0
 20
0
 30
0
 70
128
 71
88
 72
447
 73
525
 74
188
 0
VERTEX
 8
MANIGLIA
 10
0
 20
0
 30
0
 70
128
 71
264
 72
270
 73
479
 74
466
 0
VERTEX
 8
MANIGLIA
 10
0
 20
0
 30
0
 70
128
 71
185
 72
355
 73
361
 74
361
 0
VERTEX
 8
MANIGLIA
 10
0
 20
0
 30
0
 70
128
 71
258
 72
264
 73
466
 74
467
 0
VERTEX
 8
MANIGLIA
 10
0
 20
0
 30
0
 70
128
 71
357
 72
358
 73
364
 74
363
 0
VERTEX
 8
MANIGLIA
 10
0
 20
0
 30
0
 70
128
 71
89
 72
90
 73
190
 74
189
 0
VERTEX
 8
MANIGLIA
 10
0
 20
0
 30
0
 70
128
 71
401
 72
534
 73
407
 74
407
 0
VERTEX
 8
MANIGLIA
 10
0
 20
0
 30
0
 70
128
 71
185
 72
361
 73
367
 74
367
 0
VERTEX
 8
MANIGLIA
 10
0
 20
0
 30
0
 70
128
 71
185
 72
63
 73
69
 74
69
 0
VERTEX
 8
MANIGLIA
 10
0
 20
0
 30
0
 70
128
 71
363
 72
364
 73
370
 74
369
 0
VERTEX
 8
MANIGLIA
 10
0
 20
0
 30
0
 70
128
 71
246
 72
252
 73
504
 74
505
 0
VERTEX
 8
MANIGLIA
 10
0
 20
0
 30
0
 70
128
 71
395
 72
389
 73
534
 74
534
 0
VERTEX
 8
MANIGLIA
 10
0
 20
0
 30
0
 70
128
 71
185
 72
367
 73
373
 74
373
 0
VERTEX
 8
MANIGLIA
 10
0
 20
0
 30
0
 70
128
 71
368
 72
452
 73
453
 74
374
 0
VERTEX
 8
MANIGLIA
 10
0
 20
0
 30
0
 70
128
 71
369
 72
370
 73
376
 74
375
 0
VERTEX
 8
MANIGLIA
 10
0
 20
0
 30
0
 70
128
 71
370
 72
595
 73
596
 74
376
 0
VERTEX
 8
MANIGLIA
 10
0
 20
0
 30
0
 70
128
 71
234
 72
240
 73
480
 74
481
 0
VERTEX
 8
MANIGLIA
 10
0
 20
0
 30
0
 70
128
 71
185
 72
373
 73
379
 74
379
 0
VERTEX
 8
MANIGLIA
 10
0
 20
0
 30
0
 70
128
 71
374
 72
453
 73
488
 74
380
 0
VERTEX
 8
MANIGLIA
 10
0
 20
0
 30
0
 70
128
 71
375
 72
376
 73
382
 74
381
 0
VERTEX
 8
MANIGLIA
 10
0
 20
0
 30
0
 70
128
 71
376
 72
596
 73
597
 74
382
 0
VERTEX
 8
MANIGLIA
 10
0
 20
0
 30
0
 70
128
 71
534
 72
7
 73
1
 74
1
 0
VERTEX
 8
MANIGLIA
 10
0
 20
0
 30
0
 70
128
 71
185
 72
379
 73
385
 74
385
 0
VERTEX
 8
MANIGLIA
 10
0
 20
0
 30
0
 70
128
 71
380
 72
488
 73
489
 74
386
 0
VERTEX
 8
MANIGLIA
 10
0
 20
0
 30
0
 70
128
 71
381
 72
382
 73
388
 74
387
 0
VERTEX
 8
MANIGLIA
 10
0
 20
0
 30
0
 70
128
 71
382
 72
597
 73
598
 74
388
 0
VERTEX
 8
MANIGLIA
 10
0
 20
0
 30
0
 70
128
 71
389
 72
383
 73
534
 74
534
 0
VERTEX
 8
MANIGLIA
 10
0
 20
0
 30
0
 70
128
 71
185
 72
385
 73
391
 74
391
 0
VERTEX
 8
MANIGLIA
 10
0
 20
0
 30
0
 70
128
 71
386
 72
489
 73
490
 74
392
 0
VERTEX
 8
MANIGLIA
 10
0
 20
0
 30
0
 70
128
 71
387
 72
388
 73
394
 74
393
 0
VERTEX
 8
MANIGLIA
 10
0
 20
0
 30
0
 70
128
 71
388
 72
598
 73
599
 74
394
 0
VERTEX
 8
MANIGLIA
 10
0
 20
0
 30
0
 70
128
 71
371
 72
366
 73
534
 74
534
 0
VERTEX
 8
MANIGLIA
 10
0
 20
0
 30
0
 70
128
 71
185
 72
391
 73
397
 74
397
 0
VERTEX
 8
MANIGLIA
 10
0
 20
0
 30
0
 70
128
 71
392
 72
490
 73
458
 74
398
 0
VERTEX
 8
MANIGLIA
 10
0
 20
0
 30
0
 70
128
 71
393
 72
394
 73
400
 74
399
 0
VERTEX
 8
MANIGLIA
 10
0
 20
0
 30
0
 70
128
 71
394
 72
599
 73
498
 74
400
 0
VERTEX
 8
MANIGLIA
 10
0
 20
0
 30
0
 70
128
 71
366
 72
360
 73
534
 74
534
 0
VERTEX
 8
MANIGLIA
 10
0
 20
0
 30
0
 70
128
 71
185
 72
397
 73
403
 74
403
 0
VERTEX
 8
MANIGLIA
 10
0
 20
0
 30
0
 70
128
 71
288
 72
282
 73
534
 74
534
 0
VERTEX
 8
MANIGLIA
 10
0
 20
0
 30
0
 70
128
 71
512
 72
532
 73
580
 74
522
 0
VERTEX
 8
MANIGLIA
 10
0
 20
0
 30
0
 70
128
 71
282
 72
276
 73
534
 74
534
 0
VERTEX
 8
MANIGLIA
 10
0
 20
0
 30
0
 70
128
 71
276
 72
270
 73
534
 74
534
 0
VERTEX
 8
MANIGLIA
 10
0
 20
0
 30
0
 70
128
 71
270
 72
264
 73
534
 74
534
 0
VERTEX
 8
MANIGLIA
 10
0
 20
0
 30
0
 70
128
 71
264
 72
258
 73
534
 74
534
 0
VERTEX
 8
MANIGLIA
 10
0
 20
0
 30
0
 70
128
 71
258
 72
252
 73
534
 74
534
 0
VERTEX
 8
MANIGLIA
 10
0
 20
0
 30
0
 70
128
 71
252
 72
246
 73
534
 74
534
 0
VERTEX
 8
MANIGLIA
 10
0
 20
0
 30
0
 70
128
 71
246
 72
240
 73
534
 74
534
 0
VERTEX
 8
MANIGLIA
 10
0
 20
0
 30
0
 70
128
 71
240
 72
234
 73
534
 74
534
 0
VERTEX
 8
MANIGLIA
 10
0
 20
0
 30
0
 70
128
 71
234
 72
227
 73
221
 74
221
 0
VERTEX
 8
MANIGLIA
 10
0
 20
0
 30
0
 70
128
 71
234
 72
221
 73
534
 74
534
 0
VERTEX
 8
MANIGLIA
 10
0
 20
0
 30
0
 70
128
 71
221
 72
215
 73
534
 74
534
 0
VERTEX
 8
MANIGLIA
 10
0
 20
0
 30
0
 70
128
 71
215
 72
209
 73
534
 74
534
 0
VERTEX
 8
MANIGLIA
 10
0
 20
0
 30
0
 70
128
 71
209
 72
203
 73
534
 74
534
 0
VERTEX
 8
MANIGLIA
 10
0
 20
0
 30
0
 70
128
 71
203
 72
197
 73
534
 74
534
 0
VERTEX
 8
MANIGLIA
 10
0
 20
0
 30
0
 70
128
 71
524
 72
436
 73
523
 74
581
 0
VERTEX
 8
MANIGLIA
 10
0
 20
0
 30
0
 70
128
 71
523
 72
477
 73
476
 74
476
 0
VERTEX
 8
MANIGLIA
 10
0
 20
0
 30
0
 70
128
 71
462
 72
474
 73
581
 74
581
 0
VERTEX
 8
MANIGLIA
 10
0
 20
0
 30
0
 70
128
 71
523
 72
505
 73
504
 74
504
 0
VERTEX
 8
MANIGLIA
 10
0
 20
0
 30
0
 70
128
 71
225
 72
231
 73
542
 74
543
 0
VERTEX
 8
MANIGLIA
 10
0
 20
0
 30
0
 70
128
 71
231
 72
237
 73
544
 74
542
 0
VERTEX
 8
MANIGLIA
 10
0
 20
0
 30
0
 70
128
 71
413
 72
407
 73
534
 74
534
 0
VERTEX
 8
MANIGLIA
 10
0
 20
0
 30
0
 70
128
 71
562
 72
237
 73
243
 74
243
 0
VERTEX
 8
MANIGLIA
 10
0
 20
0
 30
0
 70
128
 71
562
 72
261
 73
267
 74
267
 0
VERTEX
 8
MANIGLIA
 10
0
 20
0
 30
0
 70
128
 71
562
 72
243
 73
249
 74
249
 0
VERTEX
 8
MANIGLIA
 10
0
 20
0
 30
0
 70
128
 71
497
 72
172
 73
42
 74
563
 0
VERTEX
 8
MANIGLIA
 10
0
 20
0
 30
0
 70
128
 71
507
 72
506
 73
581
 74
581
 0
VERTEX
 8
MANIGLIA
 10
0
 20
0
 30
0
 70
128
 71
523
 72
504
 73
467
 74
467
 0
VERTEX
 8
MANIGLIA
 10
0
 20
0
 30
0
 70
128
 71
474
 72
473
 73
581
 74
581
 0
VERTEX
 8
MANIGLIA
 10
0
 20
0
 30
0
 70
128
 71
523
 72
467
 73
466
 74
466
 0
VERTEX
 8
MANIGLIA
 10
0
 20
0
 30
0
 70
128
 71
473
 72
472
 73
581
 74
581
 0
VERTEX
 8
MANIGLIA
 10
0
 20
0
 30
0
 70
128
 71
523
 72
466
 73
479
 74
479
 0
VERTEX
 8
MANIGLIA
 10
0
 20
0
 30
0
 70
128
 71
476
 72
475
 73
581
 74
581
 0
VERTEX
 8
MANIGLIA
 10
0
 20
0
 30
0
 70
128
 71
523
 72
479
 73
464
 74
464
 0
VERTEX
 8
MANIGLIA
 10
0
 20
0
 30
0
 70
128
 71
523
 72
464
 73
465
 74
465
 0
VERTEX
 8
MANIGLIA
 10
0
 20
0
 30
0
 70
128
 71
523
 72
465
 73
478
 74
478
 0
VERTEX
 8
MANIGLIA
 10
0
 20
0
 30
0
 70
128
 71
523
 72
478
 73
477
 74
477
 0
VERTEX
 8
MANIGLIA
 10
0
 20
0
 30
0
 70
128
 71
506
 72
470
 73
581
 74
581
 0
VERTEX
 8
MANIGLIA
 10
0
 20
0
 30
0
 70
128
 71
475
 72
463
 73
581
 74
581
 0
VERTEX
 8
MANIGLIA
 10
0
 20
0
 30
0
 70
128
 71
463
 72
462
 73
581
 74
581
 0
VERTEX
 8
MANIGLIA
 10
0
 20
0
 30
0
 70
128
 71
472
 72
471
 73
581
 74
581
 0
VERTEX
 8
MANIGLIA
 10
0
 20
0
 30
0
 70
128
 71
471
 72
507
 73
581
 74
581
 0
VERTEX
 8
MANIGLIA
 10
0
 20
0
 30
0
 70
128
 71
268
 72
262
 73
437
 74
437
 0
VERTEX
 8
MANIGLIA
 10
0
 20
0
 30
0
 70
128
 71
525
 72
189
 73
195
 74
526
 0
VERTEX
 8
MANIGLIA
 10
0
 20
0
 30
0
 70
128
 71
526
 72
195
 73
201
 74
527
 0
VERTEX
 8
MANIGLIA
 10
0
 20
0
 30
0
 70
128
 71
534
 72
95
 73
431
 74
431
 0
VERTEX
 8
MANIGLIA
 10
0
 20
0
 30
0
 70
128
 71
247
 72
546
 73
547
 74
253
 0
VERTEX
 8
MANIGLIA
 10
0
 20
0
 30
0
 70
128
 71
562
 72
249
 73
255
 74
255
 0
VERTEX
 8
MANIGLIA
 10
0
 20
0
 30
0
 70
128
 71
562
 72
273
 73
279
 74
279
 0
VERTEX
 8
MANIGLIA
 10
0
 20
0
 30
0
 70
128
 71
360
 72
354
 73
534
 74
534
 0
VERTEX
 8
MANIGLIA
 10
0
 20
0
 30
0
 70
128
 71
364
 72
468
 73
595
 74
370
 0
VERTEX
 8
MANIGLIA
 10
0
 20
0
 30
0
 70
128
 71
468
 72
364
 73
358
 74
470
 0
VERTEX
 8
MANIGLIA
 10
0
 20
0
 30
0
 70
128
 71
354
 72
348
 73
534
 74
534
 0
VERTEX
 8
MANIGLIA
 10
0
 20
0
 30
0
 70
128
 71
507
 72
471
 73
342
 74
348
 0
VERTEX
 8
MANIGLIA
 10
0
 20
0
 30
0
 70
128
 71
348
 72
342
 73
534
 74
534
 0
VERTEX
 8
MANIGLIA
 10
0
 20
0
 30
0
 70
128
 71
342
 72
336
 73
534
 74
534
 0
VERTEX
 8
MANIGLIA
 10
0
 20
0
 30
0
 70
128
 71
336
 72
330
 73
534
 74
534
 0
VERTEX
 8
MANIGLIA
 10
0
 20
0
 30
0
 70
128
 71
330
 72
324
 73
534
 74
534
 0
VERTEX
 8
MANIGLIA
 10
0
 20
0
 30
0
 70
128
 71
324
 72
318
 73
534
 74
534
 0
VERTEX
 8
MANIGLIA
 10
0
 20
0
 30
0
 70
128
 71
475
 72
476
 73
300
 74
306
 0
VERTEX
 8
MANIGLIA
 10
0
 20
0
 30
0
 70
128
 71
318
 72
312
 73
534
 74
534
 0
VERTEX
 8
MANIGLIA
 10
0
 20
0
 30
0
 70
128
 71
312
 72
306
 73
534
 74
534
 0
VERTEX
 8
MANIGLIA
 10
0
 20
0
 30
0
 70
128
 71
306
 72
300
 73
534
 74
534
 0
VERTEX
 8
MANIGLIA
 10
0
 20
0
 30
0
 70
128
 71
300
 72
294
 73
534
 74
534
 0
VERTEX
 8
MANIGLIA
 10
0
 20
0
 30
0
 70
128
 71
523
 72
476
 73
581
 74
581
 0
VERTEX
 8
MANIGLIA
 10
0
 20
0
 30
0
 70
128
 71
467
 72
504
 73
252
 74
258
 0
VERTEX
 8
MANIGLIA
 10
0
 20
0
 30
0
 70
128
 71
505
 72
480
 73
240
 74
246
 0
VERTEX
 8
MANIGLIA
 10
0
 20
0
 30
0
 70
128
 71
480
 72
238
 73
232
 74
481
 0
VERTEX
 8
MANIGLIA
 10
0
 20
0
 30
0
 70
128
 71
234
 72
481
 73
600
 74
227
 0
VERTEX
 8
MANIGLIA
 10
0
 20
0
 30
0
 70
128
 71
535
 72
562
 73
536
 74
536
 0
VERTEX
 8
MANIGLIA
 10
0
 20
0
 30
0
 70
128
 71
562
 72
279
 73
285
 74
285
 0
VERTEX
 8
MANIGLIA
 10
0
 20
0
 30
0
 70
128
 71
562
 72
285
 73
291
 74
291
 0
VERTEX
 8
MANIGLIA
 10
0
 20
0
 30
0
 70
128
 71
562
 72
291
 73
297
 74
297
 0
VERTEX
 8
MANIGLIA
 10
0
 20
0
 30
0
 70
128
 71
534
 72
431
 73
425
 74
425
 0
VERTEX
 8
MANIGLIA
 10
0
 20
0
 30
0
 70
128
 71
259
 72
548
 73
549
 74
265
 0
VERTEX
 8
MANIGLIA
 10
0
 20
0
 30
0
 70
128
 71
534
 72
425
 73
419
 74
419
 0
VERTEX
 8
MANIGLIA
 10
0
 20
0
 30
0
 70
128
 71
271
 72
550
 73
551
 74
277
 0
VERTEX
 8
MANIGLIA
 10
0
 20
0
 30
0
 70
128
 71
277
 72
551
 73
552
 74
283
 0
VERTEX
 8
MANIGLIA
 10
0
 20
0
 30
0
 70
128
 71
283
 72
552
 73
553
 74
289
 0
VERTEX
 8
MANIGLIA
 10
0
 20
0
 30
0
 70
128
 71
313
 72
554
 73
541
 74
319
 0
VERTEX
 8
MANIGLIA
 10
0
 20
0
 30
0
 70
128
 71
534
 72
49
 73
43
 74
43
 0
VERTEX
 8
MANIGLIA
 10
0
 20
0
 30
0
 70
128
 71
301
 72
556
 73
555
 74
307
 0
VERTEX
 8
MANIGLIA
 10
0
 20
0
 30
0
 70
128
 71
534
 72
43
 73
37
 74
37
 0
VERTEX
 8
MANIGLIA
 10
0
 20
0
 30
0
 70
128
 71
289
 72
553
 73
557
 74
295
 0
VERTEX
 8
MANIGLIA
 10
0
 20
0
 30
0
 70
128
 71
445
 72
367
 73
361
 74
446
 0
VERTEX
 8
MANIGLIA
 10
0
 20
0
 30
0
 70
128
 71
521
 72
357
 73
363
 74
446
 0
VERTEX
 8
MANIGLIA
 10
0
 20
0
 30
0
 70
128
 71
534
 72
37
 73
31
 74
31
 0
VERTEX
 8
MANIGLIA
 10
0
 20
0
 30
0
 70
128
 71
534
 72
31
 73
25
 74
25
 0
VERTEX
 8
MANIGLIA
 10
0
 20
0
 30
0
 70
128
 71
538
 72
537
 73
343
 74
337
 0
VERTEX
 8
MANIGLIA
 10
0
 20
0
 30
0
 70
128
 71
534
 72
25
 73
19
 74
19
 0
VERTEX
 8
MANIGLIA
 10
0
 20
0
 30
0
 70
128
 71
534
 72
19
 73
13
 74
13
 0
VERTEX
 8
MANIGLIA
 10
0
 20
0
 30
0
 70
128
 71
534
 72
13
 73
7
 74
7
 0
VERTEX
 8
MANIGLIA
 10
0
 20
0
 30
0
 70
128
 71
542
 72
229
 73
223
 74
543
 0
VERTEX
 8
MANIGLIA
 10
0
 20
0
 30
0
 70
128
 71
544
 72
235
 73
229
 74
542
 0
VERTEX
 8
MANIGLIA
 10
0
 20
0
 30
0
 70
128
 71
544
 72
545
 73
241
 74
235
 0
VERTEX
 8
MANIGLIA
 10
0
 20
0
 30
0
 70
128
 71
545
 72
546
 73
247
 74
241
 0
VERTEX
 8
MANIGLIA
 10
0
 20
0
 30
0
 70
128
 71
560
 72
23
 73
29
 74
561
 0
VERTEX
 8
MANIGLIA
 10
0
 20
0
 30
0
 70
128
 71
561
 72
29
 73
35
 74
528
 0
VERTEX
 8
MANIGLIA
 10
0
 20
0
 30
0
 70
128
 71
447
 72
89
 73
189
 74
525
 0
VERTEX
 8
MANIGLIA
 10
0
 20
0
 30
0
 70
128
 71
363
 72
369
 73
445
 74
446
 0
VERTEX
 8
MANIGLIA
 10
0
 20
0
 30
0
 70
128
 71
437
 72
238
 73
480
 74
523
 0
VERTEX
 8
MANIGLIA
 10
0
 20
0
 30
0
 70
128
 71
516
 72
536
 73
586
 74
459
 0
VERTEX
 8
MANIGLIA
 10
0
 20
0
 30
0
 70
128
 71
339
 72
345
 73
582
 74
582
 0
VERTEX
 8
MANIGLIA
 10
0
 20
0
 30
0
 70
128
 71
361
 72
355
 73
521
 74
446
 0
VERTEX
 8
MANIGLIA
 10
0
 20
0
 30
0
 70
128
 71
349
 72
448
 73
521
 74
355
 0
VERTEX
 8
MANIGLIA
 10
0
 20
0
 30
0
 70
128
 71
343
 72
537
 73
448
 74
349
 0
VERTEX
 8
MANIGLIA
 10
0
 20
0
 30
0
 70
128
 71
481
 72
232
 73
226
 74
600
 0
VERTEX
 8
MANIGLIA
 10
0
 20
0
 30
0
 70
128
 71
331
 72
539
 73
538
 74
337
 0
VERTEX
 8
MANIGLIA
 10
0
 20
0
 30
0
 70
128
 71
536
 72
516
 73
587
 74
535
 0
VERTEX
 8
MANIGLIA
 10
0
 20
0
 30
0
 70
128
 71
325
 72
540
 73
539
 74
331
 0
VERTEX
 8
MANIGLIA
 10
0
 20
0
 30
0
 70
128
 71
319
 72
541
 73
540
 74
325
 0
VERTEX
 8
MANIGLIA
 10
0
 20
0
 30
0
 70
128
 71
562
 72
582
 73
536
 74
536
 0
VERTEX
 8
MANIGLIA
 10
0
 20
0
 30
0
 70
128
 71
519
 72
520
 73
535
 74
587
 0
VERTEX
 8
MANIGLIA
 10
0
 20
0
 30
0
 70
128
 71
586
 72
521
 73
448
 74
448
 0
VERTEX
 8
MANIGLIA
 10
0
 20
0
 30
0
 70
128
 71
586
 72
554
 73
555
 74
555
 0
VERTEX
 8
MANIGLIA
 10
0
 20
0
 30
0
 70
128
 71
586
 72
555
 73
556
 74
556
 0
VERTEX
 8
MANIGLIA
 10
0
 20
0
 30
0
 70
128
 71
548
 72
547
 73
520
 74
520
 0
VERTEX
 8
MANIGLIA
 10
0
 20
0
 30
0
 70
128
 71
586
 72
539
 73
540
 74
540
 0
VERTEX
 8
MANIGLIA
 10
0
 20
0
 30
0
 70
128
 71
547
 72
546
 73
520
 74
520
 0
VERTEX
 8
MANIGLIA
 10
0
 20
0
 30
0
 70
128
 71
534
 72
419
 73
413
 74
413
 0
VERTEX
 8
MANIGLIA
 10
0
 20
0
 30
0
 70
128
 71
547
 72
548
 73
259
 74
253
 0
VERTEX
 8
MANIGLIA
 10
0
 20
0
 30
0
 70
128
 71
297
 72
303
 73
582
 74
582
 0
VERTEX
 8
MANIGLIA
 10
0
 20
0
 30
0
 70
128
 71
315
 72
321
 73
582
 74
582
 0
VERTEX
 8
MANIGLIA
 10
0
 20
0
 30
0
 70
128
 71
587
 72
516
 73
459
 74
519
 0
VERTEX
 8
MANIGLIA
 10
0
 20
0
 30
0
 70
128
 71
586
 72
448
 73
537
 74
537
 0
VERTEX
 8
MANIGLIA
 10
0
 20
0
 30
0
 70
128
 71
586
 72
556
 73
557
 74
557
 0
VERTEX
 8
MANIGLIA
 10
0
 20
0
 30
0
 70
128
 71
586
 72
537
 73
538
 74
538
 0
VERTEX
 8
MANIGLIA
 10
0
 20
0
 30
0
 70
128
 71
520
 72
586
 73
557
 74
557
 0
VERTEX
 8
MANIGLIA
 10
0
 20
0
 30
0
 70
128
 71
586
 72
538
 73
539
 74
539
 0
VERTEX
 8
MANIGLIA
 10
0
 20
0
 30
0
 70
128
 71
553
 72
552
 73
520
 74
520
 0
VERTEX
 8
MANIGLIA
 10
0
 20
0
 30
0
 70
128
 71
546
 72
545
 73
520
 74
520
 0
VERTEX
 8
MANIGLIA
 10
0
 20
0
 30
0
 70
128
 71
552
 72
551
 73
520
 74
520
 0
VERTEX
 8
MANIGLIA
 10
0
 20
0
 30
0
 70
128
 71
545
 72
544
 73
520
 74
520
 0
VERTEX
 8
MANIGLIA
 10
0
 20
0
 30
0
 70
128
 71
586
 72
540
 73
541
 74
541
 0
VERTEX
 8
MANIGLIA
 10
0
 20
0
 30
0
 70
128
 71
459
 72
586
 73
520
 74
519
 0
VERTEX
 8
MANIGLIA
 10
0
 20
0
 30
0
 70
128
 71
551
 72
550
 73
520
 74
520
 0
VERTEX
 8
MANIGLIA
 10
0
 20
0
 30
0
 70
128
 71
550
 72
549
 73
520
 74
520
 0
VERTEX
 8
MANIGLIA
 10
0
 20
0
 30
0
 70
128
 71
345
 72
351
 73
582
 74
582
 0
VERTEX
 8
MANIGLIA
 10
0
 20
0
 30
0
 70
128
 71
562
 72
267
 73
273
 74
273
 0
VERTEX
 8
MANIGLIA
 10
0
 20
0
 30
0
 70
128
 71
303
 72
309
 73
582
 74
582
 0
VERTEX
 8
MANIGLIA
 10
0
 20
0
 30
0
 70
128
 71
309
 72
315
 73
582
 74
582
 0
VERTEX
 8
MANIGLIA
 10
0
 20
0
 30
0
 70
128
 71
237
 72
562
 73
520
 74
544
 0
VERTEX
 8
MANIGLIA
 10
0
 20
0
 30
0
 70
128
 71
586
 72
541
 73
554
 74
554
 0
VERTEX
 8
MANIGLIA
 10
0
 20
0
 30
0
 70
128
 71
333
 72
339
 73
582
 74
582
 0
VERTEX
 8
MANIGLIA
 10
0
 20
0
 30
0
 70
128
 71
321
 72
327
 73
582
 74
582
 0
VERTEX
 8
MANIGLIA
 10
0
 20
0
 30
0
 70
128
 71
549
 72
548
 73
520
 74
520
 0
VERTEX
 8
MANIGLIA
 10
0
 20
0
 30
0
 70
128
 71
351
 72
357
 73
582
 74
582
 0
VERTEX
 8
MANIGLIA
 10
0
 20
0
 30
0
 70
128
 71
534
 72
191
 73
91
 74
91
 0
VERTEX
 8
MANIGLIA
 10
0
 20
0
 30
0
 70
128
 71
549
 72
550
 73
271
 74
265
 0
VERTEX
 8
MANIGLIA
 10
0
 20
0
 30
0
 70
128
 71
528
 72
35
 73
41
 74
529
 0
VERTEX
 8
MANIGLIA
 10
0
 20
0
 30
0
 70
128
 71
530
 72
71
 73
77
 74
531
 0
VERTEX
 8
MANIGLIA
 10
0
 20
0
 30
0
 70
128
 71
438
 72
207
 73
213
 74
439
 0
VERTEX
 8
MANIGLIA
 10
0
 20
0
 30
0
 70
128
 71
440
 72
59
 73
65
 74
441
 0
VERTEX
 8
MANIGLIA
 10
0
 20
0
 30
0
 70
128
 71
439
 72
213
 73
219
 74
442
 0
VERTEX
 8
MANIGLIA
 10
0
 20
0
 30
0
 70
128
 71
444
 72
47
 73
53
 74
583
 0
VERTEX
 8
MANIGLIA
 10
0
 20
0
 30
0
 70
128
 71
435
 72
171
 73
177
 74
584
 0
VERTEX
 8
MANIGLIA
 10
0
 20
0
 30
0
 70
128
 71
527
 72
201
 73
207
 74
438
 0
VERTEX
 8
MANIGLIA
 10
0
 20
0
 30
0
 70
128
 71
583
 72
53
 73
59
 74
440
 0
VERTEX
 8
MANIGLIA
 10
0
 20
0
 30
0
 70
128
 71
584
 72
177
 73
183
 74
517
 0
VERTEX
 8
MANIGLIA
 10
0
 20
0
 30
0
 70
128
 71
441
 72
65
 73
71
 74
530
 0
VERTEX
 8
MANIGLIA
 10
0
 20
0
 30
0
 70
128
 71
517
 72
183
 73
5
 74
518
 0
VERTEX
 8
MANIGLIA
 10
0
 20
0
 30
0
 70
128
 71
518
 72
5
 73
11
 74
558
 0
VERTEX
 8
MANIGLIA
 10
0
 20
0
 30
0
 70
128
 71
558
 72
11
 73
17
 74
559
 0
VERTEX
 8
MANIGLIA
 10
0
 20
0
 30
0
 70
128
 71
531
 72
77
 73
83
 74
443
 0
VERTEX
 8
MANIGLIA
 10
0
 20
0
 30
0
 70
128
 71
529
 72
41
 73
47
 74
444
 0
VERTEX
 8
MANIGLIA
 10
0
 20
0
 30
0
 70
128
 71
443
 72
83
 73
89
 74
447
 0
VERTEX
 8
MANIGLIA
 10
0
 20
0
 30
0
 70
128
 71
559
 72
17
 73
23
 74
560
 0
VERTEX
 8
MANIGLIA
 10
0
 20
0
 30
0
 70
128
 71
562
 72
297
 73
582
 74
582
 0
VERTEX
 8
MANIGLIA
 10
0
 20
0
 30
0
 70
128
 71
520
 72
557
 73
553
 74
553
 0
VERTEX
 8
MANIGLIA
 10
0
 20
0
 30
0
 70
128
 71
327
 72
333
 73
582
 74
582
 0
VERTEX
 8
MANIGLIA
 10
0
 20
0
 30
0
 70
128
 71
562
 72
255
 73
261
 74
261
 0
VERTEX
 8
MANIGLIA
 10
0
 20
0
 30
0
 70
128
 71
534
 72
91
 73
85
 74
85
 0
VERTEX
 8
MANIGLIA
 10
0
 20
0
 30
0
 70
128
 71
534
 72
85
 73
79
 74
79
 0
VERTEX
 8
MANIGLIA
 10
0
 20
0
 30
0
 70
128
 71
401
 72
395
 73
534
 74
534
 0
VERTEX
 8
MANIGLIA
 10
0
 20
0
 30
0
 70
128
 71
580
 72
532
 73
524
 74
581
 0
VERTEX
 8
MANIGLIA
 10
0
 20
0
 30
0
 70
128
 71
358
 72
352
 73
457
 74
457
 0
VERTEX
 8
MANIGLIA
 10
0
 20
0
 30
0
 70
128
 71
316
 72
310
 73
457
 74
457
 0
VERTEX
 8
MANIGLIA
 10
0
 20
0
 30
0
 70
128
 71
310
 72
304
 73
457
 74
457
 0
VERTEX
 8
MANIGLIA
 10
0
 20
0
 30
0
 70
128
 71
304
 72
298
 73
457
 74
457
 0
VERTEX
 8
MANIGLIA
 10
0
 20
0
 30
0
 70
128
 71
298
 72
292
 73
437
 74
437
 0
VERTEX
 8
MANIGLIA
 10
0
 20
0
 30
0
 70
128
 71
292
 72
286
 73
437
 74
437
 0
VERTEX
 8
MANIGLIA
 10
0
 20
0
 30
0
 70
128
 71
286
 72
280
 73
437
 74
437
 0
VERTEX
 8
MANIGLIA
 10
0
 20
0
 30
0
 70
128
 71
262
 72
256
 73
437
 74
437
 0
VERTEX
 8
MANIGLIA
 10
0
 20
0
 30
0
 70
128
 71
328
 72
322
 73
457
 74
457
 0
VERTEX
 8
MANIGLIA
 10
0
 20
0
 30
0
 70
128
 71
280
 72
274
 73
437
 74
437
 0
VERTEX
 8
MANIGLIA
 10
0
 20
0
 30
0
 70
128
 71
256
 72
250
 73
437
 74
437
 0
VERTEX
 8
MANIGLIA
 10
0
 20
0
 30
0
 70
128
 71
274
 72
268
 73
437
 74
437
 0
VERTEX
 8
MANIGLIA
 10
0
 20
0
 30
0
 70
128
 71
352
 72
346
 73
457
 74
457
 0
VERTEX
 8
MANIGLIA
 10
0
 20
0
 30
0
 70
128
 71
322
 72
316
 73
457
 74
457
 0
VERTEX
 8
MANIGLIA
 10
0
 20
0
 30
0
 70
128
 71
523
 72
480
 73
505
 74
505
 0
VERTEX
 8
MANIGLIA
 10
0
 20
0
 30
0
 70
128
 71
244
 72
238
 73
437
 74
437
 0
VERTEX
 8
MANIGLIA
 10
0
 20
0
 30
0
 70
128
 71
346
 72
340
 73
457
 74
457
 0
VERTEX
 8
MANIGLIA
 10
0
 20
0
 30
0
 70
128
 71
250
 72
244
 73
437
 74
437
 0
VERTEX
 8
MANIGLIA
 10
0
 20
0
 30
0
 70
128
 71
340
 72
334
 73
457
 74
457
 0
VERTEX
 8
MANIGLIA
 10
0
 20
0
 30
0
 70
128
 71
334
 72
328
 73
457
 74
457
 0
VERTEX
 8
MANIGLIA
 10
0
 20
0
 30
0
 70
128
 71
298
 72
437
 73
457
 74
457
 0
VERTEX
 8
MANIGLIA
 10
0
 20
0
 30
0
 70
128
 71
555
 72
554
 73
313
 74
307
 0
VERTEX
 8
MANIGLIA
 10
0
 20
0
 30
0
 70
128
 71
581
 72
470
 73
358
 74
457
 0
VERTEX
 8
MANIGLIA
 10
0
 20
0
 30
0
 70
128
 71
557
 72
556
 73
301
 74
295
 0
VERTEX
 8
MANIGLIA
 10
0
 20
0
 30
0
 70
128
 71
523
 72
436
 73
512
 74
522
 0
VERTEX
 8
MANIGLIA
 10
0
 20
0
 30
0
 70
128
 71
170
 72
435
 73
584
 74
176
 0
VERTEX
 8
MANIGLIA
 10
0
 20
0
 30
0
 70
128
 71
449
 72
141
 73
147
 74
450
 0
VERTEX
 8
MANIGLIA
 10
0
 20
0
 30
0
 70
128
 71
450
 72
147
 73
153
 74
451
 0
VERTEX
 8
MANIGLIA
 10
0
 20
0
 30
0
 70
128
 71
452
 72
369
 73
375
 74
453
 0
VERTEX
 8
MANIGLIA
 10
0
 20
0
 30
0
 70
128
 71
454
 72
135
 73
141
 74
449
 0
VERTEX
 8
MANIGLIA
 10
0
 20
0
 30
0
 70
128
 71
451
 72
153
 73
159
 74
455
 0
VERTEX
 8
MANIGLIA
 10
0
 20
0
 30
0
 70
128
 71
455
 72
159
 73
165
 74
456
 0
VERTEX
 8
MANIGLIA
 10
0
 20
0
 30
0
 70
128
 71
456
 72
165
 73
171
 74
435
 0
VERTEX
 8
MANIGLIA
 10
0
 20
0
 30
0
 70
128
 71
458
 72
399
 73
405
 74
460
 0
VERTEX
 8
MANIGLIA
 10
0
 20
0
 30
0
 70
128
 71
460
 72
405
 73
411
 74
461
 0
VERTEX
 8
MANIGLIA
 10
0
 20
0
 30
0
 70
128
 71
461
 72
411
 73
417
 74
483
 0
VERTEX
 8
MANIGLIA
 10
0
 20
0
 30
0
 70
128
 71
483
 72
417
 73
423
 74
484
 0
VERTEX
 8
MANIGLIA
 10
0
 20
0
 30
0
 70
128
 71
484
 72
423
 73
429
 74
485
 0
VERTEX
 8
MANIGLIA
 10
0
 20
0
 30
0
 70
128
 71
485
 72
429
 73
93
 74
486
 0
VERTEX
 8
MANIGLIA
 10
0
 20
0
 30
0
 70
128
 71
486
 72
93
 73
99
 74
508
 0
VERTEX
 8
MANIGLIA
 10
0
 20
0
 30
0
 70
128
 71
508
 72
99
 73
105
 74
509
 0
VERTEX
 8
MANIGLIA
 10
0
 20
0
 30
0
 70
128
 71
509
 72
105
 73
111
 74
510
 0
VERTEX
 8
MANIGLIA
 10
0
 20
0
 30
0
 70
128
 71
510
 72
111
 73
117
 74
511
 0
VERTEX
 8
MANIGLIA
 10
0
 20
0
 30
0
 70
128
 71
511
 72
117
 73
123
 74
533
 0
VERTEX
 8
MANIGLIA
 10
0
 20
0
 30
0
 70
128
 71
533
 72
123
 73
129
 74
487
 0
VERTEX
 8
MANIGLIA
 10
0
 20
0
 30
0
 70
128
 71
487
 72
129
 73
135
 74
454
 0
VERTEX
 8
MANIGLIA
 10
0
 20
0
 30
0
 70
128
 71
453
 72
375
 73
381
 74
488
 0
VERTEX
 8
MANIGLIA
 10
0
 20
0
 30
0
 70
128
 71
488
 72
381
 73
387
 74
489
 0
VERTEX
 8
MANIGLIA
 10
0
 20
0
 30
0
 70
128
 71
489
 72
387
 73
393
 74
490
 0
VERTEX
 8
MANIGLIA
 10
0
 20
0
 30
0
 70
128
 71
490
 72
393
 73
399
 74
458
 0
VERTEX
 8
MANIGLIA
 10
0
 20
0
 30
0
 70
128
 71
172
 72
497
 73
574
 74
178
 0
VERTEX
 8
MANIGLIA
 10
0
 20
0
 30
0
 70
128
 71
491
 72
143
 73
149
 74
492
 0
VERTEX
 8
MANIGLIA
 10
0
 20
0
 30
0
 70
128
 71
492
 72
149
 73
155
 74
493
 0
VERTEX
 8
MANIGLIA
 10
0
 20
0
 30
0
 70
128
 71
494
 72
137
 73
143
 74
491
 0
VERTEX
 8
MANIGLIA
 10
0
 20
0
 30
0
 70
128
 71
468
 72
366
 73
371
 74
595
 0
VERTEX
 8
MANIGLIA
 10
0
 20
0
 30
0
 70
128
 71
534
 72
79
 73
73
 74
73
 0
VERTEX
 8
MANIGLIA
 10
0
 20
0
 30
0
 70
128
 71
534
 72
73
 73
67
 74
67
 0
VERTEX
 8
MANIGLIA
 10
0
 20
0
 30
0
 70
128
 71
534
 72
67
 73
61
 74
61
 0
VERTEX
 8
MANIGLIA
 10
0
 20
0
 30
0
 70
128
 71
534
 72
61
 73
55
 74
55
 0
VERTEX
 8
MANIGLIA
 10
0
 20
0
 30
0
 70
128
 71
534
 72
55
 73
49
 74
49
 0
VERTEX
 8
MANIGLIA
 10
0
 20
0
 30
0
 70
128
 71
534
 72
1
 73
179
 74
179
 0
VERTEX
 8
MANIGLIA
 10
0
 20
0
 30
0
 70
128
 71
534
 72
179
 73
173
 74
173
 0
VERTEX
 8
MANIGLIA
 10
0
 20
0
 30
0
 70
128
 71
534
 72
173
 73
167
 74
167
 0
VERTEX
 8
MANIGLIA
 10
0
 20
0
 30
0
 70
128
 71
534
 72
167
 73
161
 74
161
 0
VERTEX
 8
MANIGLIA
 10
0
 20
0
 30
0
 70
128
 71
534
 72
161
 73
155
 74
155
 0
VERTEX
 8
MANIGLIA
 10
0
 20
0
 30
0
 70
128
 71
534
 72
155
 73
149
 74
149
 0
VERTEX
 8
MANIGLIA
 10
0
 20
0
 30
0
 70
128
 71
534
 72
149
 73
143
 74
143
 0
VERTEX
 8
MANIGLIA
 10
0
 20
0
 30
0
 70
128
 71
534
 72
143
 73
137
 74
137
 0
VERTEX
 8
MANIGLIA
 10
0
 20
0
 30
0
 70
128
 71
534
 72
137
 73
131
 74
131
 0
VERTEX
 8
MANIGLIA
 10
0
 20
0
 30
0
 70
128
 71
534
 72
131
 73
125
 74
125
 0
VERTEX
 8
MANIGLIA
 10
0
 20
0
 30
0
 70
128
 71
534
 72
125
 73
119
 74
119
 0
VERTEX
 8
MANIGLIA
 10
0
 20
0
 30
0
 70
128
 71
534
 72
119
 73
113
 74
113
 0
VERTEX
 8
MANIGLIA
 10
0
 20
0
 30
0
 70
128
 71
534
 72
113
 73
107
 74
107
 0
VERTEX
 8
MANIGLIA
 10
0
 20
0
 30
0
 70
128
 71
534
 72
107
 73
101
 74
101
 0
VERTEX
 8
MANIGLIA
 10
0
 20
0
 30
0
 70
128
 71
197
 72
191
 73
534
 74
534
 0
VERTEX
 8
MANIGLIA
 10
0
 20
0
 30
0
 70
128
 71
534
 72
101
 73
95
 74
95
 0
VERTEX
 8
MANIGLIA
 10
0
 20
0
 30
0
 70
128
 71
582
 72
357
 73
521
 74
586
 0
SEQEND
 0
POLYLINE
 8
ANTA_CORNICE
 66
1
 10
0.0
 20
0.0
 30
0.0
 70
64
 71
32
 72
32
 0
VERTEX
 8
ANTA_CORNICE
 10
-35.7675
 20
-1.9097
 30
1.039
 70
192
 0
VERTEX
 8
ANTA_CORNICE
 10
-35.7675
 20
-1.9097
 30
15.8968
 70
192
 0
VERTEX
 8
ANTA_CORNICE
 10
-35.7675
 20
-1.9097
 30
35.5376
 70
192
 0
VERTEX
 8
ANTA_CORNICE
 10
-35.7675
 20
-1.9097
 30
45.7264
 70
192
 0
VERTEX
 8
ANTA_CORNICE
 10
-20.7336
 20
-1.9097
 30
1.039
 70
192
 0
VERTEX
 8
ANTA_CORNICE
 10
-20.7336
 20
-1.9097
 30
15.8968
 70
192
 0
VERTEX
 8
ANTA_CORNICE
 10
-20.7336
 20
-1.9097
 30
35.5376
 70
192
 0
VERTEX
 8
ANTA_CORNICE
 10
-20.7336
 20
-1.9097
 30
45.7264
 70
192
 0
VERTEX
 8
ANTA_CORNICE
 10
20.6964
 20
-1.9097
 30
1.039
 70
192
 0
VERTEX
 8
ANTA_CORNICE
 10
20.6964
 20
-1.9097
 30
15.8968
 70
192
 0
VERTEX
 8
ANTA_CORNICE
 10
20.6964
 20
-1.9097
 30
35.5376
 70
192
 0
VERTEX
 8
ANTA_CORNICE
 10
20.6964
 20
-1.9097
 30
45.7264
 70
192
 0
VERTEX
 8
ANTA_CORNICE
 10
36.3502
 20
-1.9097
 30
1.039
 70
192
 0
VERTEX
 8
ANTA_CORNICE
 10
36.3502
 20
-1.9097
 30
15.8968
 70
192
 0
VERTEX
 8
ANTA_CORNICE
 10
36.3502
 20
-1.9097
 30
35.5376
 70
192
 0
VERTEX
 8
ANTA_CORNICE
 10
36.3502
 20
-1.9097
 30
45.7264
 70
192
 0
VERTEX
 8
ANTA_CORNICE
 10
35.1363
 20
-1.4097
 30
1.039
 70
192
 0
VERTEX
 8
ANTA_CORNICE
 10
36.3502
 20
-1.4097
 30
15.8968
 70
192
 0
VERTEX
 8
ANTA_CORNICE
 10
36.3502
 20
-1.4097
 30
35.5376
 70
192
 0
VERTEX
 8
ANTA_CORNICE
 10
36.3502
 20
-1.4097
 30
45.7264
 70
192
 0
VERTEX
 8
ANTA_CORNICE
 10
20.6964
 20
-1.4097
 30
1.039
 70
192
 0
VERTEX
 8
ANTA_CORNICE
 10
20.6964
 20
-1.4097
 30
15.8968
 70
192
 0
VERTEX
 8
ANTA_CORNICE
 10
20.6964
 20
-1.4097
 30
35.5376
 70
192
 0
VERTEX
 8
ANTA_CORNICE
 10
20.6964
 20
-1.4097
 30
45.7264
 70
192
 0
VERTEX
 8
ANTA_CORNICE
 10
-20.7336
 20
-1.4097
 30
1.039
 70
192
 0
VERTEX
 8
ANTA_CORNICE
 10
-20.7336
 20
-1.4097
 30
15.8968
 70
192
 0
VERTEX
 8
ANTA_CORNICE
 10
-20.7336
 20
-1.4097
 30
35.5376
 70
192
 0
VERTEX
 8
ANTA_CORNICE
 10
-20.7336
 20
-1.4097
 30
45.7264
 70
192
 0
VERTEX
 8
ANTA_CORNICE
 10
-35.7675
 20
-1.4097
 30
1.039
 70
192
 0
VERTEX
 8
ANTA_CORNICE
 10
-35.7675
 20
-1.4097
 30
15.8968
 70
192
 0
VERTEX
 8
ANTA_CORNICE
 10
-35.7675
 20
-1.4097
 30
35.5376
 70
192
 0
VERTEX
 8
ANTA_CORNICE
 10
-35.7675
 20
-1.4097
 30
45.7264
 70
192
 0
VERTEX
 8
ANTA_CORNICE
 10
0
 20
0
 30
0
 70
128
 71
1
 72
2
 73
6
 74
5
 0
VERTEX
 8
ANTA_CORNICE
 10
0
 20
0
 30
0
 70
128
 71
5
 72
6
 73
10
 74
9
 0
VERTEX
 8
ANTA_CORNICE
 10
0
 20
0
 30
0
 70
128
 71
9
 72
10
 73
14
 74
13
 0
VERTEX
 8
ANTA_CORNICE
 10
0
 20
0
 30
0
 70
128
 71
2
 72
3
 73
7
 74
6
 0
VERTEX
 8
ANTA_CORNICE
 10
0
 20
0
 30
0
 70
128
 71
21
 72
9
 73
13
 74
17
 0
VERTEX
 8
ANTA_CORNICE
 10
0
 20
0
 30
0
 70
128
 71
10
 72
11
 73
15
 74
14
 0
VERTEX
 8
ANTA_CORNICE
 10
0
 20
0
 30
0
 70
128
 71
3
 72
4
 73
8
 74
7
 0
VERTEX
 8
ANTA_CORNICE
 10
0
 20
0
 30
0
 70
128
 71
7
 72
8
 73
12
 74
11
 0
VERTEX
 8
ANTA_CORNICE
 10
0
 20
0
 30
0
 70
128
 71
11
 72
12
 73
16
 74
15
 0
VERTEX
 8
ANTA_CORNICE
 10
0
 20
0
 30
0
 70
128
 71
13
 72
14
 73
18
 74
17
 0
VERTEX
 8
ANTA_CORNICE
 10
0
 20
0
 30
0
 70
128
 71
14
 72
15
 73
19
 74
18
 0
VERTEX
 8
ANTA_CORNICE
 10
0
 20
0
 30
0
 70
128
 71
15
 72
16
 73
20
 74
19
 0
VERTEX
 8
ANTA_CORNICE
 10
0
 20
0
 30
0
 70
128
 71
17
 72
18
 73
22
 74
21
 0
VERTEX
 8
ANTA_CORNICE
 10
0
 20
0
 30
0
 70
128
 71
21
 72
22
 73
26
 74
25
 0
VERTEX
 8
ANTA_CORNICE
 10
0
 20
0
 30
0
 70
128
 71
25
 72
26
 73
30
 74
29
 0
VERTEX
 8
ANTA_CORNICE
 10
0
 20
0
 30
0
 70
128
 71
18
 72
19
 73
23
 74
22
 0
VERTEX
 8
ANTA_CORNICE
 10
0
 20
0
 30
0
 70
128
 71
25
 72
5
 73
9
 74
21
 0
VERTEX
 8
ANTA_CORNICE
 10
0
 20
0
 30
0
 70
128
 71
26
 72
27
 73
31
 74
30
 0
VERTEX
 8
ANTA_CORNICE
 10
0
 20
0
 30
0
 70
128
 71
19
 72
20
 73
24
 74
23
 0
VERTEX
 8
ANTA_CORNICE
 10
0
 20
0
 30
0
 70
128
 71
23
 72
24
 73
28
 74
27
 0
VERTEX
 8
ANTA_CORNICE
 10
0
 20
0
 30
0
 70
128
 71
27
 72
28
 73
32
 74
31
 0
VERTEX
 8
ANTA_CORNICE
 10
0
 20
0
 30
0
 70
128
 71
29
 72
30
 73
2
 74
1
 0
VERTEX
 8
ANTA_CORNICE
 10
0
 20
0
 30
0
 70
128
 71
30
 72
31
 73
3
 74
2
 0
VERTEX
 8
ANTA_CORNICE
 10
0
 20
0
 30
0
 70
128
 71
31
 72
32
 73
4
 74
3
 0
VERTEX
 8
ANTA_CORNICE
 10
0
 20
0
 30
0
 70
128
 71
4
 72
32
 73
28
 74
8
 0
VERTEX
 8
ANTA_CORNICE
 10
0
 20
0
 30
0
 70
128
 71
8
 72
28
 73
24
 74
12
 0
VERTEX
 8
ANTA_CORNICE
 10
0
 20
0
 30
0
 70
128
 71
12
 72
24
 73
20
 74
16
 0
VERTEX
 8
ANTA_CORNICE
 10
0
 20
0
 30
0
 70
128
 71
29
 72
1
 73
5
 74
25
 0
VERTEX
 8
ANTA_CORNICE
 10
0
 20
0
 30
0
 70
128
 71
23
 72
27
 73
7
 74
11
 0
VERTEX
 8
ANTA_CORNICE
 10
0
 20
0
 30
0
 70
128
 71
22
 72
23
 73
11
 74
10
 0
VERTEX
 8
ANTA_CORNICE
 10
0
 20
0
 30
0
 70
128
 71
26
 72
22
 73
10
 74
6
 0
VERTEX
 8
ANTA_CORNICE
 10
0
 20
0
 30
0
 70
128
 71
27
 72
26
 73
6
 74
7
 0
SEQEND
 0
POLYLINE
 8
ANTA_FINESTRA
 66
1
 10
0.0
 20
0.0
 30
0.0
 70
64
 71
8
 72
6
 0
VERTEX
 8
ANTA_FINESTRA
 10
25.05
 20
-1.7656
 30
8.9728
 70
192
 0
VERTEX
 8
ANTA_FINESTRA
 10
25.05
 20
-1.7656
 30
38.9728
 70
192
 0
VERTEX
 8
ANTA_FINESTRA
 10
-25.05
 20
-1.2656
 30
38.9728
 70
192
 0
VERTEX
 8
ANTA_FINESTRA
 10
25.05
 20
-1.2656
 30
8.9728
 70
192
 0
VERTEX
 8
ANTA_FINESTRA
 10
25.05
 20
-1.2656
 30
38.9728
 70
192
 0
VERTEX
 8
ANTA_FINESTRA
 10
-25.05
 20
-1.7656
 30
8.9728
 70
192
 0
VERTEX
 8
ANTA_FINESTRA
 10
-25.05
 20
-1.7656
 30
38.9728
 70
192
 0
VERTEX
 8
ANTA_FINESTRA
 10
-25.05
 20
-1.2656
 30
8.9728
 70
192
 0
VERTEX
 8
ANTA_FINESTRA
 10
0
 20
0
 30
0
 70
128
 71
6
 72
7
 73
2
 74
1
 0
VERTEX
 8
ANTA_FINESTRA
 10
0
 20
0
 30
0
 70
128
 71
4
 72
5
 73
3
 74
8
 0
VERTEX
 8
ANTA_FINESTRA
 10
0
 20
0
 30
0
 70
128
 71
8
 72
3
 73
7
 74
6
 0
VERTEX
 8
ANTA_FINESTRA
 10
0
 20
0
 30
0
 70
128
 71
3
 72
5
 73
2
 74
7
 0
VERTEX
 8
ANTA_FINESTRA
 10
0
 20
0
 30
0
 70
128
 71
1
 72
2
 73
5
 74
4
 0
VERTEX
 8
ANTA_FINESTRA
 10
0
 20
0
 30
0
 70
128
 71
6
 72
1
 73
4
 74
8
 0
SEQEND
 0
ENDSEC
 0
EOF
