 0
SECTION
 2
HEADER
 9
$ACADVER
 1
AC1009
 0
ENDSEC
 0
SECTION
 2
TABLES
 0
TABLE
 2
LTYPE
 70
1
 0
LTYPE
 2
CONTINUOUS
 70
64
 3
solid line
 72
65
 73
0
 40
0.0
 0
ENDTAB
 0
TABLE
 2
LAYER
 70
6
 0
LAYER
 2
0
 70
0
 62
7
 6
CONTINUOUS
 0
LAYER
 2
F4BP28S1
 70
64
 62
7
 6
CONTINUOUS
 0
LAYER
 2
PULSANTEB
 70
64
 62
253
 6
CONTINUOUS
 0
LAYER
 2
PULSANTEA
 70
64
 62
253
 6
CONTINUOUS
 0
LAYER
 2
PULSANTE
 70
64
 62
253
 6
CONTINUOUS
 0
LAYER
 2
CILINDRO_2
 70
64
 62
253
 6
CONTINUOUS
 0
LAYER
 2
GRIGLIA2
 70
64
 62
253
 6
CONTINUOUS
 0
LAYER
 2
GRIGLIA1
 70
64
 62
253
 6
CONTINUOUS
 0
LAYER
 2
CUBO_2
 70
64
 62
253
 6
CONTINUOUS
 0
LAYER
 2
FARETTO1_1
 70
64
 62
253
 6
CONTINUOUS
 0
LAYER
 2
LUCE1_1
 70
64
 62
7
 6
CONTINUOUS
 0
LAYER
 2
FARETTO1
 70
64
 62
253
 6
CONTINUOUS
 0
LAYER
 2
LUCE1
 70
64
 62
7
 6
CONTINUOUS
 0
LAYER
 2
CASSA
 70
64
 62
253
 6
CONTINUOUS
 0
ENDTAB
 0
ENDSEC
 0
SECTION
 2
BLOCKS
 0
ENDSEC
 0
SECTION
 2
ENTITIES
 0
POLYLINE
 8
PULSANTEB
 66
1
 10
0.0
 20
0.0
 30
0.0
 70
64
 71
146
 72
108
 0
VERTEX
 8
PULSANTEB
 10
1.9036
 20
-13.8606
 30
0.223
 70
192
 0
VERTEX
 8
PULSANTEB
 10
1.9036
 20
-13.9977
 30
0.9381
 70
192
 0
VERTEX
 8
PULSANTEB
 10
2.1623
 20
-13.8606
 30
0.223
 70
192
 0
VERTEX
 8
PULSANTEB
 10
2.1623
 20
-13.8606
 30
0.223
 70
192
 0
VERTEX
 8
PULSANTEB
 10
2.1623
 20
-13.9977
 30
0.9381
 70
192
 0
VERTEX
 8
PULSANTEB
 10
2.1623
 20
-13.9977
 30
0.9381
 70
192
 0
VERTEX
 8
PULSANTEB
 10
2.1584
 20
-13.7411
 30
0.2459
 70
192
 0
VERTEX
 8
PULSANTEB
 10
2.1584
 20
-13.7411
 30
0.2459
 70
192
 0
VERTEX
 8
PULSANTEB
 10
2.1584
 20
-13.8782
 30
0.961
 70
192
 0
VERTEX
 8
PULSANTEB
 10
2.1584
 20
-13.8782
 30
0.961
 70
192
 0
VERTEX
 8
PULSANTEB
 10
2.1467
 20
-13.6253
 30
0.2681
 70
192
 0
VERTEX
 8
PULSANTEB
 10
2.1467
 20
-13.6253
 30
0.2681
 70
192
 0
VERTEX
 8
PULSANTEB
 10
2.1467
 20
-13.7624
 30
0.9832
 70
192
 0
VERTEX
 8
PULSANTEB
 10
2.1467
 20
-13.7624
 30
0.9832
 70
192
 0
VERTEX
 8
PULSANTEB
 10
2.1276
 20
-13.5166
 30
0.2889
 70
192
 0
VERTEX
 8
PULSANTEB
 10
2.1276
 20
-13.5166
 30
0.2889
 70
192
 0
VERTEX
 8
PULSANTEB
 10
2.1276
 20
-13.6537
 30
1.0041
 70
192
 0
VERTEX
 8
PULSANTEB
 10
2.1276
 20
-13.6537
 30
1.0041
 70
192
 0
VERTEX
 8
PULSANTEB
 10
2.1018
 20
-13.4183
 30
0.3078
 70
192
 0
VERTEX
 8
PULSANTEB
 10
2.1018
 20
-13.4183
 30
0.3078
 70
192
 0
VERTEX
 8
PULSANTEB
 10
2.1018
 20
-13.5555
 30
1.0229
 70
192
 0
VERTEX
 8
PULSANTEB
 10
2.1018
 20
-13.5555
 30
1.0229
 70
192
 0
VERTEX
 8
PULSANTEB
 10
2.0699
 20
-13.3335
 30
0.324
 70
192
 0
VERTEX
 8
PULSANTEB
 10
2.0699
 20
-13.3335
 30
0.324
 70
192
 0
VERTEX
 8
PULSANTEB
 10
2.0699
 20
-13.4707
 30
1.0392
 70
192
 0
VERTEX
 8
PULSANTEB
 10
2.0699
 20
-13.4707
 30
1.0392
 70
192
 0
VERTEX
 8
PULSANTEB
 10
2.033
 20
-13.2647
 30
0.3372
 70
192
 0
VERTEX
 8
PULSANTEB
 10
2.033
 20
-13.2647
 30
0.3372
 70
192
 0
VERTEX
 8
PULSANTEB
 10
2.033
 20
-13.4019
 30
1.0524
 70
192
 0
VERTEX
 8
PULSANTEB
 10
2.033
 20
-13.4019
 30
1.0524
 70
192
 0
VERTEX
 8
PULSANTEB
 10
1.9921
 20
-13.214
 30
0.3469
 70
192
 0
VERTEX
 8
PULSANTEB
 10
1.9921
 20
-13.214
 30
0.3469
 70
192
 0
VERTEX
 8
PULSANTEB
 10
1.9921
 20
-13.3512
 30
1.0621
 70
192
 0
VERTEX
 8
PULSANTEB
 10
1.9921
 20
-13.3512
 30
1.0621
 70
192
 0
VERTEX
 8
PULSANTEB
 10
1.9485
 20
-13.183
 30
0.3529
 70
192
 0
VERTEX
 8
PULSANTEB
 10
1.9485
 20
-13.183
 30
0.3529
 70
192
 0
VERTEX
 8
PULSANTEB
 10
1.9485
 20
-13.3201
 30
1.068
 70
192
 0
VERTEX
 8
PULSANTEB
 10
1.9485
 20
-13.3201
 30
1.068
 70
192
 0
VERTEX
 8
PULSANTEB
 10
1.9036
 20
-13.1726
 30
0.3549
 70
192
 0
VERTEX
 8
PULSANTEB
 10
1.9036
 20
-13.1726
 30
0.3549
 70
192
 0
VERTEX
 8
PULSANTEB
 10
1.9036
 20
-13.3097
 30
1.07
 70
192
 0
VERTEX
 8
PULSANTEB
 10
1.9036
 20
-13.3097
 30
1.07
 70
192
 0
VERTEX
 8
PULSANTEB
 10
1.8587
 20
-13.183
 30
0.3529
 70
192
 0
VERTEX
 8
PULSANTEB
 10
1.8587
 20
-13.183
 30
0.3529
 70
192
 0
VERTEX
 8
PULSANTEB
 10
1.8587
 20
-13.3201
 30
1.068
 70
192
 0
VERTEX
 8
PULSANTEB
 10
1.8587
 20
-13.3201
 30
1.068
 70
192
 0
VERTEX
 8
PULSANTEB
 10
1.8151
 20
-13.214
 30
0.3469
 70
192
 0
VERTEX
 8
PULSANTEB
 10
1.8151
 20
-13.214
 30
0.3469
 70
192
 0
VERTEX
 8
PULSANTEB
 10
1.8151
 20
-13.3512
 30
1.0621
 70
192
 0
VERTEX
 8
PULSANTEB
 10
1.8151
 20
-13.3512
 30
1.0621
 70
192
 0
VERTEX
 8
PULSANTEB
 10
1.7742
 20
-13.2647
 30
0.3372
 70
192
 0
VERTEX
 8
PULSANTEB
 10
1.7742
 20
-13.2647
 30
0.3372
 70
192
 0
VERTEX
 8
PULSANTEB
 10
1.7742
 20
-13.4019
 30
1.0524
 70
192
 0
VERTEX
 8
PULSANTEB
 10
1.7742
 20
-13.4019
 30
1.0524
 70
192
 0
VERTEX
 8
PULSANTEB
 10
1.7373
 20
-13.3335
 30
0.324
 70
192
 0
VERTEX
 8
PULSANTEB
 10
1.7373
 20
-13.3335
 30
0.324
 70
192
 0
VERTEX
 8
PULSANTEB
 10
1.7373
 20
-13.4707
 30
1.0392
 70
192
 0
VERTEX
 8
PULSANTEB
 10
1.7373
 20
-13.4707
 30
1.0392
 70
192
 0
VERTEX
 8
PULSANTEB
 10
1.7054
 20
-13.4183
 30
0.3078
 70
192
 0
VERTEX
 8
PULSANTEB
 10
1.7054
 20
-13.4183
 30
0.3078
 70
192
 0
VERTEX
 8
PULSANTEB
 10
1.7054
 20
-13.5555
 30
1.0229
 70
192
 0
VERTEX
 8
PULSANTEB
 10
1.7054
 20
-13.5555
 30
1.0229
 70
192
 0
VERTEX
 8
PULSANTEB
 10
1.6796
 20
-13.5166
 30
0.2889
 70
192
 0
VERTEX
 8
PULSANTEB
 10
1.6796
 20
-13.5166
 30
0.2889
 70
192
 0
VERTEX
 8
PULSANTEB
 10
1.6796
 20
-13.6537
 30
1.0041
 70
192
 0
VERTEX
 8
PULSANTEB
 10
1.6796
 20
-13.6537
 30
1.0041
 70
192
 0
VERTEX
 8
PULSANTEB
 10
1.6605
 20
-13.6253
 30
0.2681
 70
192
 0
VERTEX
 8
PULSANTEB
 10
1.6605
 20
-13.6253
 30
0.2681
 70
192
 0
VERTEX
 8
PULSANTEB
 10
1.6605
 20
-13.7624
 30
0.9832
 70
192
 0
VERTEX
 8
PULSANTEB
 10
1.6605
 20
-13.7624
 30
0.9832
 70
192
 0
VERTEX
 8
PULSANTEB
 10
1.6488
 20
-13.7411
 30
0.2459
 70
192
 0
VERTEX
 8
PULSANTEB
 10
1.6488
 20
-13.7411
 30
0.2459
 70
192
 0
VERTEX
 8
PULSANTEB
 10
1.6488
 20
-13.8782
 30
0.961
 70
192
 0
VERTEX
 8
PULSANTEB
 10
1.6488
 20
-13.8782
 30
0.961
 70
192
 0
VERTEX
 8
PULSANTEB
 10
1.6449
 20
-13.8606
 30
0.223
 70
192
 0
VERTEX
 8
PULSANTEB
 10
1.6449
 20
-13.8606
 30
0.223
 70
192
 0
VERTEX
 8
PULSANTEB
 10
1.6449
 20
-13.9977
 30
0.9381
 70
192
 0
VERTEX
 8
PULSANTEB
 10
1.6449
 20
-13.9977
 30
0.9381
 70
192
 0
VERTEX
 8
PULSANTEB
 10
1.6488
 20
-13.9801
 30
0.2001
 70
192
 0
VERTEX
 8
PULSANTEB
 10
1.6488
 20
-13.9801
 30
0.2001
 70
192
 0
VERTEX
 8
PULSANTEB
 10
1.6488
 20
-14.1172
 30
0.9152
 70
192
 0
VERTEX
 8
PULSANTEB
 10
1.6488
 20
-14.1172
 30
0.9152
 70
192
 0
VERTEX
 8
PULSANTEB
 10
1.6605
 20
-14.0959
 30
0.1778
 70
192
 0
VERTEX
 8
PULSANTEB
 10
1.6605
 20
-14.0959
 30
0.1778
 70
192
 0
VERTEX
 8
PULSANTEB
 10
1.6605
 20
-14.233
 30
0.893
 70
192
 0
VERTEX
 8
PULSANTEB
 10
1.6605
 20
-14.233
 30
0.893
 70
192
 0
VERTEX
 8
PULSANTEB
 10
1.6796
 20
-14.2046
 30
0.157
 70
192
 0
VERTEX
 8
PULSANTEB
 10
1.6796
 20
-14.2046
 30
0.157
 70
192
 0
VERTEX
 8
PULSANTEB
 10
1.6796
 20
-14.3417
 30
0.8721
 70
192
 0
VERTEX
 8
PULSANTEB
 10
1.6796
 20
-14.3417
 30
0.8721
 70
192
 0
VERTEX
 8
PULSANTEB
 10
1.7054
 20
-14.3028
 30
0.1382
 70
192
 0
VERTEX
 8
PULSANTEB
 10
1.7054
 20
-14.3028
 30
0.1382
 70
192
 0
VERTEX
 8
PULSANTEB
 10
1.7054
 20
-14.44
 30
0.8533
 70
192
 0
VERTEX
 8
PULSANTEB
 10
1.7054
 20
-14.44
 30
0.8533
 70
192
 0
VERTEX
 8
PULSANTEB
 10
1.7373
 20
-14.3876
 30
0.1219
 70
192
 0
VERTEX
 8
PULSANTEB
 10
1.7373
 20
-14.3876
 30
0.1219
 70
192
 0
VERTEX
 8
PULSANTEB
 10
1.7373
 20
-14.5248
 30
0.837
 70
192
 0
VERTEX
 8
PULSANTEB
 10
1.7373
 20
-14.5248
 30
0.837
 70
192
 0
VERTEX
 8
PULSANTEB
 10
1.7742
 20
-14.4564
 30
0.1087
 70
192
 0
VERTEX
 8
PULSANTEB
 10
1.7742
 20
-14.4564
 30
0.1087
 70
192
 0
VERTEX
 8
PULSANTEB
 10
1.7742
 20
-14.5936
 30
0.8238
 70
192
 0
VERTEX
 8
PULSANTEB
 10
1.7742
 20
-14.5936
 30
0.8238
 70
192
 0
VERTEX
 8
PULSANTEB
 10
1.8151
 20
-14.5071
 30
0.099
 70
192
 0
VERTEX
 8
PULSANTEB
 10
1.8151
 20
-14.5071
 30
0.099
 70
192
 0
VERTEX
 8
PULSANTEB
 10
1.8151
 20
-14.6442
 30
0.8141
 70
192
 0
VERTEX
 8
PULSANTEB
 10
1.8151
 20
-14.6442
 30
0.8141
 70
192
 0
VERTEX
 8
PULSANTEB
 10
1.8587
 20
-14.5382
 30
0.093
 70
192
 0
VERTEX
 8
PULSANTEB
 10
1.8587
 20
-14.5382
 30
0.093
 70
192
 0
VERTEX
 8
PULSANTEB
 10
1.8587
 20
-14.6753
 30
0.8082
 70
192
 0
VERTEX
 8
PULSANTEB
 10
1.8587
 20
-14.6753
 30
0.8082
 70
192
 0
VERTEX
 8
PULSANTEB
 10
1.9036
 20
-14.5486
 30
0.091
 70
192
 0
VERTEX
 8
PULSANTEB
 10
1.9036
 20
-14.5486
 30
0.091
 70
192
 0
VERTEX
 8
PULSANTEB
 10
1.9036
 20
-14.6857
 30
0.8062
 70
192
 0
VERTEX
 8
PULSANTEB
 10
1.9036
 20
-14.6857
 30
0.8062
 70
192
 0
VERTEX
 8
PULSANTEB
 10
1.9485
 20
-14.5382
 30
0.093
 70
192
 0
VERTEX
 8
PULSANTEB
 10
1.9485
 20
-14.5382
 30
0.093
 70
192
 0
VERTEX
 8
PULSANTEB
 10
1.9485
 20
-14.6753
 30
0.8082
 70
192
 0
VERTEX
 8
PULSANTEB
 10
1.9485
 20
-14.6753
 30
0.8082
 70
192
 0
VERTEX
 8
PULSANTEB
 10
1.9921
 20
-14.5071
 30
0.099
 70
192
 0
VERTEX
 8
PULSANTEB
 10
1.9921
 20
-14.5071
 30
0.099
 70
192
 0
VERTEX
 8
PULSANTEB
 10
1.9921
 20
-14.6442
 30
0.8141
 70
192
 0
VERTEX
 8
PULSANTEB
 10
1.9921
 20
-14.6442
 30
0.8141
 70
192
 0
VERTEX
 8
PULSANTEB
 10
2.033
 20
-14.4564
 30
0.1087
 70
192
 0
VERTEX
 8
PULSANTEB
 10
2.033
 20
-14.4564
 30
0.1087
 70
192
 0
VERTEX
 8
PULSANTEB
 10
2.033
 20
-14.5936
 30
0.8238
 70
192
 0
VERTEX
 8
PULSANTEB
 10
2.033
 20
-14.5936
 30
0.8238
 70
192
 0
VERTEX
 8
PULSANTEB
 10
2.0699
 20
-14.3876
 30
0.1219
 70
192
 0
VERTEX
 8
PULSANTEB
 10
2.0699
 20
-14.3876
 30
0.1219
 70
192
 0
VERTEX
 8
PULSANTEB
 10
2.0699
 20
-14.5248
 30
0.837
 70
192
 0
VERTEX
 8
PULSANTEB
 10
2.0699
 20
-14.5248
 30
0.837
 70
192
 0
VERTEX
 8
PULSANTEB
 10
2.1018
 20
-14.3028
 30
0.1382
 70
192
 0
VERTEX
 8
PULSANTEB
 10
2.1018
 20
-14.3028
 30
0.1382
 70
192
 0
VERTEX
 8
PULSANTEB
 10
2.1018
 20
-14.44
 30
0.8533
 70
192
 0
VERTEX
 8
PULSANTEB
 10
2.1018
 20
-14.44
 30
0.8533
 70
192
 0
VERTEX
 8
PULSANTEB
 10
2.1276
 20
-14.2046
 30
0.157
 70
192
 0
VERTEX
 8
PULSANTEB
 10
2.1276
 20
-14.2046
 30
0.157
 70
192
 0
VERTEX
 8
PULSANTEB
 10
2.1276
 20
-14.3417
 30
0.8721
 70
192
 0
VERTEX
 8
PULSANTEB
 10
2.1276
 20
-14.3417
 30
0.8721
 70
192
 0
VERTEX
 8
PULSANTEB
 10
2.1467
 20
-14.0959
 30
0.1778
 70
192
 0
VERTEX
 8
PULSANTEB
 10
2.1467
 20
-14.0959
 30
0.1778
 70
192
 0
VERTEX
 8
PULSANTEB
 10
2.1467
 20
-14.233
 30
0.893
 70
192
 0
VERTEX
 8
PULSANTEB
 10
2.1467
 20
-14.233
 30
0.893
 70
192
 0
VERTEX
 8
PULSANTEB
 10
2.1584
 20
-13.9801
 30
0.2001
 70
192
 0
VERTEX
 8
PULSANTEB
 10
2.1584
 20
-13.9801
 30
0.2001
 70
192
 0
VERTEX
 8
PULSANTEB
 10
2.1584
 20
-14.1172
 30
0.9152
 70
192
 0
VERTEX
 8
PULSANTEB
 10
2.1584
 20
-14.1172
 30
0.9152
 70
192
 0
VERTEX
 8
PULSANTEB
 10
0
 20
0
 30
0
 70
128
 71
1
 72
3
 73
7
 74
7
 0
VERTEX
 8
PULSANTEB
 10
0
 20
0
 30
0
 70
128
 71
4
 72
5
 73
9
 74
8
 0
VERTEX
 8
PULSANTEB
 10
0
 20
0
 30
0
 70
128
 71
6
 72
2
 73
10
 74
10
 0
VERTEX
 8
PULSANTEB
 10
0
 20
0
 30
0
 70
128
 71
1
 72
7
 73
11
 74
11
 0
VERTEX
 8
PULSANTEB
 10
0
 20
0
 30
0
 70
128
 71
8
 72
9
 73
13
 74
12
 0
VERTEX
 8
PULSANTEB
 10
0
 20
0
 30
0
 70
128
 71
10
 72
2
 73
14
 74
14
 0
VERTEX
 8
PULSANTEB
 10
0
 20
0
 30
0
 70
128
 71
1
 72
11
 73
15
 74
15
 0
VERTEX
 8
PULSANTEB
 10
0
 20
0
 30
0
 70
128
 71
12
 72
13
 73
17
 74
16
 0
VERTEX
 8
PULSANTEB
 10
0
 20
0
 30
0
 70
128
 71
14
 72
2
 73
18
 74
18
 0
VERTEX
 8
PULSANTEB
 10
0
 20
0
 30
0
 70
128
 71
1
 72
15
 73
19
 74
19
 0
VERTEX
 8
PULSANTEB
 10
0
 20
0
 30
0
 70
128
 71
16
 72
17
 73
21
 74
20
 0
VERTEX
 8
PULSANTEB
 10
0
 20
0
 30
0
 70
128
 71
18
 72
2
 73
22
 74
22
 0
VERTEX
 8
PULSANTEB
 10
0
 20
0
 30
0
 70
128
 71
1
 72
19
 73
23
 74
23
 0
VERTEX
 8
PULSANTEB
 10
0
 20
0
 30
0
 70
128
 71
20
 72
21
 73
25
 74
24
 0
VERTEX
 8
PULSANTEB
 10
0
 20
0
 30
0
 70
128
 71
22
 72
2
 73
26
 74
26
 0
VERTEX
 8
PULSANTEB
 10
0
 20
0
 30
0
 70
128
 71
1
 72
23
 73
27
 74
27
 0
VERTEX
 8
PULSANTEB
 10
0
 20
0
 30
0
 70
128
 71
24
 72
25
 73
29
 74
28
 0
VERTEX
 8
PULSANTEB
 10
0
 20
0
 30
0
 70
128
 71
26
 72
2
 73
30
 74
30
 0
VERTEX
 8
PULSANTEB
 10
0
 20
0
 30
0
 70
128
 71
1
 72
27
 73
31
 74
31
 0
VERTEX
 8
PULSANTEB
 10
0
 20
0
 30
0
 70
128
 71
28
 72
29
 73
33
 74
32
 0
VERTEX
 8
PULSANTEB
 10
0
 20
0
 30
0
 70
128
 71
30
 72
2
 73
34
 74
34
 0
VERTEX
 8
PULSANTEB
 10
0
 20
0
 30
0
 70
128
 71
1
 72
31
 73
35
 74
35
 0
VERTEX
 8
PULSANTEB
 10
0
 20
0
 30
0
 70
128
 71
32
 72
33
 73
37
 74
36
 0
VERTEX
 8
PULSANTEB
 10
0
 20
0
 30
0
 70
128
 71
34
 72
2
 73
38
 74
38
 0
VERTEX
 8
PULSANTEB
 10
0
 20
0
 30
0
 70
128
 71
1
 72
35
 73
39
 74
39
 0
VERTEX
 8
PULSANTEB
 10
0
 20
0
 30
0
 70
128
 71
36
 72
37
 73
41
 74
40
 0
VERTEX
 8
PULSANTEB
 10
0
 20
0
 30
0
 70
128
 71
38
 72
2
 73
42
 74
42
 0
VERTEX
 8
PULSANTEB
 10
0
 20
0
 30
0
 70
128
 71
1
 72
39
 73
43
 74
43
 0
VERTEX
 8
PULSANTEB
 10
0
 20
0
 30
0
 70
128
 71
40
 72
41
 73
45
 74
44
 0
VERTEX
 8
PULSANTEB
 10
0
 20
0
 30
0
 70
128
 71
42
 72
2
 73
46
 74
46
 0
VERTEX
 8
PULSANTEB
 10
0
 20
0
 30
0
 70
128
 71
1
 72
43
 73
47
 74
47
 0
VERTEX
 8
PULSANTEB
 10
0
 20
0
 30
0
 70
128
 71
44
 72
45
 73
49
 74
48
 0
VERTEX
 8
PULSANTEB
 10
0
 20
0
 30
0
 70
128
 71
46
 72
2
 73
50
 74
50
 0
VERTEX
 8
PULSANTEB
 10
0
 20
0
 30
0
 70
128
 71
1
 72
47
 73
51
 74
51
 0
VERTEX
 8
PULSANTEB
 10
0
 20
0
 30
0
 70
128
 71
48
 72
49
 73
53
 74
52
 0
VERTEX
 8
PULSANTEB
 10
0
 20
0
 30
0
 70
128
 71
50
 72
2
 73
54
 74
54
 0
VERTEX
 8
PULSANTEB
 10
0
 20
0
 30
0
 70
128
 71
1
 72
51
 73
55
 74
55
 0
VERTEX
 8
PULSANTEB
 10
0
 20
0
 30
0
 70
128
 71
52
 72
53
 73
57
 74
56
 0
VERTEX
 8
PULSANTEB
 10
0
 20
0
 30
0
 70
128
 71
54
 72
2
 73
58
 74
58
 0
VERTEX
 8
PULSANTEB
 10
0
 20
0
 30
0
 70
128
 71
1
 72
55
 73
59
 74
59
 0
VERTEX
 8
PULSANTEB
 10
0
 20
0
 30
0
 70
128
 71
56
 72
57
 73
61
 74
60
 0
VERTEX
 8
PULSANTEB
 10
0
 20
0
 30
0
 70
128
 71
58
 72
2
 73
62
 74
62
 0
VERTEX
 8
PULSANTEB
 10
0
 20
0
 30
0
 70
128
 71
1
 72
59
 73
63
 74
63
 0
VERTEX
 8
PULSANTEB
 10
0
 20
0
 30
0
 70
128
 71
60
 72
61
 73
65
 74
64
 0
VERTEX
 8
PULSANTEB
 10
0
 20
0
 30
0
 70
128
 71
62
 72
2
 73
66
 74
66
 0
VERTEX
 8
PULSANTEB
 10
0
 20
0
 30
0
 70
128
 71
1
 72
63
 73
67
 74
67
 0
VERTEX
 8
PULSANTEB
 10
0
 20
0
 30
0
 70
128
 71
64
 72
65
 73
69
 74
68
 0
VERTEX
 8
PULSANTEB
 10
0
 20
0
 30
0
 70
128
 71
66
 72
2
 73
70
 74
70
 0
VERTEX
 8
PULSANTEB
 10
0
 20
0
 30
0
 70
128
 71
1
 72
67
 73
71
 74
71
 0
VERTEX
 8
PULSANTEB
 10
0
 20
0
 30
0
 70
128
 71
68
 72
69
 73
73
 74
72
 0
VERTEX
 8
PULSANTEB
 10
0
 20
0
 30
0
 70
128
 71
70
 72
2
 73
74
 74
74
 0
VERTEX
 8
PULSANTEB
 10
0
 20
0
 30
0
 70
128
 71
1
 72
71
 73
75
 74
75
 0
VERTEX
 8
PULSANTEB
 10
0
 20
0
 30
0
 70
128
 71
72
 72
73
 73
77
 74
76
 0
VERTEX
 8
PULSANTEB
 10
0
 20
0
 30
0
 70
128
 71
74
 72
2
 73
78
 74
78
 0
VERTEX
 8
PULSANTEB
 10
0
 20
0
 30
0
 70
128
 71
1
 72
75
 73
79
 74
79
 0
VERTEX
 8
PULSANTEB
 10
0
 20
0
 30
0
 70
128
 71
76
 72
77
 73
81
 74
80
 0
VERTEX
 8
PULSANTEB
 10
0
 20
0
 30
0
 70
128
 71
78
 72
2
 73
82
 74
82
 0
VERTEX
 8
PULSANTEB
 10
0
 20
0
 30
0
 70
128
 71
1
 72
79
 73
83
 74
83
 0
VERTEX
 8
PULSANTEB
 10
0
 20
0
 30
0
 70
128
 71
80
 72
81
 73
85
 74
84
 0
VERTEX
 8
PULSANTEB
 10
0
 20
0
 30
0
 70
128
 71
82
 72
2
 73
86
 74
86
 0
VERTEX
 8
PULSANTEB
 10
0
 20
0
 30
0
 70
128
 71
1
 72
83
 73
87
 74
87
 0
VERTEX
 8
PULSANTEB
 10
0
 20
0
 30
0
 70
128
 71
84
 72
85
 73
89
 74
88
 0
VERTEX
 8
PULSANTEB
 10
0
 20
0
 30
0
 70
128
 71
86
 72
2
 73
90
 74
90
 0
VERTEX
 8
PULSANTEB
 10
0
 20
0
 30
0
 70
128
 71
1
 72
87
 73
91
 74
91
 0
VERTEX
 8
PULSANTEB
 10
0
 20
0
 30
0
 70
128
 71
88
 72
89
 73
93
 74
92
 0
VERTEX
 8
PULSANTEB
 10
0
 20
0
 30
0
 70
128
 71
90
 72
2
 73
94
 74
94
 0
VERTEX
 8
PULSANTEB
 10
0
 20
0
 30
0
 70
128
 71
1
 72
91
 73
95
 74
95
 0
VERTEX
 8
PULSANTEB
 10
0
 20
0
 30
0
 70
128
 71
92
 72
93
 73
97
 74
96
 0
VERTEX
 8
PULSANTEB
 10
0
 20
0
 30
0
 70
128
 71
94
 72
2
 73
98
 74
98
 0
VERTEX
 8
PULSANTEB
 10
0
 20
0
 30
0
 70
128
 71
1
 72
95
 73
99
 74
99
 0
VERTEX
 8
PULSANTEB
 10
0
 20
0
 30
0
 70
128
 71
96
 72
97
 73
101
 74
100
 0
VERTEX
 8
PULSANTEB
 10
0
 20
0
 30
0
 70
128
 71
98
 72
2
 73
102
 74
102
 0
VERTEX
 8
PULSANTEB
 10
0
 20
0
 30
0
 70
128
 71
1
 72
99
 73
103
 74
103
 0
VERTEX
 8
PULSANTEB
 10
0
 20
0
 30
0
 70
128
 71
100
 72
101
 73
105
 74
104
 0
VERTEX
 8
PULSANTEB
 10
0
 20
0
 30
0
 70
128
 71
102
 72
2
 73
106
 74
106
 0
VERTEX
 8
PULSANTEB
 10
0
 20
0
 30
0
 70
128
 71
1
 72
103
 73
107
 74
107
 0
VERTEX
 8
PULSANTEB
 10
0
 20
0
 30
0
 70
128
 71
104
 72
105
 73
109
 74
108
 0
VERTEX
 8
PULSANTEB
 10
0
 20
0
 30
0
 70
128
 71
106
 72
2
 73
110
 74
110
 0
VERTEX
 8
PULSANTEB
 10
0
 20
0
 30
0
 70
128
 71
1
 72
107
 73
111
 74
111
 0
VERTEX
 8
PULSANTEB
 10
0
 20
0
 30
0
 70
128
 71
108
 72
109
 73
113
 74
112
 0
VERTEX
 8
PULSANTEB
 10
0
 20
0
 30
0
 70
128
 71
110
 72
2
 73
114
 74
114
 0
VERTEX
 8
PULSANTEB
 10
0
 20
0
 30
0
 70
128
 71
1
 72
111
 73
115
 74
115
 0
VERTEX
 8
PULSANTEB
 10
0
 20
0
 30
0
 70
128
 71
112
 72
113
 73
117
 74
116
 0
VERTEX
 8
PULSANTEB
 10
0
 20
0
 30
0
 70
128
 71
114
 72
2
 73
118
 74
118
 0
VERTEX
 8
PULSANTEB
 10
0
 20
0
 30
0
 70
128
 71
1
 72
115
 73
119
 74
119
 0
VERTEX
 8
PULSANTEB
 10
0
 20
0
 30
0
 70
128
 71
116
 72
117
 73
121
 74
120
 0
VERTEX
 8
PULSANTEB
 10
0
 20
0
 30
0
 70
128
 71
118
 72
2
 73
122
 74
122
 0
VERTEX
 8
PULSANTEB
 10
0
 20
0
 30
0
 70
128
 71
1
 72
119
 73
123
 74
123
 0
VERTEX
 8
PULSANTEB
 10
0
 20
0
 30
0
 70
128
 71
120
 72
121
 73
125
 74
124
 0
VERTEX
 8
PULSANTEB
 10
0
 20
0
 30
0
 70
128
 71
122
 72
2
 73
126
 74
126
 0
VERTEX
 8
PULSANTEB
 10
0
 20
0
 30
0
 70
128
 71
1
 72
123
 73
127
 74
127
 0
VERTEX
 8
PULSANTEB
 10
0
 20
0
 30
0
 70
128
 71
124
 72
125
 73
129
 74
128
 0
VERTEX
 8
PULSANTEB
 10
0
 20
0
 30
0
 70
128
 71
126
 72
2
 73
130
 74
130
 0
VERTEX
 8
PULSANTEB
 10
0
 20
0
 30
0
 70
128
 71
1
 72
127
 73
131
 74
131
 0
VERTEX
 8
PULSANTEB
 10
0
 20
0
 30
0
 70
128
 71
128
 72
129
 73
133
 74
132
 0
VERTEX
 8
PULSANTEB
 10
0
 20
0
 30
0
 70
128
 71
130
 72
2
 73
134
 74
134
 0
VERTEX
 8
PULSANTEB
 10
0
 20
0
 30
0
 70
128
 71
1
 72
131
 73
135
 74
135
 0
VERTEX
 8
PULSANTEB
 10
0
 20
0
 30
0
 70
128
 71
132
 72
133
 73
137
 74
136
 0
VERTEX
 8
PULSANTEB
 10
0
 20
0
 30
0
 70
128
 71
134
 72
2
 73
138
 74
138
 0
VERTEX
 8
PULSANTEB
 10
0
 20
0
 30
0
 70
128
 71
1
 72
135
 73
139
 74
139
 0
VERTEX
 8
PULSANTEB
 10
0
 20
0
 30
0
 70
128
 71
136
 72
137
 73
141
 74
140
 0
VERTEX
 8
PULSANTEB
 10
0
 20
0
 30
0
 70
128
 71
138
 72
2
 73
142
 74
142
 0
VERTEX
 8
PULSANTEB
 10
0
 20
0
 30
0
 70
128
 71
1
 72
139
 73
143
 74
143
 0
VERTEX
 8
PULSANTEB
 10
0
 20
0
 30
0
 70
128
 71
140
 72
141
 73
145
 74
144
 0
VERTEX
 8
PULSANTEB
 10
0
 20
0
 30
0
 70
128
 71
142
 72
2
 73
146
 74
146
 0
VERTEX
 8
PULSANTEB
 10
0
 20
0
 30
0
 70
128
 71
1
 72
143
 73
3
 74
3
 0
VERTEX
 8
PULSANTEB
 10
0
 20
0
 30
0
 70
128
 71
144
 72
145
 73
5
 74
4
 0
VERTEX
 8
PULSANTEB
 10
0
 20
0
 30
0
 70
128
 71
146
 72
2
 73
6
 74
6
 0
SEQEND
 0
POLYLINE
 8
PULSANTEA
 66
1
 10
0.0
 20
0.0
 30
0.0
 70
64
 71
146
 72
108
 0
VERTEX
 8
PULSANTEA
 10
-4.597
 20
-13.8606
 30
0.223
 70
192
 0
VERTEX
 8
PULSANTEA
 10
-4.597
 20
-13.9977
 30
0.9381
 70
192
 0
VERTEX
 8
PULSANTEA
 10
-4.3383
 20
-13.8606
 30
0.223
 70
192
 0
VERTEX
 8
PULSANTEA
 10
-4.3383
 20
-13.8606
 30
0.223
 70
192
 0
VERTEX
 8
PULSANTEA
 10
-4.3383
 20
-13.9977
 30
0.9381
 70
192
 0
VERTEX
 8
PULSANTEA
 10
-4.3383
 20
-13.9977
 30
0.9381
 70
192
 0
VERTEX
 8
PULSANTEA
 10
-4.3422
 20
-13.7411
 30
0.2459
 70
192
 0
VERTEX
 8
PULSANTEA
 10
-4.3422
 20
-13.7411
 30
0.2459
 70
192
 0
VERTEX
 8
PULSANTEA
 10
-4.3422
 20
-13.8782
 30
0.961
 70
192
 0
VERTEX
 8
PULSANTEA
 10
-4.3422
 20
-13.8782
 30
0.961
 70
192
 0
VERTEX
 8
PULSANTEA
 10
-4.3539
 20
-13.6253
 30
0.2681
 70
192
 0
VERTEX
 8
PULSANTEA
 10
-4.3539
 20
-13.6253
 30
0.2681
 70
192
 0
VERTEX
 8
PULSANTEA
 10
-4.3539
 20
-13.7624
 30
0.9832
 70
192
 0
VERTEX
 8
PULSANTEA
 10
-4.3539
 20
-13.7624
 30
0.9832
 70
192
 0
VERTEX
 8
PULSANTEA
 10
-4.373
 20
-13.5166
 30
0.2889
 70
192
 0
VERTEX
 8
PULSANTEA
 10
-4.373
 20
-13.5166
 30
0.2889
 70
192
 0
VERTEX
 8
PULSANTEA
 10
-4.373
 20
-13.6537
 30
1.0041
 70
192
 0
VERTEX
 8
PULSANTEA
 10
-4.373
 20
-13.6537
 30
1.0041
 70
192
 0
VERTEX
 8
PULSANTEA
 10
-4.3988
 20
-13.4183
 30
0.3078
 70
192
 0
VERTEX
 8
PULSANTEA
 10
-4.3988
 20
-13.4183
 30
0.3078
 70
192
 0
VERTEX
 8
PULSANTEA
 10
-4.3988
 20
-13.5555
 30
1.0229
 70
192
 0
VERTEX
 8
PULSANTEA
 10
-4.3988
 20
-13.5555
 30
1.0229
 70
192
 0
VERTEX
 8
PULSANTEA
 10
-4.4307
 20
-13.3335
 30
0.324
 70
192
 0
VERTEX
 8
PULSANTEA
 10
-4.4307
 20
-13.3335
 30
0.324
 70
192
 0
VERTEX
 8
PULSANTEA
 10
-4.4307
 20
-13.4707
 30
1.0392
 70
192
 0
VERTEX
 8
PULSANTEA
 10
-4.4307
 20
-13.4707
 30
1.0392
 70
192
 0
VERTEX
 8
PULSANTEA
 10
-4.4677
 20
-13.2647
 30
0.3372
 70
192
 0
VERTEX
 8
PULSANTEA
 10
-4.4677
 20
-13.2647
 30
0.3372
 70
192
 0
VERTEX
 8
PULSANTEA
 10
-4.4677
 20
-13.4019
 30
1.0524
 70
192
 0
VERTEX
 8
PULSANTEA
 10
-4.4677
 20
-13.4019
 30
1.0524
 70
192
 0
VERTEX
 8
PULSANTEA
 10
-4.5085
 20
-13.214
 30
0.3469
 70
192
 0
VERTEX
 8
PULSANTEA
 10
-4.5085
 20
-13.214
 30
0.3469
 70
192
 0
VERTEX
 8
PULSANTEA
 10
-4.5085
 20
-13.3512
 30
1.0621
 70
192
 0
VERTEX
 8
PULSANTEA
 10
-4.5085
 20
-13.3512
 30
1.0621
 70
192
 0
VERTEX
 8
PULSANTEA
 10
-4.5521
 20
-13.183
 30
0.3529
 70
192
 0
VERTEX
 8
PULSANTEA
 10
-4.5521
 20
-13.183
 30
0.3529
 70
192
 0
VERTEX
 8
PULSANTEA
 10
-4.5521
 20
-13.3201
 30
1.068
 70
192
 0
VERTEX
 8
PULSANTEA
 10
-4.5521
 20
-13.3201
 30
1.068
 70
192
 0
VERTEX
 8
PULSANTEA
 10
-4.597
 20
-13.1726
 30
0.3549
 70
192
 0
VERTEX
 8
PULSANTEA
 10
-4.597
 20
-13.1726
 30
0.3549
 70
192
 0
VERTEX
 8
PULSANTEA
 10
-4.597
 20
-13.3097
 30
1.07
 70
192
 0
VERTEX
 8
PULSANTEA
 10
-4.597
 20
-13.3097
 30
1.07
 70
192
 0
VERTEX
 8
PULSANTEA
 10
-4.6419
 20
-13.183
 30
0.3529
 70
192
 0
VERTEX
 8
PULSANTEA
 10
-4.6419
 20
-13.183
 30
0.3529
 70
192
 0
VERTEX
 8
PULSANTEA
 10
-4.6419
 20
-13.3201
 30
1.068
 70
192
 0
VERTEX
 8
PULSANTEA
 10
-4.6419
 20
-13.3201
 30
1.068
 70
192
 0
VERTEX
 8
PULSANTEA
 10
-4.6855
 20
-13.214
 30
0.3469
 70
192
 0
VERTEX
 8
PULSANTEA
 10
-4.6855
 20
-13.214
 30
0.3469
 70
192
 0
VERTEX
 8
PULSANTEA
 10
-4.6855
 20
-13.3512
 30
1.0621
 70
192
 0
VERTEX
 8
PULSANTEA
 10
-4.6855
 20
-13.3512
 30
1.0621
 70
192
 0
VERTEX
 8
PULSANTEA
 10
-4.7264
 20
-13.2647
 30
0.3372
 70
192
 0
VERTEX
 8
PULSANTEA
 10
-4.7264
 20
-13.2647
 30
0.3372
 70
192
 0
VERTEX
 8
PULSANTEA
 10
-4.7264
 20
-13.4019
 30
1.0524
 70
192
 0
VERTEX
 8
PULSANTEA
 10
-4.7264
 20
-13.4019
 30
1.0524
 70
192
 0
VERTEX
 8
PULSANTEA
 10
-4.7633
 20
-13.3335
 30
0.324
 70
192
 0
VERTEX
 8
PULSANTEA
 10
-4.7633
 20
-13.3335
 30
0.324
 70
192
 0
VERTEX
 8
PULSANTEA
 10
-4.7633
 20
-13.4707
 30
1.0392
 70
192
 0
VERTEX
 8
PULSANTEA
 10
-4.7633
 20
-13.4707
 30
1.0392
 70
192
 0
VERTEX
 8
PULSANTEA
 10
-4.7952
 20
-13.4183
 30
0.3078
 70
192
 0
VERTEX
 8
PULSANTEA
 10
-4.7952
 20
-13.4183
 30
0.3078
 70
192
 0
VERTEX
 8
PULSANTEA
 10
-4.7952
 20
-13.5555
 30
1.0229
 70
192
 0
VERTEX
 8
PULSANTEA
 10
-4.7952
 20
-13.5555
 30
1.0229
 70
192
 0
VERTEX
 8
PULSANTEA
 10
-4.821
 20
-13.5166
 30
0.2889
 70
192
 0
VERTEX
 8
PULSANTEA
 10
-4.821
 20
-13.5166
 30
0.2889
 70
192
 0
VERTEX
 8
PULSANTEA
 10
-4.821
 20
-13.6537
 30
1.0041
 70
192
 0
VERTEX
 8
PULSANTEA
 10
-4.821
 20
-13.6537
 30
1.0041
 70
192
 0
VERTEX
 8
PULSANTEA
 10
-4.8401
 20
-13.6253
 30
0.2681
 70
192
 0
VERTEX
 8
PULSANTEA
 10
-4.8401
 20
-13.6253
 30
0.2681
 70
192
 0
VERTEX
 8
PULSANTEA
 10
-4.8401
 20
-13.7624
 30
0.9832
 70
192
 0
VERTEX
 8
PULSANTEA
 10
-4.8401
 20
-13.7624
 30
0.9832
 70
192
 0
VERTEX
 8
PULSANTEA
 10
-4.8518
 20
-13.7411
 30
0.2459
 70
192
 0
VERTEX
 8
PULSANTEA
 10
-4.8518
 20
-13.7411
 30
0.2459
 70
192
 0
VERTEX
 8
PULSANTEA
 10
-4.8518
 20
-13.8782
 30
0.961
 70
192
 0
VERTEX
 8
PULSANTEA
 10
-4.8518
 20
-13.8782
 30
0.961
 70
192
 0
VERTEX
 8
PULSANTEA
 10
-4.8557
 20
-13.8606
 30
0.223
 70
192
 0
VERTEX
 8
PULSANTEA
 10
-4.8557
 20
-13.8606
 30
0.223
 70
192
 0
VERTEX
 8
PULSANTEA
 10
-4.8557
 20
-13.9977
 30
0.9381
 70
192
 0
VERTEX
 8
PULSANTEA
 10
-4.8557
 20
-13.9977
 30
0.9381
 70
192
 0
VERTEX
 8
PULSANTEA
 10
-4.8518
 20
-13.9801
 30
0.2001
 70
192
 0
VERTEX
 8
PULSANTEA
 10
-4.8518
 20
-13.9801
 30
0.2001
 70
192
 0
VERTEX
 8
PULSANTEA
 10
-4.8518
 20
-14.1172
 30
0.9152
 70
192
 0
VERTEX
 8
PULSANTEA
 10
-4.8518
 20
-14.1172
 30
0.9152
 70
192
 0
VERTEX
 8
PULSANTEA
 10
-4.8401
 20
-14.0959
 30
0.1778
 70
192
 0
VERTEX
 8
PULSANTEA
 10
-4.8401
 20
-14.0959
 30
0.1778
 70
192
 0
VERTEX
 8
PULSANTEA
 10
-4.8401
 20
-14.233
 30
0.893
 70
192
 0
VERTEX
 8
PULSANTEA
 10
-4.8401
 20
-14.233
 30
0.893
 70
192
 0
VERTEX
 8
PULSANTEA
 10
-4.821
 20
-14.2046
 30
0.157
 70
192
 0
VERTEX
 8
PULSANTEA
 10
-4.821
 20
-14.2046
 30
0.157
 70
192
 0
VERTEX
 8
PULSANTEA
 10
-4.821
 20
-14.3417
 30
0.8721
 70
192
 0
VERTEX
 8
PULSANTEA
 10
-4.821
 20
-14.3417
 30
0.8721
 70
192
 0
VERTEX
 8
PULSANTEA
 10
-4.7952
 20
-14.3028
 30
0.1382
 70
192
 0
VERTEX
 8
PULSANTEA
 10
-4.7952
 20
-14.3028
 30
0.1382
 70
192
 0
VERTEX
 8
PULSANTEA
 10
-4.7952
 20
-14.44
 30
0.8533
 70
192
 0
VERTEX
 8
PULSANTEA
 10
-4.7952
 20
-14.44
 30
0.8533
 70
192
 0
VERTEX
 8
PULSANTEA
 10
-4.7633
 20
-14.3876
 30
0.1219
 70
192
 0
VERTEX
 8
PULSANTEA
 10
-4.7633
 20
-14.3876
 30
0.1219
 70
192
 0
VERTEX
 8
PULSANTEA
 10
-4.7633
 20
-14.5248
 30
0.837
 70
192
 0
VERTEX
 8
PULSANTEA
 10
-4.7633
 20
-14.5248
 30
0.837
 70
192
 0
VERTEX
 8
PULSANTEA
 10
-4.7264
 20
-14.4564
 30
0.1087
 70
192
 0
VERTEX
 8
PULSANTEA
 10
-4.7264
 20
-14.4564
 30
0.1087
 70
192
 0
VERTEX
 8
PULSANTEA
 10
-4.7264
 20
-14.5936
 30
0.8238
 70
192
 0
VERTEX
 8
PULSANTEA
 10
-4.7264
 20
-14.5936
 30
0.8238
 70
192
 0
VERTEX
 8
PULSANTEA
 10
-4.6855
 20
-14.5071
 30
0.099
 70
192
 0
VERTEX
 8
PULSANTEA
 10
-4.6855
 20
-14.5071
 30
0.099
 70
192
 0
VERTEX
 8
PULSANTEA
 10
-4.6855
 20
-14.6442
 30
0.8141
 70
192
 0
VERTEX
 8
PULSANTEA
 10
-4.6855
 20
-14.6442
 30
0.8141
 70
192
 0
VERTEX
 8
PULSANTEA
 10
-4.6419
 20
-14.5382
 30
0.093
 70
192
 0
VERTEX
 8
PULSANTEA
 10
-4.6419
 20
-14.5382
 30
0.093
 70
192
 0
VERTEX
 8
PULSANTEA
 10
-4.6419
 20
-14.6753
 30
0.8082
 70
192
 0
VERTEX
 8
PULSANTEA
 10
-4.6419
 20
-14.6753
 30
0.8082
 70
192
 0
VERTEX
 8
PULSANTEA
 10
-4.597
 20
-14.5486
 30
0.091
 70
192
 0
VERTEX
 8
PULSANTEA
 10
-4.597
 20
-14.5486
 30
0.091
 70
192
 0
VERTEX
 8
PULSANTEA
 10
-4.597
 20
-14.6857
 30
0.8062
 70
192
 0
VERTEX
 8
PULSANTEA
 10
-4.597
 20
-14.6857
 30
0.8062
 70
192
 0
VERTEX
 8
PULSANTEA
 10
-4.5521
 20
-14.5382
 30
0.093
 70
192
 0
VERTEX
 8
PULSANTEA
 10
-4.5521
 20
-14.5382
 30
0.093
 70
192
 0
VERTEX
 8
PULSANTEA
 10
-4.5521
 20
-14.6753
 30
0.8082
 70
192
 0
VERTEX
 8
PULSANTEA
 10
-4.5521
 20
-14.6753
 30
0.8082
 70
192
 0
VERTEX
 8
PULSANTEA
 10
-4.5085
 20
-14.5071
 30
0.099
 70
192
 0
VERTEX
 8
PULSANTEA
 10
-4.5085
 20
-14.5071
 30
0.099
 70
192
 0
VERTEX
 8
PULSANTEA
 10
-4.5085
 20
-14.6442
 30
0.8141
 70
192
 0
VERTEX
 8
PULSANTEA
 10
-4.5085
 20
-14.6442
 30
0.8141
 70
192
 0
VERTEX
 8
PULSANTEA
 10
-4.4677
 20
-14.4564
 30
0.1087
 70
192
 0
VERTEX
 8
PULSANTEA
 10
-4.4677
 20
-14.4564
 30
0.1087
 70
192
 0
VERTEX
 8
PULSANTEA
 10
-4.4677
 20
-14.5936
 30
0.8238
 70
192
 0
VERTEX
 8
PULSANTEA
 10
-4.4677
 20
-14.5936
 30
0.8238
 70
192
 0
VERTEX
 8
PULSANTEA
 10
-4.4307
 20
-14.3876
 30
0.1219
 70
192
 0
VERTEX
 8
PULSANTEA
 10
-4.4307
 20
-14.3876
 30
0.1219
 70
192
 0
VERTEX
 8
PULSANTEA
 10
-4.4307
 20
-14.5248
 30
0.837
 70
192
 0
VERTEX
 8
PULSANTEA
 10
-4.4307
 20
-14.5248
 30
0.837
 70
192
 0
VERTEX
 8
PULSANTEA
 10
-4.3988
 20
-14.3028
 30
0.1382
 70
192
 0
VERTEX
 8
PULSANTEA
 10
-4.3988
 20
-14.3028
 30
0.1382
 70
192
 0
VERTEX
 8
PULSANTEA
 10
-4.3988
 20
-14.44
 30
0.8533
 70
192
 0
VERTEX
 8
PULSANTEA
 10
-4.3988
 20
-14.44
 30
0.8533
 70
192
 0
VERTEX
 8
PULSANTEA
 10
-4.373
 20
-14.2046
 30
0.157
 70
192
 0
VERTEX
 8
PULSANTEA
 10
-4.373
 20
-14.2046
 30
0.157
 70
192
 0
VERTEX
 8
PULSANTEA
 10
-4.373
 20
-14.3417
 30
0.8721
 70
192
 0
VERTEX
 8
PULSANTEA
 10
-4.373
 20
-14.3417
 30
0.8721
 70
192
 0
VERTEX
 8
PULSANTEA
 10
-4.3539
 20
-14.0959
 30
0.1778
 70
192
 0
VERTEX
 8
PULSANTEA
 10
-4.3539
 20
-14.0959
 30
0.1778
 70
192
 0
VERTEX
 8
PULSANTEA
 10
-4.3539
 20
-14.233
 30
0.893
 70
192
 0
VERTEX
 8
PULSANTEA
 10
-4.3539
 20
-14.233
 30
0.893
 70
192
 0
VERTEX
 8
PULSANTEA
 10
-4.3422
 20
-13.9801
 30
0.2001
 70
192
 0
VERTEX
 8
PULSANTEA
 10
-4.3422
 20
-13.9801
 30
0.2001
 70
192
 0
VERTEX
 8
PULSANTEA
 10
-4.3422
 20
-14.1172
 30
0.9152
 70
192
 0
VERTEX
 8
PULSANTEA
 10
-4.3422
 20
-14.1172
 30
0.9152
 70
192
 0
VERTEX
 8
PULSANTEA
 10
0
 20
0
 30
0
 70
128
 71
1
 72
3
 73
7
 74
7
 0
VERTEX
 8
PULSANTEA
 10
0
 20
0
 30
0
 70
128
 71
4
 72
5
 73
9
 74
8
 0
VERTEX
 8
PULSANTEA
 10
0
 20
0
 30
0
 70
128
 71
6
 72
2
 73
10
 74
10
 0
VERTEX
 8
PULSANTEA
 10
0
 20
0
 30
0
 70
128
 71
1
 72
7
 73
11
 74
11
 0
VERTEX
 8
PULSANTEA
 10
0
 20
0
 30
0
 70
128
 71
8
 72
9
 73
13
 74
12
 0
VERTEX
 8
PULSANTEA
 10
0
 20
0
 30
0
 70
128
 71
10
 72
2
 73
14
 74
14
 0
VERTEX
 8
PULSANTEA
 10
0
 20
0
 30
0
 70
128
 71
1
 72
11
 73
15
 74
15
 0
VERTEX
 8
PULSANTEA
 10
0
 20
0
 30
0
 70
128
 71
12
 72
13
 73
17
 74
16
 0
VERTEX
 8
PULSANTEA
 10
0
 20
0
 30
0
 70
128
 71
14
 72
2
 73
18
 74
18
 0
VERTEX
 8
PULSANTEA
 10
0
 20
0
 30
0
 70
128
 71
1
 72
15
 73
19
 74
19
 0
VERTEX
 8
PULSANTEA
 10
0
 20
0
 30
0
 70
128
 71
16
 72
17
 73
21
 74
20
 0
VERTEX
 8
PULSANTEA
 10
0
 20
0
 30
0
 70
128
 71
18
 72
2
 73
22
 74
22
 0
VERTEX
 8
PULSANTEA
 10
0
 20
0
 30
0
 70
128
 71
1
 72
19
 73
23
 74
23
 0
VERTEX
 8
PULSANTEA
 10
0
 20
0
 30
0
 70
128
 71
20
 72
21
 73
25
 74
24
 0
VERTEX
 8
PULSANTEA
 10
0
 20
0
 30
0
 70
128
 71
22
 72
2
 73
26
 74
26
 0
VERTEX
 8
PULSANTEA
 10
0
 20
0
 30
0
 70
128
 71
1
 72
23
 73
27
 74
27
 0
VERTEX
 8
PULSANTEA
 10
0
 20
0
 30
0
 70
128
 71
24
 72
25
 73
29
 74
28
 0
VERTEX
 8
PULSANTEA
 10
0
 20
0
 30
0
 70
128
 71
26
 72
2
 73
30
 74
30
 0
VERTEX
 8
PULSANTEA
 10
0
 20
0
 30
0
 70
128
 71
1
 72
27
 73
31
 74
31
 0
VERTEX
 8
PULSANTEA
 10
0
 20
0
 30
0
 70
128
 71
28
 72
29
 73
33
 74
32
 0
VERTEX
 8
PULSANTEA
 10
0
 20
0
 30
0
 70
128
 71
30
 72
2
 73
34
 74
34
 0
VERTEX
 8
PULSANTEA
 10
0
 20
0
 30
0
 70
128
 71
1
 72
31
 73
35
 74
35
 0
VERTEX
 8
PULSANTEA
 10
0
 20
0
 30
0
 70
128
 71
32
 72
33
 73
37
 74
36
 0
VERTEX
 8
PULSANTEA
 10
0
 20
0
 30
0
 70
128
 71
34
 72
2
 73
38
 74
38
 0
VERTEX
 8
PULSANTEA
 10
0
 20
0
 30
0
 70
128
 71
1
 72
35
 73
39
 74
39
 0
VERTEX
 8
PULSANTEA
 10
0
 20
0
 30
0
 70
128
 71
36
 72
37
 73
41
 74
40
 0
VERTEX
 8
PULSANTEA
 10
0
 20
0
 30
0
 70
128
 71
38
 72
2
 73
42
 74
42
 0
VERTEX
 8
PULSANTEA
 10
0
 20
0
 30
0
 70
128
 71
1
 72
39
 73
43
 74
43
 0
VERTEX
 8
PULSANTEA
 10
0
 20
0
 30
0
 70
128
 71
40
 72
41
 73
45
 74
44
 0
VERTEX
 8
PULSANTEA
 10
0
 20
0
 30
0
 70
128
 71
42
 72
2
 73
46
 74
46
 0
VERTEX
 8
PULSANTEA
 10
0
 20
0
 30
0
 70
128
 71
1
 72
43
 73
47
 74
47
 0
VERTEX
 8
PULSANTEA
 10
0
 20
0
 30
0
 70
128
 71
44
 72
45
 73
49
 74
48
 0
VERTEX
 8
PULSANTEA
 10
0
 20
0
 30
0
 70
128
 71
46
 72
2
 73
50
 74
50
 0
VERTEX
 8
PULSANTEA
 10
0
 20
0
 30
0
 70
128
 71
1
 72
47
 73
51
 74
51
 0
VERTEX
 8
PULSANTEA
 10
0
 20
0
 30
0
 70
128
 71
48
 72
49
 73
53
 74
52
 0
VERTEX
 8
PULSANTEA
 10
0
 20
0
 30
0
 70
128
 71
50
 72
2
 73
54
 74
54
 0
VERTEX
 8
PULSANTEA
 10
0
 20
0
 30
0
 70
128
 71
1
 72
51
 73
55
 74
55
 0
VERTEX
 8
PULSANTEA
 10
0
 20
0
 30
0
 70
128
 71
52
 72
53
 73
57
 74
56
 0
VERTEX
 8
PULSANTEA
 10
0
 20
0
 30
0
 70
128
 71
54
 72
2
 73
58
 74
58
 0
VERTEX
 8
PULSANTEA
 10
0
 20
0
 30
0
 70
128
 71
1
 72
55
 73
59
 74
59
 0
VERTEX
 8
PULSANTEA
 10
0
 20
0
 30
0
 70
128
 71
56
 72
57
 73
61
 74
60
 0
VERTEX
 8
PULSANTEA
 10
0
 20
0
 30
0
 70
128
 71
58
 72
2
 73
62
 74
62
 0
VERTEX
 8
PULSANTEA
 10
0
 20
0
 30
0
 70
128
 71
1
 72
59
 73
63
 74
63
 0
VERTEX
 8
PULSANTEA
 10
0
 20
0
 30
0
 70
128
 71
60
 72
61
 73
65
 74
64
 0
VERTEX
 8
PULSANTEA
 10
0
 20
0
 30
0
 70
128
 71
62
 72
2
 73
66
 74
66
 0
VERTEX
 8
PULSANTEA
 10
0
 20
0
 30
0
 70
128
 71
1
 72
63
 73
67
 74
67
 0
VERTEX
 8
PULSANTEA
 10
0
 20
0
 30
0
 70
128
 71
64
 72
65
 73
69
 74
68
 0
VERTEX
 8
PULSANTEA
 10
0
 20
0
 30
0
 70
128
 71
66
 72
2
 73
70
 74
70
 0
VERTEX
 8
PULSANTEA
 10
0
 20
0
 30
0
 70
128
 71
1
 72
67
 73
71
 74
71
 0
VERTEX
 8
PULSANTEA
 10
0
 20
0
 30
0
 70
128
 71
68
 72
69
 73
73
 74
72
 0
VERTEX
 8
PULSANTEA
 10
0
 20
0
 30
0
 70
128
 71
70
 72
2
 73
74
 74
74
 0
VERTEX
 8
PULSANTEA
 10
0
 20
0
 30
0
 70
128
 71
1
 72
71
 73
75
 74
75
 0
VERTEX
 8
PULSANTEA
 10
0
 20
0
 30
0
 70
128
 71
72
 72
73
 73
77
 74
76
 0
VERTEX
 8
PULSANTEA
 10
0
 20
0
 30
0
 70
128
 71
74
 72
2
 73
78
 74
78
 0
VERTEX
 8
PULSANTEA
 10
0
 20
0
 30
0
 70
128
 71
1
 72
75
 73
79
 74
79
 0
VERTEX
 8
PULSANTEA
 10
0
 20
0
 30
0
 70
128
 71
76
 72
77
 73
81
 74
80
 0
VERTEX
 8
PULSANTEA
 10
0
 20
0
 30
0
 70
128
 71
78
 72
2
 73
82
 74
82
 0
VERTEX
 8
PULSANTEA
 10
0
 20
0
 30
0
 70
128
 71
1
 72
79
 73
83
 74
83
 0
VERTEX
 8
PULSANTEA
 10
0
 20
0
 30
0
 70
128
 71
80
 72
81
 73
85
 74
84
 0
VERTEX
 8
PULSANTEA
 10
0
 20
0
 30
0
 70
128
 71
82
 72
2
 73
86
 74
86
 0
VERTEX
 8
PULSANTEA
 10
0
 20
0
 30
0
 70
128
 71
1
 72
83
 73
87
 74
87
 0
VERTEX
 8
PULSANTEA
 10
0
 20
0
 30
0
 70
128
 71
84
 72
85
 73
89
 74
88
 0
VERTEX
 8
PULSANTEA
 10
0
 20
0
 30
0
 70
128
 71
86
 72
2
 73
90
 74
90
 0
VERTEX
 8
PULSANTEA
 10
0
 20
0
 30
0
 70
128
 71
1
 72
87
 73
91
 74
91
 0
VERTEX
 8
PULSANTEA
 10
0
 20
0
 30
0
 70
128
 71
88
 72
89
 73
93
 74
92
 0
VERTEX
 8
PULSANTEA
 10
0
 20
0
 30
0
 70
128
 71
90
 72
2
 73
94
 74
94
 0
VERTEX
 8
PULSANTEA
 10
0
 20
0
 30
0
 70
128
 71
1
 72
91
 73
95
 74
95
 0
VERTEX
 8
PULSANTEA
 10
0
 20
0
 30
0
 70
128
 71
92
 72
93
 73
97
 74
96
 0
VERTEX
 8
PULSANTEA
 10
0
 20
0
 30
0
 70
128
 71
94
 72
2
 73
98
 74
98
 0
VERTEX
 8
PULSANTEA
 10
0
 20
0
 30
0
 70
128
 71
1
 72
95
 73
99
 74
99
 0
VERTEX
 8
PULSANTEA
 10
0
 20
0
 30
0
 70
128
 71
96
 72
97
 73
101
 74
100
 0
VERTEX
 8
PULSANTEA
 10
0
 20
0
 30
0
 70
128
 71
98
 72
2
 73
102
 74
102
 0
VERTEX
 8
PULSANTEA
 10
0
 20
0
 30
0
 70
128
 71
1
 72
99
 73
103
 74
103
 0
VERTEX
 8
PULSANTEA
 10
0
 20
0
 30
0
 70
128
 71
100
 72
101
 73
105
 74
104
 0
VERTEX
 8
PULSANTEA
 10
0
 20
0
 30
0
 70
128
 71
102
 72
2
 73
106
 74
106
 0
VERTEX
 8
PULSANTEA
 10
0
 20
0
 30
0
 70
128
 71
1
 72
103
 73
107
 74
107
 0
VERTEX
 8
PULSANTEA
 10
0
 20
0
 30
0
 70
128
 71
104
 72
105
 73
109
 74
108
 0
VERTEX
 8
PULSANTEA
 10
0
 20
0
 30
0
 70
128
 71
106
 72
2
 73
110
 74
110
 0
VERTEX
 8
PULSANTEA
 10
0
 20
0
 30
0
 70
128
 71
1
 72
107
 73
111
 74
111
 0
VERTEX
 8
PULSANTEA
 10
0
 20
0
 30
0
 70
128
 71
108
 72
109
 73
113
 74
112
 0
VERTEX
 8
PULSANTEA
 10
0
 20
0
 30
0
 70
128
 71
110
 72
2
 73
114
 74
114
 0
VERTEX
 8
PULSANTEA
 10
0
 20
0
 30
0
 70
128
 71
1
 72
111
 73
115
 74
115
 0
VERTEX
 8
PULSANTEA
 10
0
 20
0
 30
0
 70
128
 71
112
 72
113
 73
117
 74
116
 0
VERTEX
 8
PULSANTEA
 10
0
 20
0
 30
0
 70
128
 71
114
 72
2
 73
118
 74
118
 0
VERTEX
 8
PULSANTEA
 10
0
 20
0
 30
0
 70
128
 71
1
 72
115
 73
119
 74
119
 0
VERTEX
 8
PULSANTEA
 10
0
 20
0
 30
0
 70
128
 71
116
 72
117
 73
121
 74
120
 0
VERTEX
 8
PULSANTEA
 10
0
 20
0
 30
0
 70
128
 71
118
 72
2
 73
122
 74
122
 0
VERTEX
 8
PULSANTEA
 10
0
 20
0
 30
0
 70
128
 71
1
 72
119
 73
123
 74
123
 0
VERTEX
 8
PULSANTEA
 10
0
 20
0
 30
0
 70
128
 71
120
 72
121
 73
125
 74
124
 0
VERTEX
 8
PULSANTEA
 10
0
 20
0
 30
0
 70
128
 71
122
 72
2
 73
126
 74
126
 0
VERTEX
 8
PULSANTEA
 10
0
 20
0
 30
0
 70
128
 71
1
 72
123
 73
127
 74
127
 0
VERTEX
 8
PULSANTEA
 10
0
 20
0
 30
0
 70
128
 71
124
 72
125
 73
129
 74
128
 0
VERTEX
 8
PULSANTEA
 10
0
 20
0
 30
0
 70
128
 71
126
 72
2
 73
130
 74
130
 0
VERTEX
 8
PULSANTEA
 10
0
 20
0
 30
0
 70
128
 71
1
 72
127
 73
131
 74
131
 0
VERTEX
 8
PULSANTEA
 10
0
 20
0
 30
0
 70
128
 71
128
 72
129
 73
133
 74
132
 0
VERTEX
 8
PULSANTEA
 10
0
 20
0
 30
0
 70
128
 71
130
 72
2
 73
134
 74
134
 0
VERTEX
 8
PULSANTEA
 10
0
 20
0
 30
0
 70
128
 71
1
 72
131
 73
135
 74
135
 0
VERTEX
 8
PULSANTEA
 10
0
 20
0
 30
0
 70
128
 71
132
 72
133
 73
137
 74
136
 0
VERTEX
 8
PULSANTEA
 10
0
 20
0
 30
0
 70
128
 71
134
 72
2
 73
138
 74
138
 0
VERTEX
 8
PULSANTEA
 10
0
 20
0
 30
0
 70
128
 71
1
 72
135
 73
139
 74
139
 0
VERTEX
 8
PULSANTEA
 10
0
 20
0
 30
0
 70
128
 71
136
 72
137
 73
141
 74
140
 0
VERTEX
 8
PULSANTEA
 10
0
 20
0
 30
0
 70
128
 71
138
 72
2
 73
142
 74
142
 0
VERTEX
 8
PULSANTEA
 10
0
 20
0
 30
0
 70
128
 71
1
 72
139
 73
143
 74
143
 0
VERTEX
 8
PULSANTEA
 10
0
 20
0
 30
0
 70
128
 71
140
 72
141
 73
145
 74
144
 0
VERTEX
 8
PULSANTEA
 10
0
 20
0
 30
0
 70
128
 71
142
 72
2
 73
146
 74
146
 0
VERTEX
 8
PULSANTEA
 10
0
 20
0
 30
0
 70
128
 71
1
 72
143
 73
3
 74
3
 0
VERTEX
 8
PULSANTEA
 10
0
 20
0
 30
0
 70
128
 71
144
 72
145
 73
5
 74
4
 0
VERTEX
 8
PULSANTEA
 10
0
 20
0
 30
0
 70
128
 71
146
 72
2
 73
6
 74
6
 0
SEQEND
 0
POLYLINE
 8
PULSANTE
 66
1
 10
0.0
 20
0.0
 30
0.0
 70
64
 71
146
 72
108
 0
VERTEX
 8
PULSANTE
 10
-1.0121
 20
-13.8793
 30
0.3199
 70
192
 0
VERTEX
 8
PULSANTE
 10
-1.0121
 20
-13.9113
 30
0.4867
 70
192
 0
VERTEX
 8
PULSANTE
 10
-0.6362
 20
-13.8793
 30
0.3199
 70
192
 0
VERTEX
 8
PULSANTE
 10
-0.6362
 20
-13.8793
 30
0.3199
 70
192
 0
VERTEX
 8
PULSANTE
 10
-0.6362
 20
-13.9113
 30
0.4867
 70
192
 0
VERTEX
 8
PULSANTE
 10
-0.6362
 20
-13.9113
 30
0.4867
 70
192
 0
VERTEX
 8
PULSANTE
 10
-0.6419
 20
-13.8152
 30
0.3322
 70
192
 0
VERTEX
 8
PULSANTE
 10
-0.6419
 20
-13.8152
 30
0.3322
 70
192
 0
VERTEX
 8
PULSANTE
 10
-0.6419
 20
-13.8472
 30
0.499
 70
192
 0
VERTEX
 8
PULSANTE
 10
-0.6419
 20
-13.8472
 30
0.499
 70
192
 0
VERTEX
 8
PULSANTE
 10
-0.6589
 20
-13.7531
 30
0.3441
 70
192
 0
VERTEX
 8
PULSANTE
 10
-0.6589
 20
-13.7531
 30
0.3441
 70
192
 0
VERTEX
 8
PULSANTE
 10
-0.6589
 20
-13.7851
 30
0.5109
 70
192
 0
VERTEX
 8
PULSANTE
 10
-0.6589
 20
-13.7851
 30
0.5109
 70
192
 0
VERTEX
 8
PULSANTE
 10
-0.6866
 20
-13.6948
 30
0.3553
 70
192
 0
VERTEX
 8
PULSANTE
 10
-0.6866
 20
-13.6948
 30
0.3553
 70
192
 0
VERTEX
 8
PULSANTE
 10
-0.6866
 20
-13.7267
 30
0.5221
 70
192
 0
VERTEX
 8
PULSANTE
 10
-0.6866
 20
-13.7267
 30
0.5221
 70
192
 0
VERTEX
 8
PULSANTE
 10
-0.7242
 20
-13.642
 30
0.3654
 70
192
 0
VERTEX
 8
PULSANTE
 10
-0.7242
 20
-13.642
 30
0.3654
 70
192
 0
VERTEX
 8
PULSANTE
 10
-0.7242
 20
-13.674
 30
0.5322
 70
192
 0
VERTEX
 8
PULSANTE
 10
-0.7242
 20
-13.674
 30
0.5322
 70
192
 0
VERTEX
 8
PULSANTE
 10
-0.7705
 20
-13.5965
 30
0.3741
 70
192
 0
VERTEX
 8
PULSANTE
 10
-0.7705
 20
-13.5965
 30
0.3741
 70
192
 0
VERTEX
 8
PULSANTE
 10
-0.7705
 20
-13.6285
 30
0.5409
 70
192
 0
VERTEX
 8
PULSANTE
 10
-0.7705
 20
-13.6285
 30
0.5409
 70
192
 0
VERTEX
 8
PULSANTE
 10
-0.8242
 20
-13.5596
 30
0.3812
 70
192
 0
VERTEX
 8
PULSANTE
 10
-0.8242
 20
-13.5596
 30
0.3812
 70
192
 0
VERTEX
 8
PULSANTE
 10
-0.8242
 20
-13.5916
 30
0.548
 70
192
 0
VERTEX
 8
PULSANTE
 10
-0.8242
 20
-13.5916
 30
0.548
 70
192
 0
VERTEX
 8
PULSANTE
 10
-0.8835
 20
-13.5324
 30
0.3864
 70
192
 0
VERTEX
 8
PULSANTE
 10
-0.8835
 20
-13.5324
 30
0.3864
 70
192
 0
VERTEX
 8
PULSANTE
 10
-0.8835
 20
-13.5644
 30
0.5532
 70
192
 0
VERTEX
 8
PULSANTE
 10
-0.8835
 20
-13.5644
 30
0.5532
 70
192
 0
VERTEX
 8
PULSANTE
 10
-0.9468
 20
-13.5158
 30
0.3896
 70
192
 0
VERTEX
 8
PULSANTE
 10
-0.9468
 20
-13.5158
 30
0.3896
 70
192
 0
VERTEX
 8
PULSANTE
 10
-0.9468
 20
-13.5478
 30
0.5564
 70
192
 0
VERTEX
 8
PULSANTE
 10
-0.9468
 20
-13.5478
 30
0.5564
 70
192
 0
VERTEX
 8
PULSANTE
 10
-1.0121
 20
-13.5102
 30
0.3906
 70
192
 0
VERTEX
 8
PULSANTE
 10
-1.0121
 20
-13.5102
 30
0.3906
 70
192
 0
VERTEX
 8
PULSANTE
 10
-1.0121
 20
-13.5422
 30
0.5575
 70
192
 0
VERTEX
 8
PULSANTE
 10
-1.0121
 20
-13.5422
 30
0.5575
 70
192
 0
VERTEX
 8
PULSANTE
 10
-1.0774
 20
-13.5158
 30
0.3896
 70
192
 0
VERTEX
 8
PULSANTE
 10
-1.0774
 20
-13.5158
 30
0.3896
 70
192
 0
VERTEX
 8
PULSANTE
 10
-1.0774
 20
-13.5478
 30
0.5564
 70
192
 0
VERTEX
 8
PULSANTE
 10
-1.0774
 20
-13.5478
 30
0.5564
 70
192
 0
VERTEX
 8
PULSANTE
 10
-1.1407
 20
-13.5324
 30
0.3864
 70
192
 0
VERTEX
 8
PULSANTE
 10
-1.1407
 20
-13.5324
 30
0.3864
 70
192
 0
VERTEX
 8
PULSANTE
 10
-1.1407
 20
-13.5644
 30
0.5532
 70
192
 0
VERTEX
 8
PULSANTE
 10
-1.1407
 20
-13.5644
 30
0.5532
 70
192
 0
VERTEX
 8
PULSANTE
 10
-1.2001
 20
-13.5596
 30
0.3812
 70
192
 0
VERTEX
 8
PULSANTE
 10
-1.2001
 20
-13.5596
 30
0.3812
 70
192
 0
VERTEX
 8
PULSANTE
 10
-1.2001
 20
-13.5916
 30
0.548
 70
192
 0
VERTEX
 8
PULSANTE
 10
-1.2001
 20
-13.5916
 30
0.548
 70
192
 0
VERTEX
 8
PULSANTE
 10
-1.2537
 20
-13.5965
 30
0.3741
 70
192
 0
VERTEX
 8
PULSANTE
 10
-1.2537
 20
-13.5965
 30
0.3741
 70
192
 0
VERTEX
 8
PULSANTE
 10
-1.2537
 20
-13.6285
 30
0.5409
 70
192
 0
VERTEX
 8
PULSANTE
 10
-1.2537
 20
-13.6285
 30
0.5409
 70
192
 0
VERTEX
 8
PULSANTE
 10
-1.3001
 20
-13.642
 30
0.3654
 70
192
 0
VERTEX
 8
PULSANTE
 10
-1.3001
 20
-13.642
 30
0.3654
 70
192
 0
VERTEX
 8
PULSANTE
 10
-1.3001
 20
-13.674
 30
0.5322
 70
192
 0
VERTEX
 8
PULSANTE
 10
-1.3001
 20
-13.674
 30
0.5322
 70
192
 0
VERTEX
 8
PULSANTE
 10
-1.3376
 20
-13.6948
 30
0.3553
 70
192
 0
VERTEX
 8
PULSANTE
 10
-1.3376
 20
-13.6948
 30
0.3553
 70
192
 0
VERTEX
 8
PULSANTE
 10
-1.3376
 20
-13.7267
 30
0.5221
 70
192
 0
VERTEX
 8
PULSANTE
 10
-1.3376
 20
-13.7267
 30
0.5221
 70
192
 0
VERTEX
 8
PULSANTE
 10
-1.3653
 20
-13.7531
 30
0.3441
 70
192
 0
VERTEX
 8
PULSANTE
 10
-1.3653
 20
-13.7531
 30
0.3441
 70
192
 0
VERTEX
 8
PULSANTE
 10
-1.3653
 20
-13.7851
 30
0.5109
 70
192
 0
VERTEX
 8
PULSANTE
 10
-1.3653
 20
-13.7851
 30
0.5109
 70
192
 0
VERTEX
 8
PULSANTE
 10
-1.3823
 20
-13.8152
 30
0.3322
 70
192
 0
VERTEX
 8
PULSANTE
 10
-1.3823
 20
-13.8152
 30
0.3322
 70
192
 0
VERTEX
 8
PULSANTE
 10
-1.3823
 20
-13.8472
 30
0.499
 70
192
 0
VERTEX
 8
PULSANTE
 10
-1.3823
 20
-13.8472
 30
0.499
 70
192
 0
VERTEX
 8
PULSANTE
 10
-1.388
 20
-13.8793
 30
0.3199
 70
192
 0
VERTEX
 8
PULSANTE
 10
-1.388
 20
-13.8793
 30
0.3199
 70
192
 0
VERTEX
 8
PULSANTE
 10
-1.388
 20
-13.9113
 30
0.4867
 70
192
 0
VERTEX
 8
PULSANTE
 10
-1.388
 20
-13.9113
 30
0.4867
 70
192
 0
VERTEX
 8
PULSANTE
 10
-1.3823
 20
-13.9434
 30
0.3076
 70
192
 0
VERTEX
 8
PULSANTE
 10
-1.3823
 20
-13.9434
 30
0.3076
 70
192
 0
VERTEX
 8
PULSANTE
 10
-1.3823
 20
-13.9754
 30
0.4744
 70
192
 0
VERTEX
 8
PULSANTE
 10
-1.3823
 20
-13.9754
 30
0.4744
 70
192
 0
VERTEX
 8
PULSANTE
 10
-1.3653
 20
-14.0056
 30
0.2956
 70
192
 0
VERTEX
 8
PULSANTE
 10
-1.3653
 20
-14.0056
 30
0.2956
 70
192
 0
VERTEX
 8
PULSANTE
 10
-1.3653
 20
-14.0376
 30
0.4625
 70
192
 0
VERTEX
 8
PULSANTE
 10
-1.3653
 20
-14.0376
 30
0.4625
 70
192
 0
VERTEX
 8
PULSANTE
 10
-1.3376
 20
-14.0639
 30
0.2845
 70
192
 0
VERTEX
 8
PULSANTE
 10
-1.3376
 20
-14.0639
 30
0.2845
 70
192
 0
VERTEX
 8
PULSANTE
 10
-1.3376
 20
-14.0959
 30
0.4513
 70
192
 0
VERTEX
 8
PULSANTE
 10
-1.3376
 20
-14.0959
 30
0.4513
 70
192
 0
VERTEX
 8
PULSANTE
 10
-1.3001
 20
-14.1166
 30
0.2744
 70
192
 0
VERTEX
 8
PULSANTE
 10
-1.3001
 20
-14.1166
 30
0.2744
 70
192
 0
VERTEX
 8
PULSANTE
 10
-1.3001
 20
-14.1486
 30
0.4412
 70
192
 0
VERTEX
 8
PULSANTE
 10
-1.3001
 20
-14.1486
 30
0.4412
 70
192
 0
VERTEX
 8
PULSANTE
 10
-1.2537
 20
-14.1621
 30
0.2656
 70
192
 0
VERTEX
 8
PULSANTE
 10
-1.2537
 20
-14.1621
 30
0.2656
 70
192
 0
VERTEX
 8
PULSANTE
 10
-1.2537
 20
-14.1941
 30
0.4325
 70
192
 0
VERTEX
 8
PULSANTE
 10
-1.2537
 20
-14.1941
 30
0.4325
 70
192
 0
VERTEX
 8
PULSANTE
 10
-1.2001
 20
-14.1991
 30
0.2585
 70
192
 0
VERTEX
 8
PULSANTE
 10
-1.2001
 20
-14.1991
 30
0.2585
 70
192
 0
VERTEX
 8
PULSANTE
 10
-1.2001
 20
-14.2311
 30
0.4254
 70
192
 0
VERTEX
 8
PULSANTE
 10
-1.2001
 20
-14.2311
 30
0.4254
 70
192
 0
VERTEX
 8
PULSANTE
 10
-1.1407
 20
-14.2263
 30
0.2533
 70
192
 0
VERTEX
 8
PULSANTE
 10
-1.1407
 20
-14.2263
 30
0.2533
 70
192
 0
VERTEX
 8
PULSANTE
 10
-1.1407
 20
-14.2582
 30
0.4202
 70
192
 0
VERTEX
 8
PULSANTE
 10
-1.1407
 20
-14.2582
 30
0.4202
 70
192
 0
VERTEX
 8
PULSANTE
 10
-1.0774
 20
-14.2429
 30
0.2501
 70
192
 0
VERTEX
 8
PULSANTE
 10
-1.0774
 20
-14.2429
 30
0.2501
 70
192
 0
VERTEX
 8
PULSANTE
 10
-1.0774
 20
-14.2749
 30
0.417
 70
192
 0
VERTEX
 8
PULSANTE
 10
-1.0774
 20
-14.2749
 30
0.417
 70
192
 0
VERTEX
 8
PULSANTE
 10
-1.0121
 20
-14.2485
 30
0.2491
 70
192
 0
VERTEX
 8
PULSANTE
 10
-1.0121
 20
-14.2485
 30
0.2491
 70
192
 0
VERTEX
 8
PULSANTE
 10
-1.0121
 20
-14.2805
 30
0.4159
 70
192
 0
VERTEX
 8
PULSANTE
 10
-1.0121
 20
-14.2805
 30
0.4159
 70
192
 0
VERTEX
 8
PULSANTE
 10
-0.9468
 20
-14.2429
 30
0.2501
 70
192
 0
VERTEX
 8
PULSANTE
 10
-0.9468
 20
-14.2429
 30
0.2501
 70
192
 0
VERTEX
 8
PULSANTE
 10
-0.9468
 20
-14.2749
 30
0.417
 70
192
 0
VERTEX
 8
PULSANTE
 10
-0.9468
 20
-14.2749
 30
0.417
 70
192
 0
VERTEX
 8
PULSANTE
 10
-0.8835
 20
-14.2263
 30
0.2533
 70
192
 0
VERTEX
 8
PULSANTE
 10
-0.8835
 20
-14.2263
 30
0.2533
 70
192
 0
VERTEX
 8
PULSANTE
 10
-0.8835
 20
-14.2582
 30
0.4202
 70
192
 0
VERTEX
 8
PULSANTE
 10
-0.8835
 20
-14.2582
 30
0.4202
 70
192
 0
VERTEX
 8
PULSANTE
 10
-0.8242
 20
-14.1991
 30
0.2585
 70
192
 0
VERTEX
 8
PULSANTE
 10
-0.8242
 20
-14.1991
 30
0.2585
 70
192
 0
VERTEX
 8
PULSANTE
 10
-0.8242
 20
-14.2311
 30
0.4254
 70
192
 0
VERTEX
 8
PULSANTE
 10
-0.8242
 20
-14.2311
 30
0.4254
 70
192
 0
VERTEX
 8
PULSANTE
 10
-0.7705
 20
-14.1621
 30
0.2656
 70
192
 0
VERTEX
 8
PULSANTE
 10
-0.7705
 20
-14.1621
 30
0.2656
 70
192
 0
VERTEX
 8
PULSANTE
 10
-0.7705
 20
-14.1941
 30
0.4325
 70
192
 0
VERTEX
 8
PULSANTE
 10
-0.7705
 20
-14.1941
 30
0.4325
 70
192
 0
VERTEX
 8
PULSANTE
 10
-0.7242
 20
-14.1166
 30
0.2744
 70
192
 0
VERTEX
 8
PULSANTE
 10
-0.7242
 20
-14.1166
 30
0.2744
 70
192
 0
VERTEX
 8
PULSANTE
 10
-0.7242
 20
-14.1486
 30
0.4412
 70
192
 0
VERTEX
 8
PULSANTE
 10
-0.7242
 20
-14.1486
 30
0.4412
 70
192
 0
VERTEX
 8
PULSANTE
 10
-0.6866
 20
-14.0639
 30
0.2845
 70
192
 0
VERTEX
 8
PULSANTE
 10
-0.6866
 20
-14.0639
 30
0.2845
 70
192
 0
VERTEX
 8
PULSANTE
 10
-0.6866
 20
-14.0959
 30
0.4513
 70
192
 0
VERTEX
 8
PULSANTE
 10
-0.6866
 20
-14.0959
 30
0.4513
 70
192
 0
VERTEX
 8
PULSANTE
 10
-0.6589
 20
-14.0056
 30
0.2956
 70
192
 0
VERTEX
 8
PULSANTE
 10
-0.6589
 20
-14.0056
 30
0.2956
 70
192
 0
VERTEX
 8
PULSANTE
 10
-0.6589
 20
-14.0376
 30
0.4625
 70
192
 0
VERTEX
 8
PULSANTE
 10
-0.6589
 20
-14.0376
 30
0.4625
 70
192
 0
VERTEX
 8
PULSANTE
 10
-0.6419
 20
-13.9434
 30
0.3076
 70
192
 0
VERTEX
 8
PULSANTE
 10
-0.6419
 20
-13.9434
 30
0.3076
 70
192
 0
VERTEX
 8
PULSANTE
 10
-0.6419
 20
-13.9754
 30
0.4744
 70
192
 0
VERTEX
 8
PULSANTE
 10
-0.6419
 20
-13.9754
 30
0.4744
 70
192
 0
VERTEX
 8
PULSANTE
 10
0
 20
0
 30
0
 70
128
 71
1
 72
3
 73
7
 74
7
 0
VERTEX
 8
PULSANTE
 10
0
 20
0
 30
0
 70
128
 71
4
 72
5
 73
9
 74
8
 0
VERTEX
 8
PULSANTE
 10
0
 20
0
 30
0
 70
128
 71
6
 72
2
 73
10
 74
10
 0
VERTEX
 8
PULSANTE
 10
0
 20
0
 30
0
 70
128
 71
1
 72
7
 73
11
 74
11
 0
VERTEX
 8
PULSANTE
 10
0
 20
0
 30
0
 70
128
 71
8
 72
9
 73
13
 74
12
 0
VERTEX
 8
PULSANTE
 10
0
 20
0
 30
0
 70
128
 71
10
 72
2
 73
14
 74
14
 0
VERTEX
 8
PULSANTE
 10
0
 20
0
 30
0
 70
128
 71
1
 72
11
 73
15
 74
15
 0
VERTEX
 8
PULSANTE
 10
0
 20
0
 30
0
 70
128
 71
12
 72
13
 73
17
 74
16
 0
VERTEX
 8
PULSANTE
 10
0
 20
0
 30
0
 70
128
 71
14
 72
2
 73
18
 74
18
 0
VERTEX
 8
PULSANTE
 10
0
 20
0
 30
0
 70
128
 71
1
 72
15
 73
19
 74
19
 0
VERTEX
 8
PULSANTE
 10
0
 20
0
 30
0
 70
128
 71
16
 72
17
 73
21
 74
20
 0
VERTEX
 8
PULSANTE
 10
0
 20
0
 30
0
 70
128
 71
18
 72
2
 73
22
 74
22
 0
VERTEX
 8
PULSANTE
 10
0
 20
0
 30
0
 70
128
 71
1
 72
19
 73
23
 74
23
 0
VERTEX
 8
PULSANTE
 10
0
 20
0
 30
0
 70
128
 71
20
 72
21
 73
25
 74
24
 0
VERTEX
 8
PULSANTE
 10
0
 20
0
 30
0
 70
128
 71
22
 72
2
 73
26
 74
26
 0
VERTEX
 8
PULSANTE
 10
0
 20
0
 30
0
 70
128
 71
1
 72
23
 73
27
 74
27
 0
VERTEX
 8
PULSANTE
 10
0
 20
0
 30
0
 70
128
 71
24
 72
25
 73
29
 74
28
 0
VERTEX
 8
PULSANTE
 10
0
 20
0
 30
0
 70
128
 71
26
 72
2
 73
30
 74
30
 0
VERTEX
 8
PULSANTE
 10
0
 20
0
 30
0
 70
128
 71
1
 72
27
 73
31
 74
31
 0
VERTEX
 8
PULSANTE
 10
0
 20
0
 30
0
 70
128
 71
28
 72
29
 73
33
 74
32
 0
VERTEX
 8
PULSANTE
 10
0
 20
0
 30
0
 70
128
 71
30
 72
2
 73
34
 74
34
 0
VERTEX
 8
PULSANTE
 10
0
 20
0
 30
0
 70
128
 71
1
 72
31
 73
35
 74
35
 0
VERTEX
 8
PULSANTE
 10
0
 20
0
 30
0
 70
128
 71
32
 72
33
 73
37
 74
36
 0
VERTEX
 8
PULSANTE
 10
0
 20
0
 30
0
 70
128
 71
34
 72
2
 73
38
 74
38
 0
VERTEX
 8
PULSANTE
 10
0
 20
0
 30
0
 70
128
 71
1
 72
35
 73
39
 74
39
 0
VERTEX
 8
PULSANTE
 10
0
 20
0
 30
0
 70
128
 71
36
 72
37
 73
41
 74
40
 0
VERTEX
 8
PULSANTE
 10
0
 20
0
 30
0
 70
128
 71
38
 72
2
 73
42
 74
42
 0
VERTEX
 8
PULSANTE
 10
0
 20
0
 30
0
 70
128
 71
1
 72
39
 73
43
 74
43
 0
VERTEX
 8
PULSANTE
 10
0
 20
0
 30
0
 70
128
 71
40
 72
41
 73
45
 74
44
 0
VERTEX
 8
PULSANTE
 10
0
 20
0
 30
0
 70
128
 71
42
 72
2
 73
46
 74
46
 0
VERTEX
 8
PULSANTE
 10
0
 20
0
 30
0
 70
128
 71
1
 72
43
 73
47
 74
47
 0
VERTEX
 8
PULSANTE
 10
0
 20
0
 30
0
 70
128
 71
44
 72
45
 73
49
 74
48
 0
VERTEX
 8
PULSANTE
 10
0
 20
0
 30
0
 70
128
 71
46
 72
2
 73
50
 74
50
 0
VERTEX
 8
PULSANTE
 10
0
 20
0
 30
0
 70
128
 71
1
 72
47
 73
51
 74
51
 0
VERTEX
 8
PULSANTE
 10
0
 20
0
 30
0
 70
128
 71
48
 72
49
 73
53
 74
52
 0
VERTEX
 8
PULSANTE
 10
0
 20
0
 30
0
 70
128
 71
50
 72
2
 73
54
 74
54
 0
VERTEX
 8
PULSANTE
 10
0
 20
0
 30
0
 70
128
 71
1
 72
51
 73
55
 74
55
 0
VERTEX
 8
PULSANTE
 10
0
 20
0
 30
0
 70
128
 71
52
 72
53
 73
57
 74
56
 0
VERTEX
 8
PULSANTE
 10
0
 20
0
 30
0
 70
128
 71
54
 72
2
 73
58
 74
58
 0
VERTEX
 8
PULSANTE
 10
0
 20
0
 30
0
 70
128
 71
1
 72
55
 73
59
 74
59
 0
VERTEX
 8
PULSANTE
 10
0
 20
0
 30
0
 70
128
 71
56
 72
57
 73
61
 74
60
 0
VERTEX
 8
PULSANTE
 10
0
 20
0
 30
0
 70
128
 71
58
 72
2
 73
62
 74
62
 0
VERTEX
 8
PULSANTE
 10
0
 20
0
 30
0
 70
128
 71
1
 72
59
 73
63
 74
63
 0
VERTEX
 8
PULSANTE
 10
0
 20
0
 30
0
 70
128
 71
60
 72
61
 73
65
 74
64
 0
VERTEX
 8
PULSANTE
 10
0
 20
0
 30
0
 70
128
 71
62
 72
2
 73
66
 74
66
 0
VERTEX
 8
PULSANTE
 10
0
 20
0
 30
0
 70
128
 71
1
 72
63
 73
67
 74
67
 0
VERTEX
 8
PULSANTE
 10
0
 20
0
 30
0
 70
128
 71
64
 72
65
 73
69
 74
68
 0
VERTEX
 8
PULSANTE
 10
0
 20
0
 30
0
 70
128
 71
66
 72
2
 73
70
 74
70
 0
VERTEX
 8
PULSANTE
 10
0
 20
0
 30
0
 70
128
 71
1
 72
67
 73
71
 74
71
 0
VERTEX
 8
PULSANTE
 10
0
 20
0
 30
0
 70
128
 71
68
 72
69
 73
73
 74
72
 0
VERTEX
 8
PULSANTE
 10
0
 20
0
 30
0
 70
128
 71
70
 72
2
 73
74
 74
74
 0
VERTEX
 8
PULSANTE
 10
0
 20
0
 30
0
 70
128
 71
1
 72
71
 73
75
 74
75
 0
VERTEX
 8
PULSANTE
 10
0
 20
0
 30
0
 70
128
 71
72
 72
73
 73
77
 74
76
 0
VERTEX
 8
PULSANTE
 10
0
 20
0
 30
0
 70
128
 71
74
 72
2
 73
78
 74
78
 0
VERTEX
 8
PULSANTE
 10
0
 20
0
 30
0
 70
128
 71
1
 72
75
 73
79
 74
79
 0
VERTEX
 8
PULSANTE
 10
0
 20
0
 30
0
 70
128
 71
76
 72
77
 73
81
 74
80
 0
VERTEX
 8
PULSANTE
 10
0
 20
0
 30
0
 70
128
 71
78
 72
2
 73
82
 74
82
 0
VERTEX
 8
PULSANTE
 10
0
 20
0
 30
0
 70
128
 71
1
 72
79
 73
83
 74
83
 0
VERTEX
 8
PULSANTE
 10
0
 20
0
 30
0
 70
128
 71
80
 72
81
 73
85
 74
84
 0
VERTEX
 8
PULSANTE
 10
0
 20
0
 30
0
 70
128
 71
82
 72
2
 73
86
 74
86
 0
VERTEX
 8
PULSANTE
 10
0
 20
0
 30
0
 70
128
 71
1
 72
83
 73
87
 74
87
 0
VERTEX
 8
PULSANTE
 10
0
 20
0
 30
0
 70
128
 71
84
 72
85
 73
89
 74
88
 0
VERTEX
 8
PULSANTE
 10
0
 20
0
 30
0
 70
128
 71
86
 72
2
 73
90
 74
90
 0
VERTEX
 8
PULSANTE
 10
0
 20
0
 30
0
 70
128
 71
1
 72
87
 73
91
 74
91
 0
VERTEX
 8
PULSANTE
 10
0
 20
0
 30
0
 70
128
 71
88
 72
89
 73
93
 74
92
 0
VERTEX
 8
PULSANTE
 10
0
 20
0
 30
0
 70
128
 71
90
 72
2
 73
94
 74
94
 0
VERTEX
 8
PULSANTE
 10
0
 20
0
 30
0
 70
128
 71
1
 72
91
 73
95
 74
95
 0
VERTEX
 8
PULSANTE
 10
0
 20
0
 30
0
 70
128
 71
92
 72
93
 73
97
 74
96
 0
VERTEX
 8
PULSANTE
 10
0
 20
0
 30
0
 70
128
 71
94
 72
2
 73
98
 74
98
 0
VERTEX
 8
PULSANTE
 10
0
 20
0
 30
0
 70
128
 71
1
 72
95
 73
99
 74
99
 0
VERTEX
 8
PULSANTE
 10
0
 20
0
 30
0
 70
128
 71
96
 72
97
 73
101
 74
100
 0
VERTEX
 8
PULSANTE
 10
0
 20
0
 30
0
 70
128
 71
98
 72
2
 73
102
 74
102
 0
VERTEX
 8
PULSANTE
 10
0
 20
0
 30
0
 70
128
 71
1
 72
99
 73
103
 74
103
 0
VERTEX
 8
PULSANTE
 10
0
 20
0
 30
0
 70
128
 71
100
 72
101
 73
105
 74
104
 0
VERTEX
 8
PULSANTE
 10
0
 20
0
 30
0
 70
128
 71
102
 72
2
 73
106
 74
106
 0
VERTEX
 8
PULSANTE
 10
0
 20
0
 30
0
 70
128
 71
1
 72
103
 73
107
 74
107
 0
VERTEX
 8
PULSANTE
 10
0
 20
0
 30
0
 70
128
 71
104
 72
105
 73
109
 74
108
 0
VERTEX
 8
PULSANTE
 10
0
 20
0
 30
0
 70
128
 71
106
 72
2
 73
110
 74
110
 0
VERTEX
 8
PULSANTE
 10
0
 20
0
 30
0
 70
128
 71
1
 72
107
 73
111
 74
111
 0
VERTEX
 8
PULSANTE
 10
0
 20
0
 30
0
 70
128
 71
108
 72
109
 73
113
 74
112
 0
VERTEX
 8
PULSANTE
 10
0
 20
0
 30
0
 70
128
 71
110
 72
2
 73
114
 74
114
 0
VERTEX
 8
PULSANTE
 10
0
 20
0
 30
0
 70
128
 71
1
 72
111
 73
115
 74
115
 0
VERTEX
 8
PULSANTE
 10
0
 20
0
 30
0
 70
128
 71
112
 72
113
 73
117
 74
116
 0
VERTEX
 8
PULSANTE
 10
0
 20
0
 30
0
 70
128
 71
114
 72
2
 73
118
 74
118
 0
VERTEX
 8
PULSANTE
 10
0
 20
0
 30
0
 70
128
 71
1
 72
115
 73
119
 74
119
 0
VERTEX
 8
PULSANTE
 10
0
 20
0
 30
0
 70
128
 71
116
 72
117
 73
121
 74
120
 0
VERTEX
 8
PULSANTE
 10
0
 20
0
 30
0
 70
128
 71
118
 72
2
 73
122
 74
122
 0
VERTEX
 8
PULSANTE
 10
0
 20
0
 30
0
 70
128
 71
1
 72
119
 73
123
 74
123
 0
VERTEX
 8
PULSANTE
 10
0
 20
0
 30
0
 70
128
 71
120
 72
121
 73
125
 74
124
 0
VERTEX
 8
PULSANTE
 10
0
 20
0
 30
0
 70
128
 71
122
 72
2
 73
126
 74
126
 0
VERTEX
 8
PULSANTE
 10
0
 20
0
 30
0
 70
128
 71
1
 72
123
 73
127
 74
127
 0
VERTEX
 8
PULSANTE
 10
0
 20
0
 30
0
 70
128
 71
124
 72
125
 73
129
 74
128
 0
VERTEX
 8
PULSANTE
 10
0
 20
0
 30
0
 70
128
 71
126
 72
2
 73
130
 74
130
 0
VERTEX
 8
PULSANTE
 10
0
 20
0
 30
0
 70
128
 71
1
 72
127
 73
131
 74
131
 0
VERTEX
 8
PULSANTE
 10
0
 20
0
 30
0
 70
128
 71
128
 72
129
 73
133
 74
132
 0
VERTEX
 8
PULSANTE
 10
0
 20
0
 30
0
 70
128
 71
130
 72
2
 73
134
 74
134
 0
VERTEX
 8
PULSANTE
 10
0
 20
0
 30
0
 70
128
 71
1
 72
131
 73
135
 74
135
 0
VERTEX
 8
PULSANTE
 10
0
 20
0
 30
0
 70
128
 71
132
 72
133
 73
137
 74
136
 0
VERTEX
 8
PULSANTE
 10
0
 20
0
 30
0
 70
128
 71
134
 72
2
 73
138
 74
138
 0
VERTEX
 8
PULSANTE
 10
0
 20
0
 30
0
 70
128
 71
1
 72
135
 73
139
 74
139
 0
VERTEX
 8
PULSANTE
 10
0
 20
0
 30
0
 70
128
 71
136
 72
137
 73
141
 74
140
 0
VERTEX
 8
PULSANTE
 10
0
 20
0
 30
0
 70
128
 71
138
 72
2
 73
142
 74
142
 0
VERTEX
 8
PULSANTE
 10
0
 20
0
 30
0
 70
128
 71
1
 72
139
 73
143
 74
143
 0
VERTEX
 8
PULSANTE
 10
0
 20
0
 30
0
 70
128
 71
140
 72
141
 73
145
 74
144
 0
VERTEX
 8
PULSANTE
 10
0
 20
0
 30
0
 70
128
 71
142
 72
2
 73
146
 74
146
 0
VERTEX
 8
PULSANTE
 10
0
 20
0
 30
0
 70
128
 71
1
 72
143
 73
3
 74
3
 0
VERTEX
 8
PULSANTE
 10
0
 20
0
 30
0
 70
128
 71
144
 72
145
 73
5
 74
4
 0
VERTEX
 8
PULSANTE
 10
0
 20
0
 30
0
 70
128
 71
146
 72
2
 73
6
 74
6
 0
SEQEND
 0
POLYLINE
 8
CILINDRO_2
 66
1
 10
0.0
 20
0.0
 30
0.0
 70
64
 71
554
 72
604
 0
VERTEX
 8
CILINDRO_2
 10
7.6663
 20
-13.9263
 30
0.4511
 70
192
 0
VERTEX
 8
CILINDRO_2
 10
7.6663
 20
-14.1632
 30
1.8172
 70
192
 0
VERTEX
 8
CILINDRO_2
 10
9.2961
 20
-14.1632
 30
1.8172
 70
192
 0
VERTEX
 8
CILINDRO_2
 10
9.2713
 20
-13.9094
 30
1.8651
 70
192
 0
VERTEX
 8
CILINDRO_2
 10
9.1978
 20
-13.6633
 30
1.9117
 70
192
 0
VERTEX
 8
CILINDRO_2
 10
9.0777
 20
-13.4323
 30
1.9553
 70
192
 0
VERTEX
 8
CILINDRO_2
 10
8.9148
 20
-13.2236
 30
1.9948
 70
192
 0
VERTEX
 8
CILINDRO_2
 10
8.7139
 20
-13.0435
 30
2.0288
 70
192
 0
VERTEX
 8
CILINDRO_2
 10
8.4812
 20
-12.8973
 30
2.0564
 70
192
 0
VERTEX
 8
CILINDRO_2
 10
8.2237
 20
-12.7897
 30
2.0768
 70
192
 0
VERTEX
 8
CILINDRO_2
 10
7.9493
 20
-12.7237
 30
2.0893
 70
192
 0
VERTEX
 8
CILINDRO_2
 10
7.6663
 20
-12.7015
 30
2.0935
 70
192
 0
VERTEX
 8
CILINDRO_2
 10
7.6663
 20
-15.6249
 30
1.5409
 70
192
 0
VERTEX
 8
CILINDRO_2
 10
7.9493
 20
-15.6027
 30
1.5451
 70
192
 0
VERTEX
 8
CILINDRO_2
 10
8.2237
 20
-15.5367
 30
1.5575
 70
192
 0
VERTEX
 8
CILINDRO_2
 10
8.4812
 20
-15.429
 30
1.5779
 70
192
 0
VERTEX
 8
CILINDRO_2
 10
8.7139
 20
-15.2829
 30
1.6055
 70
192
 0
VERTEX
 8
CILINDRO_2
 10
8.9148
 20
-15.1027
 30
1.6396
 70
192
 0
VERTEX
 8
CILINDRO_2
 10
9.0777
 20
-14.894
 30
1.679
 70
192
 0
VERTEX
 8
CILINDRO_2
 10
9.1978
 20
-14.6631
 30
1.7227
 70
192
 0
VERTEX
 8
CILINDRO_2
 10
9.2713
 20
-14.417
 30
1.7692
 70
192
 0
VERTEX
 8
CILINDRO_2
 10
-7.669
 20
-13.9263
 30
0.4511
 70
192
 0
VERTEX
 8
CILINDRO_2
 10
-7.669
 20
-14.1632
 30
1.8172
 70
192
 0
VERTEX
 8
CILINDRO_2
 10
-9.274
 20
-14.417
 30
1.7692
 70
192
 0
VERTEX
 8
CILINDRO_2
 10
-9.2005
 20
-14.6631
 30
1.7227
 70
192
 0
VERTEX
 8
CILINDRO_2
 10
-9.0804
 20
-14.894
 30
1.679
 70
192
 0
VERTEX
 8
CILINDRO_2
 10
-8.9175
 20
-15.1027
 30
1.6396
 70
192
 0
VERTEX
 8
CILINDRO_2
 10
-8.7166
 20
-15.2829
 30
1.6055
 70
192
 0
VERTEX
 8
CILINDRO_2
 10
-8.4839
 20
-15.429
 30
1.5779
 70
192
 0
VERTEX
 8
CILINDRO_2
 10
-8.2264
 20
-15.5367
 30
1.5575
 70
192
 0
VERTEX
 8
CILINDRO_2
 10
-7.952
 20
-15.6027
 30
1.5451
 70
192
 0
VERTEX
 8
CILINDRO_2
 10
-7.669
 20
-15.6249
 30
1.5409
 70
192
 0
VERTEX
 8
CILINDRO_2
 10
-7.669
 20
-12.7015
 30
2.0935
 70
192
 0
VERTEX
 8
CILINDRO_2
 10
-7.952
 20
-12.7237
 30
2.0893
 70
192
 0
VERTEX
 8
CILINDRO_2
 10
-8.2264
 20
-12.7897
 30
2.0768
 70
192
 0
VERTEX
 8
CILINDRO_2
 10
-8.4839
 20
-12.8973
 30
2.0564
 70
192
 0
VERTEX
 8
CILINDRO_2
 10
-8.7166
 20
-13.0435
 30
2.0288
 70
192
 0
VERTEX
 8
CILINDRO_2
 10
-8.9175
 20
-13.2236
 30
1.9948
 70
192
 0
VERTEX
 8
CILINDRO_2
 10
-9.0804
 20
-13.4323
 30
1.9553
 70
192
 0
VERTEX
 8
CILINDRO_2
 10
-9.2005
 20
-13.6633
 30
1.9117
 70
192
 0
VERTEX
 8
CILINDRO_2
 10
-9.274
 20
-13.9094
 30
1.8651
 70
192
 0
VERTEX
 8
CILINDRO_2
 10
-9.2988
 20
-14.1632
 30
1.8172
 70
192
 0
VERTEX
 8
CILINDRO_2
 10
7.9814
 20
-13.8765
 30
0.4605
 70
192
 0
VERTEX
 8
CILINDRO_2
 10
9.2961
 20
-13.9908
 30
0.9053
 70
192
 0
VERTEX
 8
CILINDRO_2
 10
7.9566
 20
-13.8316
 30
0.469
 70
192
 0
VERTEX
 8
CILINDRO_2
 10
9.2713
 20
-13.737
 30
0.9533
 70
192
 0
VERTEX
 8
CILINDRO_2
 10
7.9193
 20
-13.7953
 30
0.4758
 70
192
 0
VERTEX
 8
CILINDRO_2
 10
9.1978
 20
-13.4909
 30
0.9998
 70
192
 0
VERTEX
 8
CILINDRO_2
 10
7.8745
 20
-13.7697
 30
0.4807
 70
192
 0
VERTEX
 8
CILINDRO_2
 10
9.0777
 20
-13.26
 30
1.0435
 70
192
 0
VERTEX
 8
CILINDRO_2
 10
7.8273
 20
-13.7543
 30
0.4836
 70
192
 0
VERTEX
 8
CILINDRO_2
 10
8.9148
 20
-13.0513
 30
1.0829
 70
192
 0
VERTEX
 8
CILINDRO_2
 10
7.7817
 20
-13.7471
 30
0.4849
 70
192
 0
VERTEX
 8
CILINDRO_2
 10
8.7139
 20
-12.8711
 30
1.117
 70
192
 0
VERTEX
 8
CILINDRO_2
 10
8.4812
 20
-12.725
 30
1.1446
 70
192
 0
VERTEX
 8
CILINDRO_2
 10
7.7398
 20
-13.7453
 30
0.4853
 70
192
 0
VERTEX
 8
CILINDRO_2
 10
7.7018
 20
-13.7457
 30
0.4852
 70
192
 0
VERTEX
 8
CILINDRO_2
 10
8.2237
 20
-12.6173
 30
1.165
 70
192
 0
VERTEX
 8
CILINDRO_2
 10
7.9493
 20
-12.5514
 30
1.1774
 70
192
 0
VERTEX
 8
CILINDRO_2
 10
7.6663
 20
-13.744
 30
0.4855
 70
192
 0
VERTEX
 8
CILINDRO_2
 10
7.7018
 20
-14.107
 30
0.4169
 70
192
 0
VERTEX
 8
CILINDRO_2
 10
7.6663
 20
-15.4525
 30
0.629
 70
192
 0
VERTEX
 8
CILINDRO_2
 10
7.9493
 20
-15.4303
 30
0.6332
 70
192
 0
VERTEX
 8
CILINDRO_2
 10
7.7398
 20
-14.1073
 30
0.4168
 70
192
 0
VERTEX
 8
CILINDRO_2
 10
8.2237
 20
-15.3644
 30
0.6457
 70
192
 0
VERTEX
 8
CILINDRO_2
 10
7.7817
 20
-14.1055
 30
0.4172
 70
192
 0
VERTEX
 8
CILINDRO_2
 10
7.8745
 20
-14.083
 30
0.4215
 70
192
 0
VERTEX
 8
CILINDRO_2
 10
7.8273
 20
-14.0984
 30
0.4185
 70
192
 0
VERTEX
 8
CILINDRO_2
 10
8.4812
 20
-15.2567
 30
0.666
 70
192
 0
VERTEX
 8
CILINDRO_2
 10
7.9193
 20
-14.0573
 30
0.4263
 70
192
 0
VERTEX
 8
CILINDRO_2
 10
-7.669
 20
-13.744
 30
0.4855
 70
192
 0
VERTEX
 8
CILINDRO_2
 10
8.9148
 20
-14.9304
 30
0.7277
 70
192
 0
VERTEX
 8
CILINDRO_2
 10
7.6663
 20
-12.5291
 30
1.1816
 70
192
 0
VERTEX
 8
CILINDRO_2
 10
8.7139
 20
-15.1105
 30
0.6937
 70
192
 0
VERTEX
 8
CILINDRO_2
 10
-7.669
 20
-15.4525
 30
0.629
 70
192
 0
VERTEX
 8
CILINDRO_2
 10
7.6663
 20
-14.1086
 30
0.4166
 70
192
 0
VERTEX
 8
CILINDRO_2
 10
9.0777
 20
-14.7217
 30
0.7672
 70
192
 0
VERTEX
 8
CILINDRO_2
 10
7.9566
 20
-14.0211
 30
0.4332
 70
192
 0
VERTEX
 8
CILINDRO_2
 10
7.9901
 20
-13.9263
 30
0.4511
 70
192
 0
VERTEX
 8
CILINDRO_2
 10
9.1978
 20
-14.4907
 30
0.8108
 70
192
 0
VERTEX
 8
CILINDRO_2
 10
7.9814
 20
-13.9761
 30
0.4416
 70
192
 0
VERTEX
 8
CILINDRO_2
 10
9.2713
 20
-14.2446
 30
0.8573
 70
192
 0
VERTEX
 8
CILINDRO_2
 10
-9.274
 20
-14.2446
 30
0.8573
 70
192
 0
VERTEX
 8
CILINDRO_2
 10
-7.9592
 20
-14.0211
 30
0.4332
 70
192
 0
VERTEX
 8
CILINDRO_2
 10
-9.2988
 20
-13.9908
 30
0.9053
 70
192
 0
VERTEX
 8
CILINDRO_2
 10
-7.9841
 20
-13.9761
 30
0.4416
 70
192
 0
VERTEX
 8
CILINDRO_2
 10
-9.2005
 20
-14.4907
 30
0.8108
 70
192
 0
VERTEX
 8
CILINDRO_2
 10
-7.922
 20
-14.0573
 30
0.4263
 70
192
 0
VERTEX
 8
CILINDRO_2
 10
-9.0804
 20
-14.7217
 30
0.7672
 70
192
 0
VERTEX
 8
CILINDRO_2
 10
-7.8772
 20
-14.083
 30
0.4215
 70
192
 0
VERTEX
 8
CILINDRO_2
 10
-8.9175
 20
-14.9304
 30
0.7277
 70
192
 0
VERTEX
 8
CILINDRO_2
 10
-7.83
 20
-14.0984
 30
0.4185
 70
192
 0
VERTEX
 8
CILINDRO_2
 10
-8.7166
 20
-15.1105
 30
0.6937
 70
192
 0
VERTEX
 8
CILINDRO_2
 10
-7.7844
 20
-14.1055
 30
0.4172
 70
192
 0
VERTEX
 8
CILINDRO_2
 10
-8.4839
 20
-15.2567
 30
0.666
 70
192
 0
VERTEX
 8
CILINDRO_2
 10
-7.7425
 20
-14.1073
 30
0.4168
 70
192
 0
VERTEX
 8
CILINDRO_2
 10
-8.2264
 20
-15.3644
 30
0.6457
 70
192
 0
VERTEX
 8
CILINDRO_2
 10
-7.7045
 20
-14.107
 30
0.4169
 70
192
 0
VERTEX
 8
CILINDRO_2
 10
-7.952
 20
-15.4303
 30
0.6332
 70
192
 0
VERTEX
 8
CILINDRO_2
 10
-7.669
 20
-14.1086
 30
0.4166
 70
192
 0
VERTEX
 8
CILINDRO_2
 10
-7.669
 20
-12.5291
 30
1.1816
 70
192
 0
VERTEX
 8
CILINDRO_2
 10
-7.7045
 20
-13.7457
 30
0.4852
 70
192
 0
VERTEX
 8
CILINDRO_2
 10
-7.952
 20
-12.5514
 30
1.1774
 70
192
 0
VERTEX
 8
CILINDRO_2
 10
-7.7425
 20
-13.7453
 30
0.4853
 70
192
 0
VERTEX
 8
CILINDRO_2
 10
-8.2264
 20
-12.6173
 30
1.165
 70
192
 0
VERTEX
 8
CILINDRO_2
 10
-7.7844
 20
-13.7471
 30
0.4849
 70
192
 0
VERTEX
 8
CILINDRO_2
 10
-8.4839
 20
-12.725
 30
1.1446
 70
192
 0
VERTEX
 8
CILINDRO_2
 10
-7.83
 20
-13.7543
 30
0.4836
 70
192
 0
VERTEX
 8
CILINDRO_2
 10
-8.7166
 20
-12.8711
 30
1.117
 70
192
 0
VERTEX
 8
CILINDRO_2
 10
-7.8772
 20
-13.7697
 30
0.4807
 70
192
 0
VERTEX
 8
CILINDRO_2
 10
-8.9175
 20
-13.0513
 30
1.0829
 70
192
 0
VERTEX
 8
CILINDRO_2
 10
-7.922
 20
-13.7953
 30
0.4758
 70
192
 0
VERTEX
 8
CILINDRO_2
 10
-9.0804
 20
-13.26
 30
1.0435
 70
192
 0
VERTEX
 8
CILINDRO_2
 10
-7.9592
 20
-13.8316
 30
0.469
 70
192
 0
VERTEX
 8
CILINDRO_2
 10
-9.2005
 20
-13.4909
 30
0.9998
 70
192
 0
VERTEX
 8
CILINDRO_2
 10
-7.9841
 20
-13.8765
 30
0.4605
 70
192
 0
VERTEX
 8
CILINDRO_2
 10
-9.274
 20
-13.737
 30
0.9533
 70
192
 0
VERTEX
 8
CILINDRO_2
 10
-7.9928
 20
-13.9263
 30
0.4511
 70
192
 0
VERTEX
 8
CILINDRO_2
 10
-8.9039
 20
-13.0422
 30
0.9664
 70
192
 0
VERTEX
 8
CILINDRO_2
 10
-8.8603
 20
-13.0636
 30
0.8814
 70
192
 0
VERTEX
 8
CILINDRO_2
 10
-8.7846
 20
-13.1114
 30
0.803
 70
192
 0
VERTEX
 8
CILINDRO_2
 10
-8.6772
 20
-13.1851
 30
0.7317
 70
192
 0
VERTEX
 8
CILINDRO_2
 10
-8.5421
 20
-13.2808
 30
0.6648
 70
192
 0
VERTEX
 8
CILINDRO_2
 10
-8.3859
 20
-13.3938
 30
0.6055
 70
192
 0
VERTEX
 8
CILINDRO_2
 10
-8.2173
 20
-13.517
 30
0.5527
 70
192
 0
VERTEX
 8
CILINDRO_2
 10
-8.045
 20
-13.6442
 30
0.5106
 70
192
 0
VERTEX
 8
CILINDRO_2
 10
8.2009
 20
-13.9272
 30
0.4571
 70
192
 0
VERTEX
 8
CILINDRO_2
 10
8.4171
 20
-13.9296
 30
0.4747
 70
192
 0
VERTEX
 8
CILINDRO_2
 10
8.6288
 20
-13.9333
 30
0.5035
 70
192
 0
VERTEX
 8
CILINDRO_2
 10
8.8249
 20
-13.9379
 30
0.5406
 70
192
 0
VERTEX
 8
CILINDRO_2
 10
8.9945
 20
-13.9439
 30
0.5883
 70
192
 0
VERTEX
 8
CILINDRO_2
 10
9.1293
 20
-13.9509
 30
0.6443
 70
192
 0
VERTEX
 8
CILINDRO_2
 10
9.2243
 20
-13.9601
 30
0.7119
 70
192
 0
VERTEX
 8
CILINDRO_2
 10
9.279
 20
-13.9715
 30
0.7907
 70
192
 0
VERTEX
 8
CILINDRO_2
 10
-8.2201
 20
-12.6136
 30
1.0474
 70
192
 0
VERTEX
 8
CILINDRO_2
 10
-8.1998
 20
-12.6521
 30
0.9592
 70
192
 0
VERTEX
 8
CILINDRO_2
 10
-8.1646
 20
-12.7297
 30
0.8752
 70
192
 0
VERTEX
 8
CILINDRO_2
 10
-8.1147
 20
-12.8457
 30
0.7959
 70
192
 0
VERTEX
 8
CILINDRO_2
 10
-8.0518
 20
-12.9947
 30
0.7189
 70
192
 0
VERTEX
 8
CILINDRO_2
 10
-7.9791
 20
-13.1691
 30
0.6479
 70
192
 0
VERTEX
 8
CILINDRO_2
 10
-7.9007
 20
-13.3587
 30
0.5826
 70
192
 0
VERTEX
 8
CILINDRO_2
 10
-7.8206
 20
-13.5537
 30
0.5277
 70
192
 0
VERTEX
 8
CILINDRO_2
 10
8.1895
 20
-13.8444
 30
0.4728
 70
192
 0
VERTEX
 8
CILINDRO_2
 10
8.4031
 20
-13.8131
 30
0.4967
 70
192
 0
VERTEX
 8
CILINDRO_2
 10
8.6122
 20
-13.7838
 30
0.5317
 70
192
 0
VERTEX
 8
CILINDRO_2
 10
8.8059
 20
-13.7577
 30
0.5746
 70
192
 0
VERTEX
 8
CILINDRO_2
 10
8.9734
 20
-13.7371
 30
0.6273
 70
192
 0
VERTEX
 8
CILINDRO_2
 10
9.1066
 20
-13.7232
 30
0.6874
 70
192
 0
VERTEX
 8
CILINDRO_2
 10
9.2005
 20
-13.7175
 30
0.7578
 70
192
 0
VERTEX
 8
CILINDRO_2
 10
9.2544
 20
-13.7204
 30
0.8382
 70
192
 0
VERTEX
 8
CILINDRO_2
 10
-8.4747
 20
-12.7199
 30
1.0273
 70
192
 0
VERTEX
 8
CILINDRO_2
 10
-8.4455
 20
-12.7539
 30
0.9399
 70
192
 0
VERTEX
 8
CILINDRO_2
 10
-8.3945
 20
-12.8239
 30
0.8574
 70
192
 0
VERTEX
 8
CILINDRO_2
 10
-8.3223
 20
-12.9289
 30
0.7801
 70
192
 0
VERTEX
 8
CILINDRO_2
 10
-8.2315
 20
-13.0642
 30
0.7057
 70
192
 0
VERTEX
 8
CILINDRO_2
 10
-8.1265
 20
-13.2227
 30
0.6378
 70
192
 0
VERTEX
 8
CILINDRO_2
 10
-8.013
 20
-13.3951
 30
0.5757
 70
192
 0
VERTEX
 8
CILINDRO_2
 10
-7.8972
 20
-13.5727
 30
0.5242
 70
192
 0
VERTEX
 8
CILINDRO_2
 10
8.1568
 20
-13.7671
 30
0.4874
 70
192
 0
VERTEX
 8
CILINDRO_2
 10
8.3623
 20
-13.7024
 30
0.5176
 70
192
 0
VERTEX
 8
CILINDRO_2
 10
8.5636
 20
-13.6405
 30
0.5588
 70
192
 0
VERTEX
 8
CILINDRO_2
 10
8.7499
 20
-13.5842
 30
0.6074
 70
192
 0
VERTEX
 8
CILINDRO_2
 10
8.9112
 20
-13.5375
 30
0.6651
 70
192
 0
VERTEX
 8
CILINDRO_2
 10
9.0392
 20
-13.5028
 30
0.729
 70
192
 0
VERTEX
 8
CILINDRO_2
 10
9.1296
 20
-13.4824
 30
0.8022
 70
192
 0
VERTEX
 8
CILINDRO_2
 10
9.1815
 20
-13.4769
 30
0.8842
 70
192
 0
VERTEX
 8
CILINDRO_2
 10
-9.2571
 20
-13.7204
 30
0.8382
 70
192
 0
VERTEX
 8
CILINDRO_2
 10
-9.2031
 20
-13.7175
 30
0.7578
 70
192
 0
VERTEX
 8
CILINDRO_2
 10
-9.1092
 20
-13.7232
 30
0.6874
 70
192
 0
VERTEX
 8
CILINDRO_2
 10
-8.9761
 20
-13.7371
 30
0.6273
 70
192
 0
VERTEX
 8
CILINDRO_2
 10
-8.8086
 20
-13.7577
 30
0.5746
 70
192
 0
VERTEX
 8
CILINDRO_2
 10
-8.6149
 20
-13.7838
 30
0.5317
 70
192
 0
VERTEX
 8
CILINDRO_2
 10
-8.4058
 20
-13.8131
 30
0.4967
 70
192
 0
VERTEX
 8
CILINDRO_2
 10
-8.1922
 20
-13.8444
 30
0.4728
 70
192
 0
VERTEX
 8
CILINDRO_2
 10
8.1062
 20
-13.6994
 30
0.5002
 70
192
 0
VERTEX
 8
CILINDRO_2
 10
8.298
 20
-13.6025
 30
0.5365
 70
192
 0
VERTEX
 8
CILINDRO_2
 10
8.4858
 20
-13.509
 30
0.5837
 70
192
 0
VERTEX
 8
CILINDRO_2
 10
8.6597
 20
-13.4235
 30
0.6378
 70
192
 0
VERTEX
 8
CILINDRO_2
 10
8.8102
 20
-13.3515
 30
0.7002
 70
192
 0
VERTEX
 8
CILINDRO_2
 10
8.9298
 20
-13.2967
 30
0.768
 70
192
 0
VERTEX
 8
CILINDRO_2
 10
9.0141
 20
-13.2622
 30
0.8439
 70
192
 0
VERTEX
 8
CILINDRO_2
 10
9.0626
 20
-13.2486
 30
0.9274
 70
192
 0
VERTEX
 8
CILINDRO_2
 10
-9.2817
 20
-13.9715
 30
0.7907
 70
192
 0
VERTEX
 8
CILINDRO_2
 10
-9.227
 20
-13.9601
 30
0.7119
 70
192
 0
VERTEX
 8
CILINDRO_2
 10
-9.132
 20
-13.9509
 30
0.6443
 70
192
 0
VERTEX
 8
CILINDRO_2
 10
-8.9972
 20
-13.9439
 30
0.5883
 70
192
 0
VERTEX
 8
CILINDRO_2
 10
-8.8275
 20
-13.9379
 30
0.5406
 70
192
 0
VERTEX
 8
CILINDRO_2
 10
-8.6315
 20
-13.9333
 30
0.5035
 70
192
 0
VERTEX
 8
CILINDRO_2
 10
-8.4198
 20
-13.9296
 30
0.4747
 70
192
 0
VERTEX
 8
CILINDRO_2
 10
-8.2035
 20
-13.9272
 30
0.4571
 70
192
 0
VERTEX
 8
CILINDRO_2
 10
8.0424
 20
-13.6442
 30
0.5106
 70
192
 0
VERTEX
 8
CILINDRO_2
 10
8.2146
 20
-13.517
 30
0.5527
 70
192
 0
VERTEX
 8
CILINDRO_2
 10
8.3832
 20
-13.3938
 30
0.6055
 70
192
 0
VERTEX
 8
CILINDRO_2
 10
8.5394
 20
-13.2808
 30
0.6648
 70
192
 0
VERTEX
 8
CILINDRO_2
 10
8.6746
 20
-13.1851
 30
0.7317
 70
192
 0
VERTEX
 8
CILINDRO_2
 10
8.7819
 20
-13.1114
 30
0.803
 70
192
 0
VERTEX
 8
CILINDRO_2
 10
8.8576
 20
-13.0636
 30
0.8814
 70
192
 0
VERTEX
 8
CILINDRO_2
 10
8.9012
 20
-13.0422
 30
0.9664
 70
192
 0
VERTEX
 8
CILINDRO_2
 10
-9.0652
 20
-13.2486
 30
0.9274
 70
192
 0
VERTEX
 8
CILINDRO_2
 10
-9.0168
 20
-13.2622
 30
0.8439
 70
192
 0
VERTEX
 8
CILINDRO_2
 10
-8.9324
 20
-13.2967
 30
0.768
 70
192
 0
VERTEX
 8
CILINDRO_2
 10
-8.8129
 20
-13.3515
 30
0.7002
 70
192
 0
VERTEX
 8
CILINDRO_2
 10
-8.6624
 20
-13.4235
 30
0.6378
 70
192
 0
VERTEX
 8
CILINDRO_2
 10
-8.4885
 20
-13.509
 30
0.5837
 70
192
 0
VERTEX
 8
CILINDRO_2
 10
-8.3007
 20
-13.6025
 30
0.5365
 70
192
 0
VERTEX
 8
CILINDRO_2
 10
-8.1089
 20
-13.6994
 30
0.5002
 70
192
 0
VERTEX
 8
CILINDRO_2
 10
7.9704
 20
-13.6022
 30
0.5186
 70
192
 0
VERTEX
 8
CILINDRO_2
 10
8.1171
 20
-13.4477
 30
0.5658
 70
192
 0
VERTEX
 8
CILINDRO_2
 10
8.2609
 20
-13.2978
 30
0.6236
 70
192
 0
VERTEX
 8
CILINDRO_2
 10
8.394
 20
-13.1601
 30
0.6876
 70
192
 0
VERTEX
 8
CILINDRO_2
 10
8.5092
 20
-13.043
 30
0.7586
 70
192
 0
VERTEX
 8
CILINDRO_2
 10
8.6007
 20
-12.9523
 30
0.8331
 70
192
 0
VERTEX
 8
CILINDRO_2
 10
8.6652
 20
-12.8924
 30
0.9138
 70
192
 0
VERTEX
 8
CILINDRO_2
 10
8.7023
 20
-12.8642
 30
1
 70
192
 0
VERTEX
 8
CILINDRO_2
 10
-9.1842
 20
-13.4769
 30
0.8842
 70
192
 0
VERTEX
 8
CILINDRO_2
 10
-9.1323
 20
-13.4824
 30
0.8022
 70
192
 0
VERTEX
 8
CILINDRO_2
 10
-9.0419
 20
-13.5028
 30
0.729
 70
192
 0
VERTEX
 8
CILINDRO_2
 10
-8.9138
 20
-13.5375
 30
0.6651
 70
192
 0
VERTEX
 8
CILINDRO_2
 10
-8.7526
 20
-13.5842
 30
0.6074
 70
192
 0
VERTEX
 8
CILINDRO_2
 10
-8.5663
 20
-13.6405
 30
0.5588
 70
192
 0
VERTEX
 8
CILINDRO_2
 10
-8.365
 20
-13.7024
 30
0.5176
 70
192
 0
VERTEX
 8
CILINDRO_2
 10
-8.1595
 20
-13.7671
 30
0.4874
 70
192
 0
VERTEX
 8
CILINDRO_2
 10
7.8945
 20
-13.5727
 30
0.5242
 70
192
 0
VERTEX
 8
CILINDRO_2
 10
8.0104
 20
-13.3951
 30
0.5757
 70
192
 0
VERTEX
 8
CILINDRO_2
 10
8.1238
 20
-13.2227
 30
0.6378
 70
192
 0
VERTEX
 8
CILINDRO_2
 10
8.2288
 20
-13.0642
 30
0.7057
 70
192
 0
VERTEX
 8
CILINDRO_2
 10
8.3197
 20
-12.9289
 30
0.7801
 70
192
 0
VERTEX
 8
CILINDRO_2
 10
8.3918
 20
-12.8239
 30
0.8574
 70
192
 0
VERTEX
 8
CILINDRO_2
 10
8.4428
 20
-12.7539
 30
0.9399
 70
192
 0
VERTEX
 8
CILINDRO_2
 10
8.472
 20
-12.7199
 30
1.0273
 70
192
 0
VERTEX
 8
CILINDRO_2
 10
8.2174
 20
-12.6136
 30
1.0474
 70
192
 0
VERTEX
 8
CILINDRO_2
 10
8.1971
 20
-12.6521
 30
0.9592
 70
192
 0
VERTEX
 8
CILINDRO_2
 10
8.1619
 20
-12.7297
 30
0.8752
 70
192
 0
VERTEX
 8
CILINDRO_2
 10
8.112
 20
-12.8457
 30
0.7959
 70
192
 0
VERTEX
 8
CILINDRO_2
 10
8.0491
 20
-12.9947
 30
0.7189
 70
192
 0
VERTEX
 8
CILINDRO_2
 10
7.9765
 20
-13.1691
 30
0.6479
 70
192
 0
VERTEX
 8
CILINDRO_2
 10
7.898
 20
-13.3587
 30
0.5826
 70
192
 0
VERTEX
 8
CILINDRO_2
 10
7.8179
 20
-13.5537
 30
0.5277
 70
192
 0
VERTEX
 8
CILINDRO_2
 10
7.7418
 20
-13.5434
 30
0.5297
 70
192
 0
VERTEX
 8
CILINDRO_2
 10
7.7827
 20
-13.3374
 30
0.5866
 70
192
 0
VERTEX
 8
CILINDRO_2
 10
7.8229
 20
-13.1371
 30
0.654
 70
192
 0
VERTEX
 8
CILINDRO_2
 10
7.86
 20
-12.9527
 30
0.7268
 70
192
 0
VERTEX
 8
CILINDRO_2
 10
7.8922
 20
-12.7951
 30
0.8054
 70
192
 0
VERTEX
 8
CILINDRO_2
 10
7.9177
 20
-12.6723
 30
0.886
 70
192
 0
VERTEX
 8
CILINDRO_2
 10
7.9357
 20
-12.5898
 30
0.971
 70
192
 0
VERTEX
 8
CILINDRO_2
 10
7.9461
 20
-12.5486
 30
1.0597
 70
192
 0
VERTEX
 8
CILINDRO_2
 10
7.6663
 20
-12.5266
 30
1.0639
 70
192
 0
VERTEX
 8
CILINDRO_2
 10
7.6663
 20
-12.5687
 30
0.975
 70
192
 0
VERTEX
 8
CILINDRO_2
 10
7.6663
 20
-12.6527
 30
0.8897
 70
192
 0
VERTEX
 8
CILINDRO_2
 10
7.6663
 20
-12.7776
 30
0.8087
 70
192
 0
VERTEX
 8
CILINDRO_2
 10
7.6663
 20
-12.9379
 30
0.7296
 70
192
 0
VERTEX
 8
CILINDRO_2
 10
7.6663
 20
-13.1254
 30
0.6562
 70
192
 0
VERTEX
 8
CILINDRO_2
 10
7.6663
 20
-13.329
 30
0.5882
 70
192
 0
VERTEX
 8
CILINDRO_2
 10
7.6663
 20
-13.5385
 30
0.5306
 70
192
 0
VERTEX
 8
CILINDRO_2
 10
7.6663
 20
-14.3159
 30
0.3837
 70
192
 0
VERTEX
 8
CILINDRO_2
 10
7.6663
 20
-14.5301
 30
0.3612
 70
192
 0
VERTEX
 8
CILINDRO_2
 10
7.6663
 20
-14.7413
 30
0.3507
 70
192
 0
VERTEX
 8
CILINDRO_2
 10
7.6663
 20
-14.9379
 30
0.3515
 70
192
 0
VERTEX
 8
CILINDRO_2
 10
7.6663
 20
-15.1101
 30
0.3678
 70
192
 0
VERTEX
 8
CILINDRO_2
 10
7.6663
 20
-15.2492
 30
0.3989
 70
192
 0
VERTEX
 8
CILINDRO_2
 10
7.6663
 20
-15.3515
 30
0.4489
 70
192
 0
VERTEX
 8
CILINDRO_2
 10
7.6663
 20
-15.4165
 30
0.5176
 70
192
 0
VERTEX
 8
CILINDRO_2
 10
7.7418
 20
-14.3109
 30
0.3846
 70
192
 0
VERTEX
 8
CILINDRO_2
 10
7.7827
 20
-14.5217
 30
0.3627
 70
192
 0
VERTEX
 8
CILINDRO_2
 10
7.8229
 20
-14.7296
 30
0.3529
 70
192
 0
VERTEX
 8
CILINDRO_2
 10
7.86
 20
-14.9232
 30
0.3543
 70
192
 0
VERTEX
 8
CILINDRO_2
 10
7.8922
 20
-15.0926
 30
0.3711
 70
192
 0
VERTEX
 8
CILINDRO_2
 10
7.9177
 20
-15.2296
 30
0.4026
 70
192
 0
VERTEX
 8
CILINDRO_2
 10
7.9357
 20
-15.3304
 30
0.4529
 70
192
 0
VERTEX
 8
CILINDRO_2
 10
7.9461
 20
-15.3945
 30
0.5217
 70
192
 0
VERTEX
 8
CILINDRO_2
 10
8.2174
 20
-15.3294
 30
0.534
 70
192
 0
VERTEX
 8
CILINDRO_2
 10
8.1971
 20
-15.2681
 30
0.4647
 70
192
 0
VERTEX
 8
CILINDRO_2
 10
8.1619
 20
-15.1721
 30
0.4135
 70
192
 0
VERTEX
 8
CILINDRO_2
 10
8.112
 20
-15.042
 30
0.3807
 70
192
 0
VERTEX
 8
CILINDRO_2
 10
8.0491
 20
-14.8811
 30
0.3623
 70
192
 0
VERTEX
 8
CILINDRO_2
 10
7.9765
 20
-14.6976
 30
0.359
 70
192
 0
VERTEX
 8
CILINDRO_2
 10
7.898
 20
-14.5004
 30
0.3668
 70
192
 0
VERTEX
 8
CILINDRO_2
 10
7.8179
 20
-14.3006
 30
0.3866
 70
192
 0
VERTEX
 8
CILINDRO_2
 10
8.472
 20
-15.2232
 30
0.5541
 70
192
 0
VERTEX
 8
CILINDRO_2
 10
8.4428
 20
-15.1662
 30
0.4839
 70
192
 0
VERTEX
 8
CILINDRO_2
 10
8.3918
 20
-15.078
 30
0.4313
 70
192
 0
VERTEX
 8
CILINDRO_2
 10
8.3197
 20
-14.9588
 30
0.3964
 70
192
 0
VERTEX
 8
CILINDRO_2
 10
8.2288
 20
-14.8117
 30
0.3754
 70
192
 0
VERTEX
 8
CILINDRO_2
 10
8.1238
 20
-14.644
 30
0.3691
 70
192
 0
VERTEX
 8
CILINDRO_2
 10
8.0104
 20
-14.464
 30
0.3736
 70
192
 0
VERTEX
 8
CILINDRO_2
 10
7.8945
 20
-14.2817
 30
0.3901
 70
192
 0
VERTEX
 8
CILINDRO_2
 10
7.9704
 20
-14.2522
 30
0.3957
 70
192
 0
VERTEX
 8
CILINDRO_2
 10
8.1171
 20
-14.4114
 30
0.3836
 70
192
 0
VERTEX
 8
CILINDRO_2
 10
8.2609
 20
-14.5688
 30
0.3833
 70
192
 0
VERTEX
 8
CILINDRO_2
 10
8.394
 20
-14.7157
 30
0.3936
 70
192
 0
VERTEX
 8
CILINDRO_2
 10
8.5092
 20
-14.8447
 30
0.418
 70
192
 0
VERTEX
 8
CILINDRO_2
 10
8.6007
 20
-14.9496
 30
0.4555
 70
192
 0
VERTEX
 8
CILINDRO_2
 10
8.6652
 20
-15.0277
 30
0.5101
 70
192
 0
VERTEX
 8
CILINDRO_2
 10
8.7023
 20
-15.0788
 30
0.5814
 70
192
 0
VERTEX
 8
CILINDRO_2
 10
8.0424
 20
-14.2102
 30
0.4037
 70
192
 0
VERTEX
 8
CILINDRO_2
 10
8.2146
 20
-14.3422
 30
0.3967
 70
192
 0
VERTEX
 8
CILINDRO_2
 10
8.3832
 20
-14.4729
 30
0.4015
 70
192
 0
VERTEX
 8
CILINDRO_2
 10
8.5394
 20
-14.595
 30
0.4164
 70
192
 0
VERTEX
 8
CILINDRO_2
 10
8.6746
 20
-14.7026
 30
0.4448
 70
192
 0
VERTEX
 8
CILINDRO_2
 10
8.7819
 20
-14.7905
 30
0.4856
 70
192
 0
VERTEX
 8
CILINDRO_2
 10
8.8576
 20
-14.8566
 30
0.5425
 70
192
 0
VERTEX
 8
CILINDRO_2
 10
8.9012
 20
-14.9008
 30
0.6151
 70
192
 0
VERTEX
 8
CILINDRO_2
 10
8.1062
 20
-14.155
 30
0.4141
 70
192
 0
VERTEX
 8
CILINDRO_2
 10
8.298
 20
-14.2566
 30
0.4128
 70
192
 0
VERTEX
 8
CILINDRO_2
 10
8.4858
 20
-14.3577
 30
0.4233
 70
192
 0
VERTEX
 8
CILINDRO_2
 10
8.6597
 20
-14.4523
 30
0.4433
 70
192
 0
VERTEX
 8
CILINDRO_2
 10
8.8102
 20
-14.5362
 30
0.4763
 70
192
 0
VERTEX
 8
CILINDRO_2
 10
8.9298
 20
-14.6051
 30
0.5206
 70
192
 0
VERTEX
 8
CILINDRO_2
 10
9.0141
 20
-14.658
 30
0.58
 70
192
 0
VERTEX
 8
CILINDRO_2
 10
9.0626
 20
-14.6945
 30
0.6541
 70
192
 0
VERTEX
 8
CILINDRO_2
 10
-7.669
 20
-13.5385
 30
0.5306
 70
192
 0
VERTEX
 8
CILINDRO_2
 10
-7.669
 20
-13.329
 30
0.5882
 70
192
 0
VERTEX
 8
CILINDRO_2
 10
-7.669
 20
-13.1254
 30
0.6562
 70
192
 0
VERTEX
 8
CILINDRO_2
 10
-7.669
 20
-12.9379
 30
0.7296
 70
192
 0
VERTEX
 8
CILINDRO_2
 10
-7.669
 20
-12.7776
 30
0.8087
 70
192
 0
VERTEX
 8
CILINDRO_2
 10
-7.669
 20
-12.6527
 30
0.8897
 70
192
 0
VERTEX
 8
CILINDRO_2
 10
-7.669
 20
-12.5687
 30
0.975
 70
192
 0
VERTEX
 8
CILINDRO_2
 10
-7.669
 20
-12.5266
 30
1.0639
 70
192
 0
VERTEX
 8
CILINDRO_2
 10
-7.669
 20
-15.4165
 30
0.5176
 70
192
 0
VERTEX
 8
CILINDRO_2
 10
-7.669
 20
-15.3515
 30
0.4489
 70
192
 0
VERTEX
 8
CILINDRO_2
 10
-7.669
 20
-15.2492
 30
0.3989
 70
192
 0
VERTEX
 8
CILINDRO_2
 10
-7.669
 20
-15.1101
 30
0.3678
 70
192
 0
VERTEX
 8
CILINDRO_2
 10
-7.669
 20
-14.9379
 30
0.3515
 70
192
 0
VERTEX
 8
CILINDRO_2
 10
-7.669
 20
-14.7413
 30
0.3507
 70
192
 0
VERTEX
 8
CILINDRO_2
 10
-7.669
 20
-14.5301
 30
0.3612
 70
192
 0
VERTEX
 8
CILINDRO_2
 10
-7.669
 20
-14.3159
 30
0.3837
 70
192
 0
VERTEX
 8
CILINDRO_2
 10
9.1815
 20
-14.4662
 30
0.6972
 70
192
 0
VERTEX
 8
CILINDRO_2
 10
9.1296
 20
-14.4377
 30
0.6216
 70
192
 0
VERTEX
 8
CILINDRO_2
 10
9.0392
 20
-14.3991
 30
0.5596
 70
192
 0
VERTEX
 8
CILINDRO_2
 10
8.9112
 20
-14.3502
 30
0.5115
 70
192
 0
VERTEX
 8
CILINDRO_2
 10
8.7499
 20
-14.2916
 30
0.4737
 70
192
 0
VERTEX
 8
CILINDRO_2
 10
8.5636
 20
-14.2262
 30
0.4481
 70
192
 0
VERTEX
 8
CILINDRO_2
 10
8.3623
 20
-14.1568
 30
0.4317
 70
192
 0
VERTEX
 8
CILINDRO_2
 10
8.1568
 20
-14.0873
 30
0.4269
 70
192
 0
VERTEX
 8
CILINDRO_2
 10
8.1895
 20
-14.0099
 30
0.4415
 70
192
 0
VERTEX
 8
CILINDRO_2
 10
8.4031
 20
-14.0461
 30
0.4526
 70
192
 0
VERTEX
 8
CILINDRO_2
 10
8.6122
 20
-14.0829
 30
0.4752
 70
192
 0
VERTEX
 8
CILINDRO_2
 10
8.8059
 20
-14.1181
 30
0.5065
 70
192
 0
VERTEX
 8
CILINDRO_2
 10
8.9734
 20
-14.1506
 30
0.5492
 70
192
 0
VERTEX
 8
CILINDRO_2
 10
9.1066
 20
-14.1787
 30
0.6013
 70
192
 0
VERTEX
 8
CILINDRO_2
 10
9.2005
 20
-14.2027
 30
0.6661
 70
192
 0
VERTEX
 8
CILINDRO_2
 10
9.2544
 20
-14.2227
 30
0.7433
 70
192
 0
VERTEX
 8
CILINDRO_2
 10
-9.2571
 20
-14.2227
 30
0.7433
 70
192
 0
VERTEX
 8
CILINDRO_2
 10
-9.2031
 20
-14.2027
 30
0.6661
 70
192
 0
VERTEX
 8
CILINDRO_2
 10
-9.1092
 20
-14.1787
 30
0.6013
 70
192
 0
VERTEX
 8
CILINDRO_2
 10
-8.9761
 20
-14.1506
 30
0.5492
 70
192
 0
VERTEX
 8
CILINDRO_2
 10
-8.8086
 20
-14.1181
 30
0.5065
 70
192
 0
VERTEX
 8
CILINDRO_2
 10
-8.6149
 20
-14.0829
 30
0.4752
 70
192
 0
VERTEX
 8
CILINDRO_2
 10
-8.4058
 20
-14.0461
 30
0.4526
 70
192
 0
VERTEX
 8
CILINDRO_2
 10
-8.1922
 20
-14.0099
 30
0.4415
 70
192
 0
VERTEX
 8
CILINDRO_2
 10
-9.1842
 20
-14.4662
 30
0.6972
 70
192
 0
VERTEX
 8
CILINDRO_2
 10
-9.1323
 20
-14.4377
 30
0.6216
 70
192
 0
VERTEX
 8
CILINDRO_2
 10
-9.0419
 20
-14.3991
 30
0.5596
 70
192
 0
VERTEX
 8
CILINDRO_2
 10
-8.9138
 20
-14.3502
 30
0.5115
 70
192
 0
VERTEX
 8
CILINDRO_2
 10
-8.7526
 20
-14.2916
 30
0.4737
 70
192
 0
VERTEX
 8
CILINDRO_2
 10
-8.5663
 20
-14.2262
 30
0.4481
 70
192
 0
VERTEX
 8
CILINDRO_2
 10
-8.365
 20
-14.1568
 30
0.4317
 70
192
 0
VERTEX
 8
CILINDRO_2
 10
-8.1595
 20
-14.0873
 30
0.4269
 70
192
 0
VERTEX
 8
CILINDRO_2
 10
-9.0652
 20
-14.6945
 30
0.6541
 70
192
 0
VERTEX
 8
CILINDRO_2
 10
-9.0168
 20
-14.658
 30
0.58
 70
192
 0
VERTEX
 8
CILINDRO_2
 10
-8.9324
 20
-14.6051
 30
0.5206
 70
192
 0
VERTEX
 8
CILINDRO_2
 10
-8.8129
 20
-14.5362
 30
0.4763
 70
192
 0
VERTEX
 8
CILINDRO_2
 10
-8.6624
 20
-14.4523
 30
0.4433
 70
192
 0
VERTEX
 8
CILINDRO_2
 10
-8.4885
 20
-14.3577
 30
0.4233
 70
192
 0
VERTEX
 8
CILINDRO_2
 10
-8.3007
 20
-14.2566
 30
0.4128
 70
192
 0
VERTEX
 8
CILINDRO_2
 10
-8.1089
 20
-14.155
 30
0.4141
 70
192
 0
VERTEX
 8
CILINDRO_2
 10
-8.9039
 20
-14.9008
 30
0.6151
 70
192
 0
VERTEX
 8
CILINDRO_2
 10
-8.8603
 20
-14.8566
 30
0.5425
 70
192
 0
VERTEX
 8
CILINDRO_2
 10
-8.7846
 20
-14.7905
 30
0.4856
 70
192
 0
VERTEX
 8
CILINDRO_2
 10
-8.6772
 20
-14.7026
 30
0.4448
 70
192
 0
VERTEX
 8
CILINDRO_2
 10
-8.5421
 20
-14.595
 30
0.4164
 70
192
 0
VERTEX
 8
CILINDRO_2
 10
-8.3859
 20
-14.4729
 30
0.4015
 70
192
 0
VERTEX
 8
CILINDRO_2
 10
-8.2173
 20
-14.3422
 30
0.3967
 70
192
 0
VERTEX
 8
CILINDRO_2
 10
-8.045
 20
-14.2102
 30
0.4037
 70
192
 0
VERTEX
 8
CILINDRO_2
 10
-8.705
 20
-15.0788
 30
0.5814
 70
192
 0
VERTEX
 8
CILINDRO_2
 10
-8.6679
 20
-15.0277
 30
0.5101
 70
192
 0
VERTEX
 8
CILINDRO_2
 10
-8.6033
 20
-14.9496
 30
0.4555
 70
192
 0
VERTEX
 8
CILINDRO_2
 10
-8.5119
 20
-14.8447
 30
0.418
 70
192
 0
VERTEX
 8
CILINDRO_2
 10
-8.3967
 20
-14.7157
 30
0.3936
 70
192
 0
VERTEX
 8
CILINDRO_2
 10
-8.2636
 20
-14.5688
 30
0.3833
 70
192
 0
VERTEX
 8
CILINDRO_2
 10
-8.1198
 20
-14.4114
 30
0.3836
 70
192
 0
VERTEX
 8
CILINDRO_2
 10
-7.973
 20
-14.2522
 30
0.3957
 70
192
 0
VERTEX
 8
CILINDRO_2
 10
-8.4747
 20
-15.2232
 30
0.5541
 70
192
 0
VERTEX
 8
CILINDRO_2
 10
-8.4455
 20
-15.1662
 30
0.4839
 70
192
 0
VERTEX
 8
CILINDRO_2
 10
-8.3945
 20
-15.078
 30
0.4313
 70
192
 0
VERTEX
 8
CILINDRO_2
 10
-8.3223
 20
-14.9588
 30
0.3964
 70
192
 0
VERTEX
 8
CILINDRO_2
 10
-8.2315
 20
-14.8117
 30
0.3754
 70
192
 0
VERTEX
 8
CILINDRO_2
 10
-8.1265
 20
-14.644
 30
0.3691
 70
192
 0
VERTEX
 8
CILINDRO_2
 10
-8.013
 20
-14.464
 30
0.3736
 70
192
 0
VERTEX
 8
CILINDRO_2
 10
-7.8972
 20
-14.2817
 30
0.3901
 70
192
 0
VERTEX
 8
CILINDRO_2
 10
-8.2201
 20
-15.3294
 30
0.534
 70
192
 0
VERTEX
 8
CILINDRO_2
 10
-8.1998
 20
-15.2681
 30
0.4647
 70
192
 0
VERTEX
 8
CILINDRO_2
 10
-8.1646
 20
-15.1721
 30
0.4135
 70
192
 0
VERTEX
 8
CILINDRO_2
 10
-8.1147
 20
-15.042
 30
0.3807
 70
192
 0
VERTEX
 8
CILINDRO_2
 10
-8.0518
 20
-14.8811
 30
0.3623
 70
192
 0
VERTEX
 8
CILINDRO_2
 10
-7.9791
 20
-14.6976
 30
0.359
 70
192
 0
VERTEX
 8
CILINDRO_2
 10
-7.9007
 20
-14.5004
 30
0.3668
 70
192
 0
VERTEX
 8
CILINDRO_2
 10
-7.8206
 20
-14.3006
 30
0.3866
 70
192
 0
VERTEX
 8
CILINDRO_2
 10
-7.9488
 20
-15.3945
 30
0.5217
 70
192
 0
VERTEX
 8
CILINDRO_2
 10
-7.9384
 20
-15.3304
 30
0.4529
 70
192
 0
VERTEX
 8
CILINDRO_2
 10
-7.9204
 20
-15.2296
 30
0.4026
 70
192
 0
VERTEX
 8
CILINDRO_2
 10
-7.8949
 20
-15.0926
 30
0.3711
 70
192
 0
VERTEX
 8
CILINDRO_2
 10
-7.8627
 20
-14.9232
 30
0.3543
 70
192
 0
VERTEX
 8
CILINDRO_2
 10
-7.8256
 20
-14.7296
 30
0.3529
 70
192
 0
VERTEX
 8
CILINDRO_2
 10
-7.7854
 20
-14.5217
 30
0.3627
 70
192
 0
VERTEX
 8
CILINDRO_2
 10
-7.7445
 20
-14.3109
 30
0.3846
 70
192
 0
VERTEX
 8
CILINDRO_2
 10
-7.9488
 20
-12.5486
 30
1.0597
 70
192
 0
VERTEX
 8
CILINDRO_2
 10
-7.9384
 20
-12.5898
 30
0.971
 70
192
 0
VERTEX
 8
CILINDRO_2
 10
-7.9204
 20
-12.6723
 30
0.886
 70
192
 0
VERTEX
 8
CILINDRO_2
 10
-7.8949
 20
-12.7951
 30
0.8054
 70
192
 0
VERTEX
 8
CILINDRO_2
 10
-7.8627
 20
-12.9527
 30
0.7268
 70
192
 0
VERTEX
 8
CILINDRO_2
 10
-7.8256
 20
-13.1371
 30
0.654
 70
192
 0
VERTEX
 8
CILINDRO_2
 10
-7.7854
 20
-13.3374
 30
0.5866
 70
192
 0
VERTEX
 8
CILINDRO_2
 10
-7.7445
 20
-13.5434
 30
0.5297
 70
192
 0
VERTEX
 8
CILINDRO_2
 10
-8.705
 20
-12.8642
 30
1
 70
192
 0
VERTEX
 8
CILINDRO_2
 10
-8.6679
 20
-12.8924
 30
0.9138
 70
192
 0
VERTEX
 8
CILINDRO_2
 10
-8.6033
 20
-12.9523
 30
0.8331
 70
192
 0
VERTEX
 8
CILINDRO_2
 10
-8.5119
 20
-13.043
 30
0.7586
 70
192
 0
VERTEX
 8
CILINDRO_2
 10
-8.3967
 20
-13.1601
 30
0.6876
 70
192
 0
VERTEX
 8
CILINDRO_2
 10
-8.2636
 20
-13.2978
 30
0.6236
 70
192
 0
VERTEX
 8
CILINDRO_2
 10
-8.1198
 20
-13.4477
 30
0.5658
 70
192
 0
VERTEX
 8
CILINDRO_2
 10
-7.973
 20
-13.6022
 30
0.5186
 70
192
 0
VERTEX
 8
CILINDRO_2
 10
-5.2609
 20
-15.4525
 30
0.629
 70
192
 0
VERTEX
 8
CILINDRO_2
 10
-5.2609
 20
-15.6249
 30
1.5409
 70
192
 0
VERTEX
 8
CILINDRO_2
 10
-5.2609
 20
-13.9263
 30
0.4511
 70
192
 0
VERTEX
 8
CILINDRO_2
 10
-5.2592
 20
-14.1086
 30
0.4166
 70
192
 0
VERTEX
 8
CILINDRO_2
 10
-5.2549
 20
-13.744
 30
0.4855
 70
192
 0
VERTEX
 8
CILINDRO_2
 10
-5.2609
 20
-12.5291
 30
1.1816
 70
192
 0
VERTEX
 8
CILINDRO_2
 10
-5.2609
 20
-12.7015
 30
2.0935
 70
192
 0
VERTEX
 8
CILINDRO_2
 10
-5.2609
 20
-14.1632
 30
1.8172
 70
192
 0
VERTEX
 8
CILINDRO_2
 10
-5.2609
 20
-12.6527
 30
0.8897
 70
192
 0
VERTEX
 8
CILINDRO_2
 10
-5.2609
 20
-12.5687
 30
0.975
 70
192
 0
VERTEX
 8
CILINDRO_2
 10
-5.2609
 20
-15.4165
 30
0.5176
 70
192
 0
VERTEX
 8
CILINDRO_2
 10
-5.2609
 20
-12.5266
 30
1.0639
 70
192
 0
VERTEX
 8
CILINDRO_2
 10
-5.2609
 20
-15.3515
 30
0.4489
 70
192
 0
VERTEX
 8
CILINDRO_2
 10
-5.2609
 20
-15.2492
 30
0.3989
 70
192
 0
VERTEX
 8
CILINDRO_2
 10
-5.2609
 20
-15.1101
 30
0.3678
 70
192
 0
VERTEX
 8
CILINDRO_2
 10
-5.2609
 20
-14.9379
 30
0.3515
 70
192
 0
VERTEX
 8
CILINDRO_2
 10
-5.1137
 20
-14.7413
 30
0.3507
 70
192
 0
VERTEX
 8
CILINDRO_2
 10
-5.2048
 20
-14.5301
 30
0.3612
 70
192
 0
VERTEX
 8
CILINDRO_2
 10
-5.2416
 20
-14.3159
 30
0.3837
 70
192
 0
VERTEX
 8
CILINDRO_2
 10
-5.2609
 20
-12.7776
 30
0.8087
 70
192
 0
VERTEX
 8
CILINDRO_2
 10
-5.2609
 20
-12.9379
 30
0.7296
 70
192
 0
VERTEX
 8
CILINDRO_2
 10
-5.0743
 20
-13.1254
 30
0.6562
 70
192
 0
VERTEX
 8
CILINDRO_2
 10
-5.1894
 20
-13.329
 30
0.5882
 70
192
 0
VERTEX
 8
CILINDRO_2
 10
-5.2329
 20
-13.5385
 30
0.5306
 70
192
 0
VERTEX
 8
CILINDRO_2
 10
-3.9359
 20
-15.4525
 30
0.629
 70
192
 0
VERTEX
 8
CILINDRO_2
 10
-3.9359
 20
-15.6249
 30
1.5409
 70
192
 0
VERTEX
 8
CILINDRO_2
 10
-3.9359
 20
-13.9263
 30
0.4511
 70
192
 0
VERTEX
 8
CILINDRO_2
 10
-3.94
 20
-14.1086
 30
0.4166
 70
192
 0
VERTEX
 8
CILINDRO_2
 10
-3.945
 20
-13.744
 30
0.4855
 70
192
 0
VERTEX
 8
CILINDRO_2
 10
-3.9359
 20
-14.1632
 30
1.8172
 70
192
 0
VERTEX
 8
CILINDRO_2
 10
-3.9359
 20
-12.7015
 30
2.0935
 70
192
 0
VERTEX
 8
CILINDRO_2
 10
-3.9359
 20
-15.4165
 30
0.5176
 70
192
 0
VERTEX
 8
CILINDRO_2
 10
-3.9359
 20
-15.3515
 30
0.4489
 70
192
 0
VERTEX
 8
CILINDRO_2
 10
-3.9359
 20
-15.2492
 30
0.3989
 70
192
 0
VERTEX
 8
CILINDRO_2
 10
-3.9359
 20
-15.1101
 30
0.3678
 70
192
 0
VERTEX
 8
CILINDRO_2
 10
-3.9359
 20
-14.9379
 30
0.3515
 70
192
 0
VERTEX
 8
CILINDRO_2
 10
-4.0767
 20
-14.7413
 30
0.3507
 70
192
 0
VERTEX
 8
CILINDRO_2
 10
-3.9999
 20
-14.5301
 30
0.3612
 70
192
 0
VERTEX
 8
CILINDRO_2
 10
-3.9596
 20
-14.3159
 30
0.3837
 70
192
 0
VERTEX
 8
CILINDRO_2
 10
-3.9359
 20
-12.5291
 30
1.1816
 70
192
 0
VERTEX
 8
CILINDRO_2
 10
-3.9359
 20
-12.6527
 30
0.8897
 70
192
 0
VERTEX
 8
CILINDRO_2
 10
-3.9359
 20
-12.5687
 30
0.975
 70
192
 0
VERTEX
 8
CILINDRO_2
 10
-3.9359
 20
-12.5266
 30
1.0639
 70
192
 0
VERTEX
 8
CILINDRO_2
 10
-3.9359
 20
-12.7776
 30
0.8087
 70
192
 0
VERTEX
 8
CILINDRO_2
 10
-3.9359
 20
-12.9379
 30
0.7296
 70
192
 0
VERTEX
 8
CILINDRO_2
 10
-4.1093
 20
-13.1254
 30
0.6562
 70
192
 0
VERTEX
 8
CILINDRO_2
 10
-4.0155
 20
-13.329
 30
0.5882
 70
192
 0
VERTEX
 8
CILINDRO_2
 10
-3.9684
 20
-13.5385
 30
0.5306
 70
192
 0
VERTEX
 8
CILINDRO_2
 10
1.3788
 20
-13.5385
 30
0.5306
 70
192
 0
VERTEX
 8
CILINDRO_2
 10
1.4138
 20
-13.329
 30
0.5882
 70
192
 0
VERTEX
 8
CILINDRO_2
 10
1.3367
 20
-15.4525
 30
0.629
 70
192
 0
VERTEX
 8
CILINDRO_2
 10
1.3367
 20
-15.6249
 30
1.5409
 70
192
 0
VERTEX
 8
CILINDRO_2
 10
1.3455
 20
-13.744
 30
0.4855
 70
192
 0
VERTEX
 8
CILINDRO_2
 10
1.3367
 20
-13.9263
 30
0.4511
 70
192
 0
VERTEX
 8
CILINDRO_2
 10
1.3455
 20
-14.1086
 30
0.4166
 70
192
 0
VERTEX
 8
CILINDRO_2
 10
1.5181
 20
-13.1254
 30
0.6562
 70
192
 0
VERTEX
 8
CILINDRO_2
 10
1.3367
 20
-12.9379
 30
0.7296
 70
192
 0
VERTEX
 8
CILINDRO_2
 10
1.3367
 20
-14.1632
 30
1.8172
 70
192
 0
VERTEX
 8
CILINDRO_2
 10
1.3367
 20
-12.7015
 30
2.0935
 70
192
 0
VERTEX
 8
CILINDRO_2
 10
1.3367
 20
-15.4165
 30
0.5176
 70
192
 0
VERTEX
 8
CILINDRO_2
 10
1.3367
 20
-15.3515
 30
0.4489
 70
192
 0
VERTEX
 8
CILINDRO_2
 10
1.3367
 20
-15.2492
 30
0.3989
 70
192
 0
VERTEX
 8
CILINDRO_2
 10
1.3367
 20
-15.1101
 30
0.3678
 70
192
 0
VERTEX
 8
CILINDRO_2
 10
1.3367
 20
-14.9379
 30
0.3515
 70
192
 0
VERTEX
 8
CILINDRO_2
 10
1.4827
 20
-14.7413
 30
0.3507
 70
192
 0
VERTEX
 8
CILINDRO_2
 10
1.3995
 20
-14.5301
 30
0.3612
 70
192
 0
VERTEX
 8
CILINDRO_2
 10
1.3719
 20
-14.3159
 30
0.3837
 70
192
 0
VERTEX
 8
CILINDRO_2
 10
1.3367
 20
-12.5291
 30
1.1816
 70
192
 0
VERTEX
 8
CILINDRO_2
 10
1.3367
 20
-12.6527
 30
0.8897
 70
192
 0
VERTEX
 8
CILINDRO_2
 10
1.3367
 20
-12.5687
 30
0.975
 70
192
 0
VERTEX
 8
CILINDRO_2
 10
1.3367
 20
-12.5266
 30
1.0639
 70
192
 0
VERTEX
 8
CILINDRO_2
 10
1.3367
 20
-12.7776
 30
0.8087
 70
192
 0
VERTEX
 8
CILINDRO_2
 10
4.0641
 20
-12.9379
 30
0.7296
 70
192
 0
VERTEX
 8
CILINDRO_2
 10
4.0641
 20
-12.7776
 30
0.8087
 70
192
 0
VERTEX
 8
CILINDRO_2
 10
4.0641
 20
-15.4525
 30
0.629
 70
192
 0
VERTEX
 8
CILINDRO_2
 10
4.0641
 20
-15.6249
 30
1.5409
 70
192
 0
VERTEX
 8
CILINDRO_2
 10
3.9387
 20
-13.329
 30
0.5882
 70
192
 0
VERTEX
 8
CILINDRO_2
 10
3.7443
 20
-13.1254
 30
0.6562
 70
192
 0
VERTEX
 8
CILINDRO_2
 10
4.0641
 20
-13.9263
 30
0.4511
 70
192
 0
VERTEX
 8
CILINDRO_2
 10
4.0563
 20
-14.1086
 30
0.4166
 70
192
 0
VERTEX
 8
CILINDRO_2
 10
4.0641
 20
-12.5266
 30
1.0639
 70
192
 0
VERTEX
 8
CILINDRO_2
 10
4.0641
 20
-12.5291
 30
1.1816
 70
192
 0
VERTEX
 8
CILINDRO_2
 10
4.0527
 20
-13.744
 30
0.4855
 70
192
 0
VERTEX
 8
CILINDRO_2
 10
4.0641
 20
-14.1632
 30
1.8172
 70
192
 0
VERTEX
 8
CILINDRO_2
 10
4.0641
 20
-12.7015
 30
2.0935
 70
192
 0
VERTEX
 8
CILINDRO_2
 10
4.0641
 20
-15.4165
 30
0.5176
 70
192
 0
VERTEX
 8
CILINDRO_2
 10
4.0641
 20
-15.3515
 30
0.4489
 70
192
 0
VERTEX
 8
CILINDRO_2
 10
4.0641
 20
-15.2492
 30
0.3989
 70
192
 0
VERTEX
 8
CILINDRO_2
 10
4.0641
 20
-15.1101
 30
0.3678
 70
192
 0
VERTEX
 8
CILINDRO_2
 10
4.0641
 20
-14.9379
 30
0.3515
 70
192
 0
VERTEX
 8
CILINDRO_2
 10
4.0189
 20
-13.5385
 30
0.5306
 70
192
 0
VERTEX
 8
CILINDRO_2
 10
3.8759
 20
-14.7413
 30
0.3507
 70
192
 0
VERTEX
 8
CILINDRO_2
 10
3.9913
 20
-14.5301
 30
0.3612
 70
192
 0
VERTEX
 8
CILINDRO_2
 10
4.0278
 20
-14.3159
 30
0.3837
 70
192
 0
VERTEX
 8
CILINDRO_2
 10
4.0641
 20
-12.6527
 30
0.8897
 70
192
 0
VERTEX
 8
CILINDRO_2
 10
4.0641
 20
-12.5687
 30
0.975
 70
192
 0
VERTEX
 8
CILINDRO_2
 10
-5.2599
 20
-14.0115
 30
0.8472
 70
192
 0
VERTEX
 8
CILINDRO_2
 10
-5.2582
 20
-14.1937
 30
0.8127
 70
192
 0
VERTEX
 8
CILINDRO_2
 10
-5.2539
 20
-13.8293
 30
0.8816
 70
192
 0
VERTEX
 8
CILINDRO_2
 10
-5.1131
 20
-14.8255
 30
0.747
 70
192
 0
VERTEX
 8
CILINDRO_2
 10
-5.2038
 20
-14.615
 30
0.7573
 70
192
 0
VERTEX
 8
CILINDRO_2
 10
-5.2406
 20
-14.4009
 30
0.7798
 70
192
 0
VERTEX
 8
CILINDRO_2
 10
-5.0737
 20
-13.2115
 30
1.0521
 70
192
 0
VERTEX
 8
CILINDRO_2
 10
-5.1885
 20
-13.4145
 30
0.9842
 70
192
 0
VERTEX
 8
CILINDRO_2
 10
-5.232
 20
-13.6238
 30
0.9267
 70
192
 0
VERTEX
 8
CILINDRO_2
 10
-3.9369
 20
-14.0115
 30
0.8472
 70
192
 0
VERTEX
 8
CILINDRO_2
 10
-3.941
 20
-14.1937
 30
0.8127
 70
192
 0
VERTEX
 8
CILINDRO_2
 10
-3.946
 20
-13.8293
 30
0.8816
 70
192
 0
VERTEX
 8
CILINDRO_2
 10
-4.0774
 20
-14.8255
 30
0.747
 70
192
 0
VERTEX
 8
CILINDRO_2
 10
-4.0009
 20
-14.615
 30
0.7573
 70
192
 0
VERTEX
 8
CILINDRO_2
 10
-3.9606
 20
-14.4009
 30
0.7798
 70
192
 0
VERTEX
 8
CILINDRO_2
 10
-4.11
 20
-13.2115
 30
1.0521
 70
192
 0
VERTEX
 8
CILINDRO_2
 10
-4.0165
 20
-13.4145
 30
0.9842
 70
192
 0
VERTEX
 8
CILINDRO_2
 10
-3.9694
 20
-13.6238
 30
0.9267
 70
192
 0
VERTEX
 8
CILINDRO_2
 10
1.3798
 20
-13.6232
 30
0.9241
 70
192
 0
VERTEX
 8
CILINDRO_2
 10
1.4148
 20
-13.414
 30
0.9817
 70
192
 0
VERTEX
 8
CILINDRO_2
 10
1.3465
 20
-13.8288
 30
0.8791
 70
192
 0
VERTEX
 8
CILINDRO_2
 10
1.3377
 20
-14.0109
 30
0.8446
 70
192
 0
VERTEX
 8
CILINDRO_2
 10
1.3465
 20
-14.1931
 30
0.8102
 70
192
 0
VERTEX
 8
CILINDRO_2
 10
1.5187
 20
-13.211
 30
1.0496
 70
192
 0
VERTEX
 8
CILINDRO_2
 10
1.4834
 20
-14.8249
 30
0.7445
 70
192
 0
VERTEX
 8
CILINDRO_2
 10
1.4005
 20
-14.6145
 30
0.7547
 70
192
 0
VERTEX
 8
CILINDRO_2
 10
1.3729
 20
-14.4004
 30
0.7772
 70
192
 0
VERTEX
 8
CILINDRO_2
 10
3.9378
 20
-13.4142
 30
0.9816
 70
192
 0
VERTEX
 8
CILINDRO_2
 10
3.7438
 20
-13.211
 30
1.0496
 70
192
 0
VERTEX
 8
CILINDRO_2
 10
4.0631
 20
-14.0109
 30
0.8446
 70
192
 0
VERTEX
 8
CILINDRO_2
 10
4.0553
 20
-14.1931
 30
0.8102
 70
192
 0
VERTEX
 8
CILINDRO_2
 10
4.0517
 20
-13.8288
 30
0.879
 70
192
 0
VERTEX
 8
CILINDRO_2
 10
4.0179
 20
-13.6233
 30
0.9241
 70
192
 0
VERTEX
 8
CILINDRO_2
 10
3.8753
 20
-14.8249
 30
0.7445
 70
192
 0
VERTEX
 8
CILINDRO_2
 10
3.9904
 20
-14.6144
 30
0.7548
 70
192
 0
VERTEX
 8
CILINDRO_2
 10
4.0269
 20
-14.4004
 30
0.7772
 70
192
 0
VERTEX
 8
CILINDRO_2
 10
0
 20
0
 30
0
 70
128
 71
1
 72
79
 73
43
 74
43
 0
VERTEX
 8
CILINDRO_2
 10
0
 20
0
 30
0
 70
128
 71
44
 72
3
 73
4
 74
46
 0
VERTEX
 8
CILINDRO_2
 10
0
 20
0
 30
0
 70
128
 71
3
 72
2
 73
4
 74
4
 0
VERTEX
 8
CILINDRO_2
 10
0
 20
0
 30
0
 70
128
 71
1
 72
43
 73
45
 74
45
 0
VERTEX
 8
CILINDRO_2
 10
0
 20
0
 30
0
 70
128
 71
46
 72
4
 73
5
 74
48
 0
VERTEX
 8
CILINDRO_2
 10
0
 20
0
 30
0
 70
128
 71
4
 72
2
 73
5
 74
5
 0
VERTEX
 8
CILINDRO_2
 10
0
 20
0
 30
0
 70
128
 71
1
 72
45
 73
47
 74
47
 0
VERTEX
 8
CILINDRO_2
 10
0
 20
0
 30
0
 70
128
 71
48
 72
5
 73
6
 74
50
 0
VERTEX
 8
CILINDRO_2
 10
0
 20
0
 30
0
 70
128
 71
5
 72
2
 73
6
 74
6
 0
VERTEX
 8
CILINDRO_2
 10
0
 20
0
 30
0
 70
128
 71
1
 72
47
 73
49
 74
49
 0
VERTEX
 8
CILINDRO_2
 10
0
 20
0
 30
0
 70
128
 71
50
 72
6
 73
7
 74
52
 0
VERTEX
 8
CILINDRO_2
 10
0
 20
0
 30
0
 70
128
 71
6
 72
2
 73
7
 74
7
 0
VERTEX
 8
CILINDRO_2
 10
0
 20
0
 30
0
 70
128
 71
1
 72
49
 73
51
 74
51
 0
VERTEX
 8
CILINDRO_2
 10
0
 20
0
 30
0
 70
128
 71
52
 72
7
 73
8
 74
54
 0
VERTEX
 8
CILINDRO_2
 10
0
 20
0
 30
0
 70
128
 71
7
 72
2
 73
8
 74
8
 0
VERTEX
 8
CILINDRO_2
 10
0
 20
0
 30
0
 70
128
 71
1
 72
51
 73
53
 74
53
 0
VERTEX
 8
CILINDRO_2
 10
0
 20
0
 30
0
 70
128
 71
54
 72
8
 73
9
 74
55
 0
VERTEX
 8
CILINDRO_2
 10
0
 20
0
 30
0
 70
128
 71
8
 72
2
 73
9
 74
9
 0
VERTEX
 8
CILINDRO_2
 10
0
 20
0
 30
0
 70
128
 71
1
 72
53
 73
56
 74
56
 0
VERTEX
 8
CILINDRO_2
 10
0
 20
0
 30
0
 70
128
 71
55
 72
9
 73
10
 74
58
 0
VERTEX
 8
CILINDRO_2
 10
0
 20
0
 30
0
 70
128
 71
9
 72
2
 73
10
 74
10
 0
VERTEX
 8
CILINDRO_2
 10
0
 20
0
 30
0
 70
128
 71
1
 72
56
 73
57
 74
57
 0
VERTEX
 8
CILINDRO_2
 10
0
 20
0
 30
0
 70
128
 71
58
 72
10
 73
11
 74
59
 0
VERTEX
 8
CILINDRO_2
 10
0
 20
0
 30
0
 70
128
 71
10
 72
2
 73
11
 74
11
 0
VERTEX
 8
CILINDRO_2
 10
0
 20
0
 30
0
 70
128
 71
1
 72
57
 73
60
 74
60
 0
VERTEX
 8
CILINDRO_2
 10
0
 20
0
 30
0
 70
128
 71
59
 72
11
 73
12
 74
73
 0
VERTEX
 8
CILINDRO_2
 10
0
 20
0
 30
0
 70
128
 71
11
 72
2
 73
12
 74
12
 0
VERTEX
 8
CILINDRO_2
 10
0
 20
0
 30
0
 70
128
 71
1
 72
76
 73
61
 74
61
 0
VERTEX
 8
CILINDRO_2
 10
0
 20
0
 30
0
 70
128
 71
62
 72
13
 73
14
 74
63
 0
VERTEX
 8
CILINDRO_2
 10
0
 20
0
 30
0
 70
128
 71
13
 72
2
 73
14
 74
14
 0
VERTEX
 8
CILINDRO_2
 10
0
 20
0
 30
0
 70
128
 71
1
 72
61
 73
64
 74
64
 0
VERTEX
 8
CILINDRO_2
 10
0
 20
0
 30
0
 70
128
 71
63
 72
14
 73
15
 74
65
 0
VERTEX
 8
CILINDRO_2
 10
0
 20
0
 30
0
 70
128
 71
14
 72
2
 73
15
 74
15
 0
VERTEX
 8
CILINDRO_2
 10
0
 20
0
 30
0
 70
128
 71
1
 72
64
 73
66
 74
66
 0
VERTEX
 8
CILINDRO_2
 10
0
 20
0
 30
0
 70
128
 71
65
 72
15
 73
16
 74
69
 0
VERTEX
 8
CILINDRO_2
 10
0
 20
0
 30
0
 70
128
 71
15
 72
2
 73
16
 74
16
 0
VERTEX
 8
CILINDRO_2
 10
0
 20
0
 30
0
 70
128
 71
1
 72
66
 73
68
 74
68
 0
VERTEX
 8
CILINDRO_2
 10
0
 20
0
 30
0
 70
128
 71
69
 72
16
 73
17
 74
74
 0
VERTEX
 8
CILINDRO_2
 10
0
 20
0
 30
0
 70
128
 71
16
 72
2
 73
17
 74
17
 0
VERTEX
 8
CILINDRO_2
 10
0
 20
0
 30
0
 70
128
 71
1
 72
68
 73
67
 74
67
 0
VERTEX
 8
CILINDRO_2
 10
0
 20
0
 30
0
 70
128
 71
74
 72
17
 73
18
 74
72
 0
VERTEX
 8
CILINDRO_2
 10
0
 20
0
 30
0
 70
128
 71
17
 72
2
 73
18
 74
18
 0
VERTEX
 8
CILINDRO_2
 10
0
 20
0
 30
0
 70
128
 71
1
 72
67
 73
70
 74
70
 0
VERTEX
 8
CILINDRO_2
 10
0
 20
0
 30
0
 70
128
 71
72
 72
18
 73
19
 74
77
 0
VERTEX
 8
CILINDRO_2
 10
0
 20
0
 30
0
 70
128
 71
18
 72
2
 73
19
 74
19
 0
VERTEX
 8
CILINDRO_2
 10
0
 20
0
 30
0
 70
128
 71
1
 72
70
 73
78
 74
78
 0
VERTEX
 8
CILINDRO_2
 10
0
 20
0
 30
0
 70
128
 71
77
 72
19
 73
20
 74
80
 0
VERTEX
 8
CILINDRO_2
 10
0
 20
0
 30
0
 70
128
 71
19
 72
2
 73
20
 74
20
 0
VERTEX
 8
CILINDRO_2
 10
0
 20
0
 30
0
 70
128
 71
1
 72
78
 73
81
 74
81
 0
VERTEX
 8
CILINDRO_2
 10
0
 20
0
 30
0
 70
128
 71
80
 72
20
 73
21
 74
82
 0
VERTEX
 8
CILINDRO_2
 10
0
 20
0
 30
0
 70
128
 71
20
 72
2
 73
21
 74
21
 0
VERTEX
 8
CILINDRO_2
 10
0
 20
0
 30
0
 70
128
 71
1
 72
81
 73
79
 74
79
 0
VERTEX
 8
CILINDRO_2
 10
0
 20
0
 30
0
 70
128
 71
82
 72
21
 73
3
 74
44
 0
VERTEX
 8
CILINDRO_2
 10
0
 20
0
 30
0
 70
128
 71
21
 72
2
 73
3
 74
3
 0
VERTEX
 8
CILINDRO_2
 10
0
 20
0
 30
0
 70
128
 71
22
 72
118
 73
86
 74
86
 0
VERTEX
 8
CILINDRO_2
 10
0
 20
0
 30
0
 70
128
 71
85
 72
42
 73
24
 74
83
 0
VERTEX
 8
CILINDRO_2
 10
0
 20
0
 30
0
 70
128
 71
42
 72
23
 73
24
 74
24
 0
VERTEX
 8
CILINDRO_2
 10
0
 20
0
 30
0
 70
128
 71
22
 72
86
 73
84
 74
84
 0
VERTEX
 8
CILINDRO_2
 10
0
 20
0
 30
0
 70
128
 71
83
 72
24
 73
25
 74
87
 0
VERTEX
 8
CILINDRO_2
 10
0
 20
0
 30
0
 70
128
 71
24
 72
23
 73
25
 74
25
 0
VERTEX
 8
CILINDRO_2
 10
0
 20
0
 30
0
 70
128
 71
22
 72
84
 73
88
 74
88
 0
VERTEX
 8
CILINDRO_2
 10
0
 20
0
 30
0
 70
128
 71
87
 72
25
 73
26
 74
89
 0
VERTEX
 8
CILINDRO_2
 10
0
 20
0
 30
0
 70
128
 71
25
 72
23
 73
26
 74
26
 0
VERTEX
 8
CILINDRO_2
 10
0
 20
0
 30
0
 70
128
 71
22
 72
88
 73
90
 74
90
 0
VERTEX
 8
CILINDRO_2
 10
0
 20
0
 30
0
 70
128
 71
89
 72
26
 73
27
 74
91
 0
VERTEX
 8
CILINDRO_2
 10
0
 20
0
 30
0
 70
128
 71
26
 72
23
 73
27
 74
27
 0
VERTEX
 8
CILINDRO_2
 10
0
 20
0
 30
0
 70
128
 71
22
 72
90
 73
92
 74
92
 0
VERTEX
 8
CILINDRO_2
 10
0
 20
0
 30
0
 70
128
 71
91
 72
27
 73
28
 74
93
 0
VERTEX
 8
CILINDRO_2
 10
0
 20
0
 30
0
 70
128
 71
27
 72
23
 73
28
 74
28
 0
VERTEX
 8
CILINDRO_2
 10
0
 20
0
 30
0
 70
128
 71
22
 72
92
 73
94
 74
94
 0
VERTEX
 8
CILINDRO_2
 10
0
 20
0
 30
0
 70
128
 71
93
 72
28
 73
29
 74
95
 0
VERTEX
 8
CILINDRO_2
 10
0
 20
0
 30
0
 70
128
 71
28
 72
23
 73
29
 74
29
 0
VERTEX
 8
CILINDRO_2
 10
0
 20
0
 30
0
 70
128
 71
22
 72
94
 73
96
 74
96
 0
VERTEX
 8
CILINDRO_2
 10
0
 20
0
 30
0
 70
128
 71
95
 72
29
 73
30
 74
97
 0
VERTEX
 8
CILINDRO_2
 10
0
 20
0
 30
0
 70
128
 71
29
 72
23
 73
30
 74
30
 0
VERTEX
 8
CILINDRO_2
 10
0
 20
0
 30
0
 70
128
 71
22
 72
96
 73
98
 74
98
 0
VERTEX
 8
CILINDRO_2
 10
0
 20
0
 30
0
 70
128
 71
97
 72
30
 73
31
 74
99
 0
VERTEX
 8
CILINDRO_2
 10
0
 20
0
 30
0
 70
128
 71
30
 72
23
 73
31
 74
31
 0
VERTEX
 8
CILINDRO_2
 10
0
 20
0
 30
0
 70
128
 71
22
 72
98
 73
100
 74
100
 0
VERTEX
 8
CILINDRO_2
 10
0
 20
0
 30
0
 70
128
 71
99
 72
31
 73
32
 74
75
 0
VERTEX
 8
CILINDRO_2
 10
0
 20
0
 30
0
 70
128
 71
31
 72
23
 73
32
 74
32
 0
VERTEX
 8
CILINDRO_2
 10
0
 20
0
 30
0
 70
128
 71
22
 72
71
 73
102
 74
102
 0
VERTEX
 8
CILINDRO_2
 10
0
 20
0
 30
0
 70
128
 71
101
 72
33
 73
34
 74
103
 0
VERTEX
 8
CILINDRO_2
 10
0
 20
0
 30
0
 70
128
 71
33
 72
23
 73
34
 74
34
 0
VERTEX
 8
CILINDRO_2
 10
0
 20
0
 30
0
 70
128
 71
22
 72
102
 73
104
 74
104
 0
VERTEX
 8
CILINDRO_2
 10
0
 20
0
 30
0
 70
128
 71
103
 72
34
 73
35
 74
105
 0
VERTEX
 8
CILINDRO_2
 10
0
 20
0
 30
0
 70
128
 71
34
 72
23
 73
35
 74
35
 0
VERTEX
 8
CILINDRO_2
 10
0
 20
0
 30
0
 70
128
 71
22
 72
104
 73
106
 74
106
 0
VERTEX
 8
CILINDRO_2
 10
0
 20
0
 30
0
 70
128
 71
105
 72
35
 73
36
 74
107
 0
VERTEX
 8
CILINDRO_2
 10
0
 20
0
 30
0
 70
128
 71
35
 72
23
 73
36
 74
36
 0
VERTEX
 8
CILINDRO_2
 10
0
 20
0
 30
0
 70
128
 71
22
 72
106
 73
108
 74
108
 0
VERTEX
 8
CILINDRO_2
 10
0
 20
0
 30
0
 70
128
 71
107
 72
36
 73
37
 74
109
 0
VERTEX
 8
CILINDRO_2
 10
0
 20
0
 30
0
 70
128
 71
36
 72
23
 73
37
 74
37
 0
VERTEX
 8
CILINDRO_2
 10
0
 20
0
 30
0
 70
128
 71
22
 72
108
 73
110
 74
110
 0
VERTEX
 8
CILINDRO_2
 10
0
 20
0
 30
0
 70
128
 71
109
 72
37
 73
38
 74
111
 0
VERTEX
 8
CILINDRO_2
 10
0
 20
0
 30
0
 70
128
 71
37
 72
23
 73
38
 74
38
 0
VERTEX
 8
CILINDRO_2
 10
0
 20
0
 30
0
 70
128
 71
22
 72
110
 73
112
 74
112
 0
VERTEX
 8
CILINDRO_2
 10
0
 20
0
 30
0
 70
128
 71
111
 72
38
 73
39
 74
113
 0
VERTEX
 8
CILINDRO_2
 10
0
 20
0
 30
0
 70
128
 71
38
 72
23
 73
39
 74
39
 0
VERTEX
 8
CILINDRO_2
 10
0
 20
0
 30
0
 70
128
 71
22
 72
112
 73
114
 74
114
 0
VERTEX
 8
CILINDRO_2
 10
0
 20
0
 30
0
 70
128
 71
113
 72
39
 73
40
 74
115
 0
VERTEX
 8
CILINDRO_2
 10
0
 20
0
 30
0
 70
128
 71
39
 72
23
 73
40
 74
40
 0
VERTEX
 8
CILINDRO_2
 10
0
 20
0
 30
0
 70
128
 71
22
 72
114
 73
116
 74
116
 0
VERTEX
 8
CILINDRO_2
 10
0
 20
0
 30
0
 70
128
 71
115
 72
40
 73
41
 74
117
 0
VERTEX
 8
CILINDRO_2
 10
0
 20
0
 30
0
 70
128
 71
40
 72
23
 73
41
 74
41
 0
VERTEX
 8
CILINDRO_2
 10
0
 20
0
 30
0
 70
128
 71
22
 72
116
 73
118
 74
118
 0
VERTEX
 8
CILINDRO_2
 10
0
 20
0
 30
0
 70
128
 71
117
 72
41
 73
42
 74
85
 0
VERTEX
 8
CILINDRO_2
 10
0
 20
0
 30
0
 70
128
 71
41
 72
23
 73
42
 74
42
 0
VERTEX
 8
CILINDRO_2
 10
0
 20
0
 30
0
 70
128
 71
13
 72
62
 73
497
 74
498
 0
VERTEX
 8
CILINDRO_2
 10
0
 20
0
 30
0
 70
128
 71
76
 72
1
 73
501
 74
502
 0
VERTEX
 8
CILINDRO_2
 10
0
 20
0
 30
0
 70
128
 71
1
 72
60
 73
505
 74
501
 0
VERTEX
 8
CILINDRO_2
 10
0
 20
0
 30
0
 70
128
 71
33
 72
101
 73
428
 74
429
 0
VERTEX
 8
CILINDRO_2
 10
0
 20
0
 30
0
 70
128
 71
12
 72
2
 73
506
 74
507
 0
VERTEX
 8
CILINDRO_2
 10
0
 20
0
 30
0
 70
128
 71
32
 72
23
 73
430
 74
424
 0
VERTEX
 8
CILINDRO_2
 10
0
 20
0
 30
0
 70
128
 71
46
 72
150
 73
134
 74
44
 0
VERTEX
 8
CILINDRO_2
 10
0
 20
0
 30
0
 70
128
 71
48
 72
166
 73
150
 74
46
 0
VERTEX
 8
CILINDRO_2
 10
0
 20
0
 30
0
 70
128
 71
50
 72
182
 73
166
 74
48
 0
VERTEX
 8
CILINDRO_2
 10
0
 20
0
 30
0
 70
128
 71
52
 72
198
 73
182
 74
50
 0
VERTEX
 8
CILINDRO_2
 10
0
 20
0
 30
0
 70
128
 71
54
 72
214
 73
198
 74
52
 0
VERTEX
 8
CILINDRO_2
 10
0
 20
0
 30
0
 70
128
 71
55
 72
230
 73
214
 74
54
 0
VERTEX
 8
CILINDRO_2
 10
0
 20
0
 30
0
 70
128
 71
58
 72
231
 73
230
 74
55
 0
VERTEX
 8
CILINDRO_2
 10
0
 20
0
 30
0
 70
128
 71
59
 72
246
 73
231
 74
58
 0
VERTEX
 8
CILINDRO_2
 10
0
 20
0
 30
0
 70
128
 71
73
 72
247
 73
246
 74
59
 0
VERTEX
 8
CILINDRO_2
 10
0
 20
0
 30
0
 70
128
 71
63
 72
270
 73
262
 74
62
 0
VERTEX
 8
CILINDRO_2
 10
0
 20
0
 30
0
 70
128
 71
65
 72
271
 73
270
 74
63
 0
VERTEX
 8
CILINDRO_2
 10
0
 20
0
 30
0
 70
128
 71
69
 72
279
 73
271
 74
65
 0
VERTEX
 8
CILINDRO_2
 10
0
 20
0
 30
0
 70
128
 71
74
 72
294
 73
279
 74
69
 0
VERTEX
 8
CILINDRO_2
 10
0
 20
0
 30
0
 70
128
 71
72
 72
302
 73
294
 74
74
 0
VERTEX
 8
CILINDRO_2
 10
0
 20
0
 30
0
 70
128
 71
77
 72
310
 73
302
 74
72
 0
VERTEX
 8
CILINDRO_2
 10
0
 20
0
 30
0
 70
128
 71
80
 72
327
 73
310
 74
77
 0
VERTEX
 8
CILINDRO_2
 10
0
 20
0
 30
0
 70
128
 71
82
 72
342
 73
327
 74
80
 0
VERTEX
 8
CILINDRO_2
 10
0
 20
0
 30
0
 70
128
 71
44
 72
134
 73
342
 74
82
 0
VERTEX
 8
CILINDRO_2
 10
0
 20
0
 30
0
 70
128
 71
83
 72
343
 73
183
 74
85
 0
VERTEX
 8
CILINDRO_2
 10
0
 20
0
 30
0
 70
128
 71
87
 72
351
 73
343
 74
83
 0
VERTEX
 8
CILINDRO_2
 10
0
 20
0
 30
0
 70
128
 71
89
 72
359
 73
351
 74
87
 0
VERTEX
 8
CILINDRO_2
 10
0
 20
0
 30
0
 70
128
 71
91
 72
367
 73
359
 74
89
 0
VERTEX
 8
CILINDRO_2
 10
0
 20
0
 30
0
 70
128
 71
93
 72
375
 73
367
 74
91
 0
VERTEX
 8
CILINDRO_2
 10
0
 20
0
 30
0
 70
128
 71
95
 72
383
 73
375
 74
93
 0
VERTEX
 8
CILINDRO_2
 10
0
 20
0
 30
0
 70
128
 71
97
 72
391
 73
383
 74
95
 0
VERTEX
 8
CILINDRO_2
 10
0
 20
0
 30
0
 70
128
 71
99
 72
399
 73
391
 74
97
 0
VERTEX
 8
CILINDRO_2
 10
0
 20
0
 30
0
 70
128
 71
75
 72
319
 73
399
 74
99
 0
VERTEX
 8
CILINDRO_2
 10
0
 20
0
 30
0
 70
128
 71
103
 72
407
 73
318
 74
101
 0
VERTEX
 8
CILINDRO_2
 10
0
 20
0
 30
0
 70
128
 71
105
 72
135
 73
407
 74
103
 0
VERTEX
 8
CILINDRO_2
 10
0
 20
0
 30
0
 70
128
 71
107
 72
151
 73
135
 74
105
 0
VERTEX
 8
CILINDRO_2
 10
0
 20
0
 30
0
 70
128
 71
109
 72
415
 73
151
 74
107
 0
VERTEX
 8
CILINDRO_2
 10
0
 20
0
 30
0
 70
128
 71
111
 72
119
 73
415
 74
109
 0
VERTEX
 8
CILINDRO_2
 10
0
 20
0
 30
0
 70
128
 71
113
 72
199
 73
119
 74
111
 0
VERTEX
 8
CILINDRO_2
 10
0
 20
0
 30
0
 70
128
 71
115
 72
215
 73
199
 74
113
 0
VERTEX
 8
CILINDRO_2
 10
0
 20
0
 30
0
 70
128
 71
117
 72
167
 73
215
 74
115
 0
VERTEX
 8
CILINDRO_2
 10
0
 20
0
 30
0
 70
128
 71
85
 72
183
 73
167
 74
117
 0
VERTEX
 8
CILINDRO_2
 10
0
 20
0
 30
0
 70
128
 71
62
 72
262
 73
508
 74
497
 0
VERTEX
 8
CILINDRO_2
 10
0
 20
0
 30
0
 70
128
 71
101
 72
318
 73
434
 74
428
 0
VERTEX
 8
CILINDRO_2
 10
0
 20
0
 30
0
 70
128
 71
150
 72
149
 73
133
 74
134
 0
VERTEX
 8
CILINDRO_2
 10
0
 20
0
 30
0
 70
128
 71
149
 72
148
 73
132
 74
133
 0
VERTEX
 8
CILINDRO_2
 10
0
 20
0
 30
0
 70
128
 71
148
 72
147
 73
131
 74
132
 0
VERTEX
 8
CILINDRO_2
 10
0
 20
0
 30
0
 70
128
 71
147
 72
146
 73
130
 74
131
 0
VERTEX
 8
CILINDRO_2
 10
0
 20
0
 30
0
 70
128
 71
146
 72
145
 73
129
 74
130
 0
VERTEX
 8
CILINDRO_2
 10
0
 20
0
 30
0
 70
128
 71
145
 72
144
 73
128
 74
129
 0
VERTEX
 8
CILINDRO_2
 10
0
 20
0
 30
0
 70
128
 71
144
 72
143
 73
127
 74
128
 0
VERTEX
 8
CILINDRO_2
 10
0
 20
0
 30
0
 70
128
 71
143
 72
43
 73
79
 74
127
 0
VERTEX
 8
CILINDRO_2
 10
0
 20
0
 30
0
 70
128
 71
166
 72
165
 73
149
 74
150
 0
VERTEX
 8
CILINDRO_2
 10
0
 20
0
 30
0
 70
128
 71
165
 72
164
 73
148
 74
149
 0
VERTEX
 8
CILINDRO_2
 10
0
 20
0
 30
0
 70
128
 71
164
 72
163
 73
147
 74
148
 0
VERTEX
 8
CILINDRO_2
 10
0
 20
0
 30
0
 70
128
 71
163
 72
162
 73
146
 74
147
 0
VERTEX
 8
CILINDRO_2
 10
0
 20
0
 30
0
 70
128
 71
162
 72
161
 73
145
 74
146
 0
VERTEX
 8
CILINDRO_2
 10
0
 20
0
 30
0
 70
128
 71
161
 72
160
 73
144
 74
145
 0
VERTEX
 8
CILINDRO_2
 10
0
 20
0
 30
0
 70
128
 71
160
 72
159
 73
143
 74
144
 0
VERTEX
 8
CILINDRO_2
 10
0
 20
0
 30
0
 70
128
 71
159
 72
45
 73
43
 74
143
 0
VERTEX
 8
CILINDRO_2
 10
0
 20
0
 30
0
 70
128
 71
182
 72
181
 73
165
 74
166
 0
VERTEX
 8
CILINDRO_2
 10
0
 20
0
 30
0
 70
128
 71
181
 72
180
 73
164
 74
165
 0
VERTEX
 8
CILINDRO_2
 10
0
 20
0
 30
0
 70
128
 71
180
 72
179
 73
163
 74
164
 0
VERTEX
 8
CILINDRO_2
 10
0
 20
0
 30
0
 70
128
 71
179
 72
178
 73
162
 74
163
 0
VERTEX
 8
CILINDRO_2
 10
0
 20
0
 30
0
 70
128
 71
178
 72
177
 73
161
 74
162
 0
VERTEX
 8
CILINDRO_2
 10
0
 20
0
 30
0
 70
128
 71
177
 72
176
 73
160
 74
161
 0
VERTEX
 8
CILINDRO_2
 10
0
 20
0
 30
0
 70
128
 71
176
 72
175
 73
159
 74
160
 0
VERTEX
 8
CILINDRO_2
 10
0
 20
0
 30
0
 70
128
 71
175
 72
47
 73
45
 74
159
 0
VERTEX
 8
CILINDRO_2
 10
0
 20
0
 30
0
 70
128
 71
198
 72
197
 73
181
 74
182
 0
VERTEX
 8
CILINDRO_2
 10
0
 20
0
 30
0
 70
128
 71
197
 72
196
 73
180
 74
181
 0
VERTEX
 8
CILINDRO_2
 10
0
 20
0
 30
0
 70
128
 71
196
 72
195
 73
179
 74
180
 0
VERTEX
 8
CILINDRO_2
 10
0
 20
0
 30
0
 70
128
 71
195
 72
194
 73
178
 74
179
 0
VERTEX
 8
CILINDRO_2
 10
0
 20
0
 30
0
 70
128
 71
194
 72
193
 73
177
 74
178
 0
VERTEX
 8
CILINDRO_2
 10
0
 20
0
 30
0
 70
128
 71
193
 72
192
 73
176
 74
177
 0
VERTEX
 8
CILINDRO_2
 10
0
 20
0
 30
0
 70
128
 71
192
 72
191
 73
175
 74
176
 0
VERTEX
 8
CILINDRO_2
 10
0
 20
0
 30
0
 70
128
 71
191
 72
49
 73
47
 74
175
 0
VERTEX
 8
CILINDRO_2
 10
0
 20
0
 30
0
 70
128
 71
214
 72
213
 73
197
 74
198
 0
VERTEX
 8
CILINDRO_2
 10
0
 20
0
 30
0
 70
128
 71
213
 72
212
 73
196
 74
197
 0
VERTEX
 8
CILINDRO_2
 10
0
 20
0
 30
0
 70
128
 71
212
 72
211
 73
195
 74
196
 0
VERTEX
 8
CILINDRO_2
 10
0
 20
0
 30
0
 70
128
 71
211
 72
210
 73
194
 74
195
 0
VERTEX
 8
CILINDRO_2
 10
0
 20
0
 30
0
 70
128
 71
210
 72
209
 73
193
 74
194
 0
VERTEX
 8
CILINDRO_2
 10
0
 20
0
 30
0
 70
128
 71
209
 72
208
 73
192
 74
193
 0
VERTEX
 8
CILINDRO_2
 10
0
 20
0
 30
0
 70
128
 71
208
 72
207
 73
191
 74
192
 0
VERTEX
 8
CILINDRO_2
 10
0
 20
0
 30
0
 70
128
 71
207
 72
51
 73
49
 74
191
 0
VERTEX
 8
CILINDRO_2
 10
0
 20
0
 30
0
 70
128
 71
230
 72
229
 73
213
 74
214
 0
VERTEX
 8
CILINDRO_2
 10
0
 20
0
 30
0
 70
128
 71
229
 72
228
 73
212
 74
213
 0
VERTEX
 8
CILINDRO_2
 10
0
 20
0
 30
0
 70
128
 71
228
 72
227
 73
211
 74
212
 0
VERTEX
 8
CILINDRO_2
 10
0
 20
0
 30
0
 70
128
 71
227
 72
226
 73
210
 74
211
 0
VERTEX
 8
CILINDRO_2
 10
0
 20
0
 30
0
 70
128
 71
226
 72
225
 73
209
 74
210
 0
VERTEX
 8
CILINDRO_2
 10
0
 20
0
 30
0
 70
128
 71
225
 72
224
 73
208
 74
209
 0
VERTEX
 8
CILINDRO_2
 10
0
 20
0
 30
0
 70
128
 71
224
 72
223
 73
207
 74
208
 0
VERTEX
 8
CILINDRO_2
 10
0
 20
0
 30
0
 70
128
 71
223
 72
53
 73
51
 74
207
 0
VERTEX
 8
CILINDRO_2
 10
0
 20
0
 30
0
 70
128
 71
231
 72
232
 73
229
 74
230
 0
VERTEX
 8
CILINDRO_2
 10
0
 20
0
 30
0
 70
128
 71
232
 72
233
 73
228
 74
229
 0
VERTEX
 8
CILINDRO_2
 10
0
 20
0
 30
0
 70
128
 71
233
 72
234
 73
227
 74
228
 0
VERTEX
 8
CILINDRO_2
 10
0
 20
0
 30
0
 70
128
 71
234
 72
235
 73
226
 74
227
 0
VERTEX
 8
CILINDRO_2
 10
0
 20
0
 30
0
 70
128
 71
235
 72
236
 73
225
 74
226
 0
VERTEX
 8
CILINDRO_2
 10
0
 20
0
 30
0
 70
128
 71
236
 72
237
 73
224
 74
225
 0
VERTEX
 8
CILINDRO_2
 10
0
 20
0
 30
0
 70
128
 71
237
 72
238
 73
223
 74
224
 0
VERTEX
 8
CILINDRO_2
 10
0
 20
0
 30
0
 70
128
 71
238
 72
56
 73
53
 74
223
 0
VERTEX
 8
CILINDRO_2
 10
0
 20
0
 30
0
 70
128
 71
246
 72
245
 73
232
 74
231
 0
VERTEX
 8
CILINDRO_2
 10
0
 20
0
 30
0
 70
128
 71
245
 72
244
 73
233
 74
232
 0
VERTEX
 8
CILINDRO_2
 10
0
 20
0
 30
0
 70
128
 71
244
 72
243
 73
234
 74
233
 0
VERTEX
 8
CILINDRO_2
 10
0
 20
0
 30
0
 70
128
 71
243
 72
242
 73
235
 74
234
 0
VERTEX
 8
CILINDRO_2
 10
0
 20
0
 30
0
 70
128
 71
242
 72
241
 73
236
 74
235
 0
VERTEX
 8
CILINDRO_2
 10
0
 20
0
 30
0
 70
128
 71
241
 72
240
 73
237
 74
236
 0
VERTEX
 8
CILINDRO_2
 10
0
 20
0
 30
0
 70
128
 71
240
 72
239
 73
238
 74
237
 0
VERTEX
 8
CILINDRO_2
 10
0
 20
0
 30
0
 70
128
 71
239
 72
57
 73
56
 74
238
 0
VERTEX
 8
CILINDRO_2
 10
0
 20
0
 30
0
 70
128
 71
247
 72
248
 73
245
 74
246
 0
VERTEX
 8
CILINDRO_2
 10
0
 20
0
 30
0
 70
128
 71
248
 72
249
 73
244
 74
245
 0
VERTEX
 8
CILINDRO_2
 10
0
 20
0
 30
0
 70
128
 71
249
 72
250
 73
243
 74
244
 0
VERTEX
 8
CILINDRO_2
 10
0
 20
0
 30
0
 70
128
 71
250
 72
251
 73
242
 74
243
 0
VERTEX
 8
CILINDRO_2
 10
0
 20
0
 30
0
 70
128
 71
251
 72
252
 73
241
 74
242
 0
VERTEX
 8
CILINDRO_2
 10
0
 20
0
 30
0
 70
128
 71
252
 72
253
 73
240
 74
241
 0
VERTEX
 8
CILINDRO_2
 10
0
 20
0
 30
0
 70
128
 71
253
 72
254
 73
239
 74
240
 0
VERTEX
 8
CILINDRO_2
 10
0
 20
0
 30
0
 70
128
 71
254
 72
60
 73
57
 74
239
 0
VERTEX
 8
CILINDRO_2
 10
0
 20
0
 30
0
 70
128
 71
270
 72
269
 73
261
 74
262
 0
VERTEX
 8
CILINDRO_2
 10
0
 20
0
 30
0
 70
128
 71
269
 72
268
 73
260
 74
261
 0
VERTEX
 8
CILINDRO_2
 10
0
 20
0
 30
0
 70
128
 71
268
 72
267
 73
259
 74
260
 0
VERTEX
 8
CILINDRO_2
 10
0
 20
0
 30
0
 70
128
 71
267
 72
266
 73
258
 74
259
 0
VERTEX
 8
CILINDRO_2
 10
0
 20
0
 30
0
 70
128
 71
266
 72
265
 73
257
 74
258
 0
VERTEX
 8
CILINDRO_2
 10
0
 20
0
 30
0
 70
128
 71
265
 72
264
 73
256
 74
257
 0
VERTEX
 8
CILINDRO_2
 10
0
 20
0
 30
0
 70
128
 71
264
 72
263
 73
255
 74
256
 0
VERTEX
 8
CILINDRO_2
 10
0
 20
0
 30
0
 70
128
 71
263
 72
61
 73
76
 74
255
 0
VERTEX
 8
CILINDRO_2
 10
0
 20
0
 30
0
 70
128
 71
271
 72
272
 73
269
 74
270
 0
VERTEX
 8
CILINDRO_2
 10
0
 20
0
 30
0
 70
128
 71
272
 72
273
 73
268
 74
269
 0
VERTEX
 8
CILINDRO_2
 10
0
 20
0
 30
0
 70
128
 71
273
 72
274
 73
267
 74
268
 0
VERTEX
 8
CILINDRO_2
 10
0
 20
0
 30
0
 70
128
 71
274
 72
275
 73
266
 74
267
 0
VERTEX
 8
CILINDRO_2
 10
0
 20
0
 30
0
 70
128
 71
275
 72
276
 73
265
 74
266
 0
VERTEX
 8
CILINDRO_2
 10
0
 20
0
 30
0
 70
128
 71
276
 72
277
 73
264
 74
265
 0
VERTEX
 8
CILINDRO_2
 10
0
 20
0
 30
0
 70
128
 71
277
 72
278
 73
263
 74
264
 0
VERTEX
 8
CILINDRO_2
 10
0
 20
0
 30
0
 70
128
 71
278
 72
64
 73
61
 74
263
 0
VERTEX
 8
CILINDRO_2
 10
0
 20
0
 30
0
 70
128
 71
279
 72
280
 73
272
 74
271
 0
VERTEX
 8
CILINDRO_2
 10
0
 20
0
 30
0
 70
128
 71
280
 72
281
 73
273
 74
272
 0
VERTEX
 8
CILINDRO_2
 10
0
 20
0
 30
0
 70
128
 71
281
 72
282
 73
274
 74
273
 0
VERTEX
 8
CILINDRO_2
 10
0
 20
0
 30
0
 70
128
 71
282
 72
283
 73
275
 74
274
 0
VERTEX
 8
CILINDRO_2
 10
0
 20
0
 30
0
 70
128
 71
283
 72
284
 73
276
 74
275
 0
VERTEX
 8
CILINDRO_2
 10
0
 20
0
 30
0
 70
128
 71
284
 72
285
 73
277
 74
276
 0
VERTEX
 8
CILINDRO_2
 10
0
 20
0
 30
0
 70
128
 71
285
 72
286
 73
278
 74
277
 0
VERTEX
 8
CILINDRO_2
 10
0
 20
0
 30
0
 70
128
 71
286
 72
66
 73
64
 74
278
 0
VERTEX
 8
CILINDRO_2
 10
0
 20
0
 30
0
 70
128
 71
294
 72
293
 73
280
 74
279
 0
VERTEX
 8
CILINDRO_2
 10
0
 20
0
 30
0
 70
128
 71
293
 72
292
 73
281
 74
280
 0
VERTEX
 8
CILINDRO_2
 10
0
 20
0
 30
0
 70
128
 71
292
 72
291
 73
282
 74
281
 0
VERTEX
 8
CILINDRO_2
 10
0
 20
0
 30
0
 70
128
 71
291
 72
290
 73
283
 74
282
 0
VERTEX
 8
CILINDRO_2
 10
0
 20
0
 30
0
 70
128
 71
290
 72
289
 73
284
 74
283
 0
VERTEX
 8
CILINDRO_2
 10
0
 20
0
 30
0
 70
128
 71
289
 72
288
 73
285
 74
284
 0
VERTEX
 8
CILINDRO_2
 10
0
 20
0
 30
0
 70
128
 71
288
 72
287
 73
286
 74
285
 0
VERTEX
 8
CILINDRO_2
 10
0
 20
0
 30
0
 70
128
 71
287
 72
68
 73
66
 74
286
 0
VERTEX
 8
CILINDRO_2
 10
0
 20
0
 30
0
 70
128
 71
302
 72
301
 73
293
 74
294
 0
VERTEX
 8
CILINDRO_2
 10
0
 20
0
 30
0
 70
128
 71
301
 72
300
 73
292
 74
293
 0
VERTEX
 8
CILINDRO_2
 10
0
 20
0
 30
0
 70
128
 71
300
 72
299
 73
291
 74
292
 0
VERTEX
 8
CILINDRO_2
 10
0
 20
0
 30
0
 70
128
 71
299
 72
298
 73
290
 74
291
 0
VERTEX
 8
CILINDRO_2
 10
0
 20
0
 30
0
 70
128
 71
298
 72
297
 73
289
 74
290
 0
VERTEX
 8
CILINDRO_2
 10
0
 20
0
 30
0
 70
128
 71
297
 72
296
 73
288
 74
289
 0
VERTEX
 8
CILINDRO_2
 10
0
 20
0
 30
0
 70
128
 71
296
 72
295
 73
287
 74
288
 0
VERTEX
 8
CILINDRO_2
 10
0
 20
0
 30
0
 70
128
 71
295
 72
67
 73
68
 74
287
 0
VERTEX
 8
CILINDRO_2
 10
0
 20
0
 30
0
 70
128
 71
310
 72
309
 73
301
 74
302
 0
VERTEX
 8
CILINDRO_2
 10
0
 20
0
 30
0
 70
128
 71
309
 72
308
 73
300
 74
301
 0
VERTEX
 8
CILINDRO_2
 10
0
 20
0
 30
0
 70
128
 71
308
 72
307
 73
299
 74
300
 0
VERTEX
 8
CILINDRO_2
 10
0
 20
0
 30
0
 70
128
 71
307
 72
306
 73
298
 74
299
 0
VERTEX
 8
CILINDRO_2
 10
0
 20
0
 30
0
 70
128
 71
306
 72
305
 73
297
 74
298
 0
VERTEX
 8
CILINDRO_2
 10
0
 20
0
 30
0
 70
128
 71
305
 72
304
 73
296
 74
297
 0
VERTEX
 8
CILINDRO_2
 10
0
 20
0
 30
0
 70
128
 71
304
 72
303
 73
295
 74
296
 0
VERTEX
 8
CILINDRO_2
 10
0
 20
0
 30
0
 70
128
 71
303
 72
70
 73
67
 74
295
 0
VERTEX
 8
CILINDRO_2
 10
0
 20
0
 30
0
 70
128
 71
327
 72
328
 73
309
 74
310
 0
VERTEX
 8
CILINDRO_2
 10
0
 20
0
 30
0
 70
128
 71
328
 72
329
 73
308
 74
309
 0
VERTEX
 8
CILINDRO_2
 10
0
 20
0
 30
0
 70
128
 71
329
 72
330
 73
307
 74
308
 0
VERTEX
 8
CILINDRO_2
 10
0
 20
0
 30
0
 70
128
 71
330
 72
331
 73
306
 74
307
 0
VERTEX
 8
CILINDRO_2
 10
0
 20
0
 30
0
 70
128
 71
331
 72
332
 73
305
 74
306
 0
VERTEX
 8
CILINDRO_2
 10
0
 20
0
 30
0
 70
128
 71
332
 72
333
 73
304
 74
305
 0
VERTEX
 8
CILINDRO_2
 10
0
 20
0
 30
0
 70
128
 71
333
 72
334
 73
303
 74
304
 0
VERTEX
 8
CILINDRO_2
 10
0
 20
0
 30
0
 70
128
 71
334
 72
78
 73
70
 74
303
 0
VERTEX
 8
CILINDRO_2
 10
0
 20
0
 30
0
 70
128
 71
342
 72
341
 73
328
 74
327
 0
VERTEX
 8
CILINDRO_2
 10
0
 20
0
 30
0
 70
128
 71
341
 72
340
 73
329
 74
328
 0
VERTEX
 8
CILINDRO_2
 10
0
 20
0
 30
0
 70
128
 71
340
 72
339
 73
330
 74
329
 0
VERTEX
 8
CILINDRO_2
 10
0
 20
0
 30
0
 70
128
 71
339
 72
338
 73
331
 74
330
 0
VERTEX
 8
CILINDRO_2
 10
0
 20
0
 30
0
 70
128
 71
338
 72
337
 73
332
 74
331
 0
VERTEX
 8
CILINDRO_2
 10
0
 20
0
 30
0
 70
128
 71
337
 72
336
 73
333
 74
332
 0
VERTEX
 8
CILINDRO_2
 10
0
 20
0
 30
0
 70
128
 71
336
 72
335
 73
334
 74
333
 0
VERTEX
 8
CILINDRO_2
 10
0
 20
0
 30
0
 70
128
 71
335
 72
81
 73
78
 74
334
 0
VERTEX
 8
CILINDRO_2
 10
0
 20
0
 30
0
 70
128
 71
134
 72
133
 73
341
 74
342
 0
VERTEX
 8
CILINDRO_2
 10
0
 20
0
 30
0
 70
128
 71
133
 72
132
 73
340
 74
341
 0
VERTEX
 8
CILINDRO_2
 10
0
 20
0
 30
0
 70
128
 71
132
 72
131
 73
339
 74
340
 0
VERTEX
 8
CILINDRO_2
 10
0
 20
0
 30
0
 70
128
 71
131
 72
130
 73
338
 74
339
 0
VERTEX
 8
CILINDRO_2
 10
0
 20
0
 30
0
 70
128
 71
130
 72
129
 73
337
 74
338
 0
VERTEX
 8
CILINDRO_2
 10
0
 20
0
 30
0
 70
128
 71
129
 72
128
 73
336
 74
337
 0
VERTEX
 8
CILINDRO_2
 10
0
 20
0
 30
0
 70
128
 71
128
 72
127
 73
335
 74
336
 0
VERTEX
 8
CILINDRO_2
 10
0
 20
0
 30
0
 70
128
 71
127
 72
79
 73
81
 74
335
 0
VERTEX
 8
CILINDRO_2
 10
0
 20
0
 30
0
 70
128
 71
343
 72
344
 73
184
 74
183
 0
VERTEX
 8
CILINDRO_2
 10
0
 20
0
 30
0
 70
128
 71
344
 72
345
 73
185
 74
184
 0
VERTEX
 8
CILINDRO_2
 10
0
 20
0
 30
0
 70
128
 71
345
 72
346
 73
186
 74
185
 0
VERTEX
 8
CILINDRO_2
 10
0
 20
0
 30
0
 70
128
 71
346
 72
347
 73
187
 74
186
 0
VERTEX
 8
CILINDRO_2
 10
0
 20
0
 30
0
 70
128
 71
347
 72
348
 73
188
 74
187
 0
VERTEX
 8
CILINDRO_2
 10
0
 20
0
 30
0
 70
128
 71
348
 72
349
 73
189
 74
188
 0
VERTEX
 8
CILINDRO_2
 10
0
 20
0
 30
0
 70
128
 71
349
 72
350
 73
190
 74
189
 0
VERTEX
 8
CILINDRO_2
 10
0
 20
0
 30
0
 70
128
 71
350
 72
86
 73
118
 74
190
 0
VERTEX
 8
CILINDRO_2
 10
0
 20
0
 30
0
 70
128
 71
351
 72
352
 73
344
 74
343
 0
VERTEX
 8
CILINDRO_2
 10
0
 20
0
 30
0
 70
128
 71
352
 72
353
 73
345
 74
344
 0
VERTEX
 8
CILINDRO_2
 10
0
 20
0
 30
0
 70
128
 71
353
 72
354
 73
346
 74
345
 0
VERTEX
 8
CILINDRO_2
 10
0
 20
0
 30
0
 70
128
 71
354
 72
355
 73
347
 74
346
 0
VERTEX
 8
CILINDRO_2
 10
0
 20
0
 30
0
 70
128
 71
355
 72
356
 73
348
 74
347
 0
VERTEX
 8
CILINDRO_2
 10
0
 20
0
 30
0
 70
128
 71
356
 72
357
 73
349
 74
348
 0
VERTEX
 8
CILINDRO_2
 10
0
 20
0
 30
0
 70
128
 71
357
 72
358
 73
350
 74
349
 0
VERTEX
 8
CILINDRO_2
 10
0
 20
0
 30
0
 70
128
 71
358
 72
84
 73
86
 74
350
 0
VERTEX
 8
CILINDRO_2
 10
0
 20
0
 30
0
 70
128
 71
359
 72
360
 73
352
 74
351
 0
VERTEX
 8
CILINDRO_2
 10
0
 20
0
 30
0
 70
128
 71
360
 72
361
 73
353
 74
352
 0
VERTEX
 8
CILINDRO_2
 10
0
 20
0
 30
0
 70
128
 71
361
 72
362
 73
354
 74
353
 0
VERTEX
 8
CILINDRO_2
 10
0
 20
0
 30
0
 70
128
 71
362
 72
363
 73
355
 74
354
 0
VERTEX
 8
CILINDRO_2
 10
0
 20
0
 30
0
 70
128
 71
363
 72
364
 73
356
 74
355
 0
VERTEX
 8
CILINDRO_2
 10
0
 20
0
 30
0
 70
128
 71
364
 72
365
 73
357
 74
356
 0
VERTEX
 8
CILINDRO_2
 10
0
 20
0
 30
0
 70
128
 71
365
 72
366
 73
358
 74
357
 0
VERTEX
 8
CILINDRO_2
 10
0
 20
0
 30
0
 70
128
 71
366
 72
88
 73
84
 74
358
 0
VERTEX
 8
CILINDRO_2
 10
0
 20
0
 30
0
 70
128
 71
367
 72
368
 73
360
 74
359
 0
VERTEX
 8
CILINDRO_2
 10
0
 20
0
 30
0
 70
128
 71
368
 72
369
 73
361
 74
360
 0
VERTEX
 8
CILINDRO_2
 10
0
 20
0
 30
0
 70
128
 71
369
 72
370
 73
362
 74
361
 0
VERTEX
 8
CILINDRO_2
 10
0
 20
0
 30
0
 70
128
 71
370
 72
371
 73
363
 74
362
 0
VERTEX
 8
CILINDRO_2
 10
0
 20
0
 30
0
 70
128
 71
371
 72
372
 73
364
 74
363
 0
VERTEX
 8
CILINDRO_2
 10
0
 20
0
 30
0
 70
128
 71
372
 72
373
 73
365
 74
364
 0
VERTEX
 8
CILINDRO_2
 10
0
 20
0
 30
0
 70
128
 71
373
 72
374
 73
366
 74
365
 0
VERTEX
 8
CILINDRO_2
 10
0
 20
0
 30
0
 70
128
 71
374
 72
90
 73
88
 74
366
 0
VERTEX
 8
CILINDRO_2
 10
0
 20
0
 30
0
 70
128
 71
375
 72
376
 73
368
 74
367
 0
VERTEX
 8
CILINDRO_2
 10
0
 20
0
 30
0
 70
128
 71
376
 72
377
 73
369
 74
368
 0
VERTEX
 8
CILINDRO_2
 10
0
 20
0
 30
0
 70
128
 71
377
 72
378
 73
370
 74
369
 0
VERTEX
 8
CILINDRO_2
 10
0
 20
0
 30
0
 70
128
 71
378
 72
379
 73
371
 74
370
 0
VERTEX
 8
CILINDRO_2
 10
0
 20
0
 30
0
 70
128
 71
379
 72
380
 73
372
 74
371
 0
VERTEX
 8
CILINDRO_2
 10
0
 20
0
 30
0
 70
128
 71
380
 72
381
 73
373
 74
372
 0
VERTEX
 8
CILINDRO_2
 10
0
 20
0
 30
0
 70
128
 71
381
 72
382
 73
374
 74
373
 0
VERTEX
 8
CILINDRO_2
 10
0
 20
0
 30
0
 70
128
 71
382
 72
92
 73
90
 74
374
 0
VERTEX
 8
CILINDRO_2
 10
0
 20
0
 30
0
 70
128
 71
383
 72
384
 73
376
 74
375
 0
VERTEX
 8
CILINDRO_2
 10
0
 20
0
 30
0
 70
128
 71
384
 72
385
 73
377
 74
376
 0
VERTEX
 8
CILINDRO_2
 10
0
 20
0
 30
0
 70
128
 71
385
 72
386
 73
378
 74
377
 0
VERTEX
 8
CILINDRO_2
 10
0
 20
0
 30
0
 70
128
 71
386
 72
387
 73
379
 74
378
 0
VERTEX
 8
CILINDRO_2
 10
0
 20
0
 30
0
 70
128
 71
387
 72
388
 73
380
 74
379
 0
VERTEX
 8
CILINDRO_2
 10
0
 20
0
 30
0
 70
128
 71
388
 72
389
 73
381
 74
380
 0
VERTEX
 8
CILINDRO_2
 10
0
 20
0
 30
0
 70
128
 71
389
 72
390
 73
382
 74
381
 0
VERTEX
 8
CILINDRO_2
 10
0
 20
0
 30
0
 70
128
 71
390
 72
94
 73
92
 74
382
 0
VERTEX
 8
CILINDRO_2
 10
0
 20
0
 30
0
 70
128
 71
391
 72
392
 73
384
 74
383
 0
VERTEX
 8
CILINDRO_2
 10
0
 20
0
 30
0
 70
128
 71
392
 72
393
 73
385
 74
384
 0
VERTEX
 8
CILINDRO_2
 10
0
 20
0
 30
0
 70
128
 71
393
 72
394
 73
386
 74
385
 0
VERTEX
 8
CILINDRO_2
 10
0
 20
0
 30
0
 70
128
 71
394
 72
395
 73
387
 74
386
 0
VERTEX
 8
CILINDRO_2
 10
0
 20
0
 30
0
 70
128
 71
395
 72
396
 73
388
 74
387
 0
VERTEX
 8
CILINDRO_2
 10
0
 20
0
 30
0
 70
128
 71
396
 72
397
 73
389
 74
388
 0
VERTEX
 8
CILINDRO_2
 10
0
 20
0
 30
0
 70
128
 71
397
 72
398
 73
390
 74
389
 0
VERTEX
 8
CILINDRO_2
 10
0
 20
0
 30
0
 70
128
 71
398
 72
96
 73
94
 74
390
 0
VERTEX
 8
CILINDRO_2
 10
0
 20
0
 30
0
 70
128
 71
399
 72
400
 73
392
 74
391
 0
VERTEX
 8
CILINDRO_2
 10
0
 20
0
 30
0
 70
128
 71
400
 72
401
 73
393
 74
392
 0
VERTEX
 8
CILINDRO_2
 10
0
 20
0
 30
0
 70
128
 71
401
 72
402
 73
394
 74
393
 0
VERTEX
 8
CILINDRO_2
 10
0
 20
0
 30
0
 70
128
 71
402
 72
403
 73
395
 74
394
 0
VERTEX
 8
CILINDRO_2
 10
0
 20
0
 30
0
 70
128
 71
403
 72
404
 73
396
 74
395
 0
VERTEX
 8
CILINDRO_2
 10
0
 20
0
 30
0
 70
128
 71
404
 72
405
 73
397
 74
396
 0
VERTEX
 8
CILINDRO_2
 10
0
 20
0
 30
0
 70
128
 71
405
 72
406
 73
398
 74
397
 0
VERTEX
 8
CILINDRO_2
 10
0
 20
0
 30
0
 70
128
 71
406
 72
98
 73
96
 74
398
 0
VERTEX
 8
CILINDRO_2
 10
0
 20
0
 30
0
 70
128
 71
319
 72
320
 73
400
 74
399
 0
VERTEX
 8
CILINDRO_2
 10
0
 20
0
 30
0
 70
128
 71
320
 72
321
 73
401
 74
400
 0
VERTEX
 8
CILINDRO_2
 10
0
 20
0
 30
0
 70
128
 71
321
 72
322
 73
402
 74
401
 0
VERTEX
 8
CILINDRO_2
 10
0
 20
0
 30
0
 70
128
 71
322
 72
323
 73
403
 74
402
 0
VERTEX
 8
CILINDRO_2
 10
0
 20
0
 30
0
 70
128
 71
323
 72
324
 73
404
 74
403
 0
VERTEX
 8
CILINDRO_2
 10
0
 20
0
 30
0
 70
128
 71
324
 72
325
 73
405
 74
404
 0
VERTEX
 8
CILINDRO_2
 10
0
 20
0
 30
0
 70
128
 71
325
 72
326
 73
406
 74
405
 0
VERTEX
 8
CILINDRO_2
 10
0
 20
0
 30
0
 70
128
 71
326
 72
100
 73
98
 74
406
 0
VERTEX
 8
CILINDRO_2
 10
0
 20
0
 30
0
 70
128
 71
407
 72
408
 73
317
 74
318
 0
VERTEX
 8
CILINDRO_2
 10
0
 20
0
 30
0
 70
128
 71
408
 72
409
 73
316
 74
317
 0
VERTEX
 8
CILINDRO_2
 10
0
 20
0
 30
0
 70
128
 71
409
 72
410
 73
315
 74
316
 0
VERTEX
 8
CILINDRO_2
 10
0
 20
0
 30
0
 70
128
 71
410
 72
411
 73
314
 74
315
 0
VERTEX
 8
CILINDRO_2
 10
0
 20
0
 30
0
 70
128
 71
411
 72
412
 73
313
 74
314
 0
VERTEX
 8
CILINDRO_2
 10
0
 20
0
 30
0
 70
128
 71
412
 72
413
 73
312
 74
313
 0
VERTEX
 8
CILINDRO_2
 10
0
 20
0
 30
0
 70
128
 71
413
 72
414
 73
311
 74
312
 0
VERTEX
 8
CILINDRO_2
 10
0
 20
0
 30
0
 70
128
 71
414
 72
102
 73
71
 74
311
 0
VERTEX
 8
CILINDRO_2
 10
0
 20
0
 30
0
 70
128
 71
135
 72
136
 73
408
 74
407
 0
VERTEX
 8
CILINDRO_2
 10
0
 20
0
 30
0
 70
128
 71
136
 72
137
 73
409
 74
408
 0
VERTEX
 8
CILINDRO_2
 10
0
 20
0
 30
0
 70
128
 71
137
 72
138
 73
410
 74
409
 0
VERTEX
 8
CILINDRO_2
 10
0
 20
0
 30
0
 70
128
 71
138
 72
139
 73
411
 74
410
 0
VERTEX
 8
CILINDRO_2
 10
0
 20
0
 30
0
 70
128
 71
139
 72
140
 73
412
 74
411
 0
VERTEX
 8
CILINDRO_2
 10
0
 20
0
 30
0
 70
128
 71
140
 72
141
 73
413
 74
412
 0
VERTEX
 8
CILINDRO_2
 10
0
 20
0
 30
0
 70
128
 71
141
 72
142
 73
414
 74
413
 0
VERTEX
 8
CILINDRO_2
 10
0
 20
0
 30
0
 70
128
 71
142
 72
104
 73
102
 74
414
 0
VERTEX
 8
CILINDRO_2
 10
0
 20
0
 30
0
 70
128
 71
151
 72
152
 73
136
 74
135
 0
VERTEX
 8
CILINDRO_2
 10
0
 20
0
 30
0
 70
128
 71
152
 72
153
 73
137
 74
136
 0
VERTEX
 8
CILINDRO_2
 10
0
 20
0
 30
0
 70
128
 71
153
 72
154
 73
138
 74
137
 0
VERTEX
 8
CILINDRO_2
 10
0
 20
0
 30
0
 70
128
 71
154
 72
155
 73
139
 74
138
 0
VERTEX
 8
CILINDRO_2
 10
0
 20
0
 30
0
 70
128
 71
155
 72
156
 73
140
 74
139
 0
VERTEX
 8
CILINDRO_2
 10
0
 20
0
 30
0
 70
128
 71
156
 72
157
 73
141
 74
140
 0
VERTEX
 8
CILINDRO_2
 10
0
 20
0
 30
0
 70
128
 71
157
 72
158
 73
142
 74
141
 0
VERTEX
 8
CILINDRO_2
 10
0
 20
0
 30
0
 70
128
 71
158
 72
106
 73
104
 74
142
 0
VERTEX
 8
CILINDRO_2
 10
0
 20
0
 30
0
 70
128
 71
415
 72
416
 73
152
 74
151
 0
VERTEX
 8
CILINDRO_2
 10
0
 20
0
 30
0
 70
128
 71
416
 72
417
 73
153
 74
152
 0
VERTEX
 8
CILINDRO_2
 10
0
 20
0
 30
0
 70
128
 71
417
 72
418
 73
154
 74
153
 0
VERTEX
 8
CILINDRO_2
 10
0
 20
0
 30
0
 70
128
 71
418
 72
419
 73
155
 74
154
 0
VERTEX
 8
CILINDRO_2
 10
0
 20
0
 30
0
 70
128
 71
419
 72
420
 73
156
 74
155
 0
VERTEX
 8
CILINDRO_2
 10
0
 20
0
 30
0
 70
128
 71
420
 72
421
 73
157
 74
156
 0
VERTEX
 8
CILINDRO_2
 10
0
 20
0
 30
0
 70
128
 71
421
 72
422
 73
158
 74
157
 0
VERTEX
 8
CILINDRO_2
 10
0
 20
0
 30
0
 70
128
 71
422
 72
108
 73
106
 74
158
 0
VERTEX
 8
CILINDRO_2
 10
0
 20
0
 30
0
 70
128
 71
119
 72
120
 73
416
 74
415
 0
VERTEX
 8
CILINDRO_2
 10
0
 20
0
 30
0
 70
128
 71
120
 72
121
 73
417
 74
416
 0
VERTEX
 8
CILINDRO_2
 10
0
 20
0
 30
0
 70
128
 71
121
 72
122
 73
418
 74
417
 0
VERTEX
 8
CILINDRO_2
 10
0
 20
0
 30
0
 70
128
 71
122
 72
123
 73
419
 74
418
 0
VERTEX
 8
CILINDRO_2
 10
0
 20
0
 30
0
 70
128
 71
123
 72
124
 73
420
 74
419
 0
VERTEX
 8
CILINDRO_2
 10
0
 20
0
 30
0
 70
128
 71
124
 72
125
 73
421
 74
420
 0
VERTEX
 8
CILINDRO_2
 10
0
 20
0
 30
0
 70
128
 71
125
 72
126
 73
422
 74
421
 0
VERTEX
 8
CILINDRO_2
 10
0
 20
0
 30
0
 70
128
 71
126
 72
110
 73
108
 74
422
 0
VERTEX
 8
CILINDRO_2
 10
0
 20
0
 30
0
 70
128
 71
199
 72
200
 73
120
 74
119
 0
VERTEX
 8
CILINDRO_2
 10
0
 20
0
 30
0
 70
128
 71
200
 72
201
 73
121
 74
120
 0
VERTEX
 8
CILINDRO_2
 10
0
 20
0
 30
0
 70
128
 71
201
 72
202
 73
122
 74
121
 0
VERTEX
 8
CILINDRO_2
 10
0
 20
0
 30
0
 70
128
 71
202
 72
203
 73
123
 74
122
 0
VERTEX
 8
CILINDRO_2
 10
0
 20
0
 30
0
 70
128
 71
203
 72
204
 73
124
 74
123
 0
VERTEX
 8
CILINDRO_2
 10
0
 20
0
 30
0
 70
128
 71
204
 72
205
 73
125
 74
124
 0
VERTEX
 8
CILINDRO_2
 10
0
 20
0
 30
0
 70
128
 71
205
 72
206
 73
126
 74
125
 0
VERTEX
 8
CILINDRO_2
 10
0
 20
0
 30
0
 70
128
 71
206
 72
112
 73
110
 74
126
 0
VERTEX
 8
CILINDRO_2
 10
0
 20
0
 30
0
 70
128
 71
215
 72
216
 73
200
 74
199
 0
VERTEX
 8
CILINDRO_2
 10
0
 20
0
 30
0
 70
128
 71
216
 72
217
 73
201
 74
200
 0
VERTEX
 8
CILINDRO_2
 10
0
 20
0
 30
0
 70
128
 71
217
 72
218
 73
202
 74
201
 0
VERTEX
 8
CILINDRO_2
 10
0
 20
0
 30
0
 70
128
 71
218
 72
219
 73
203
 74
202
 0
VERTEX
 8
CILINDRO_2
 10
0
 20
0
 30
0
 70
128
 71
219
 72
220
 73
204
 74
203
 0
VERTEX
 8
CILINDRO_2
 10
0
 20
0
 30
0
 70
128
 71
220
 72
221
 73
205
 74
204
 0
VERTEX
 8
CILINDRO_2
 10
0
 20
0
 30
0
 70
128
 71
221
 72
222
 73
206
 74
205
 0
VERTEX
 8
CILINDRO_2
 10
0
 20
0
 30
0
 70
128
 71
222
 72
114
 73
112
 74
206
 0
VERTEX
 8
CILINDRO_2
 10
0
 20
0
 30
0
 70
128
 71
167
 72
168
 73
216
 74
215
 0
VERTEX
 8
CILINDRO_2
 10
0
 20
0
 30
0
 70
128
 71
168
 72
169
 73
217
 74
216
 0
VERTEX
 8
CILINDRO_2
 10
0
 20
0
 30
0
 70
128
 71
169
 72
170
 73
218
 74
217
 0
VERTEX
 8
CILINDRO_2
 10
0
 20
0
 30
0
 70
128
 71
170
 72
171
 73
219
 74
218
 0
VERTEX
 8
CILINDRO_2
 10
0
 20
0
 30
0
 70
128
 71
171
 72
172
 73
220
 74
219
 0
VERTEX
 8
CILINDRO_2
 10
0
 20
0
 30
0
 70
128
 71
172
 72
173
 73
221
 74
220
 0
VERTEX
 8
CILINDRO_2
 10
0
 20
0
 30
0
 70
128
 71
173
 72
174
 73
222
 74
221
 0
VERTEX
 8
CILINDRO_2
 10
0
 20
0
 30
0
 70
128
 71
174
 72
116
 73
114
 74
222
 0
VERTEX
 8
CILINDRO_2
 10
0
 20
0
 30
0
 70
128
 71
183
 72
184
 73
168
 74
167
 0
VERTEX
 8
CILINDRO_2
 10
0
 20
0
 30
0
 70
128
 71
184
 72
185
 73
169
 74
168
 0
VERTEX
 8
CILINDRO_2
 10
0
 20
0
 30
0
 70
128
 71
185
 72
186
 73
170
 74
169
 0
VERTEX
 8
CILINDRO_2
 10
0
 20
0
 30
0
 70
128
 71
186
 72
187
 73
171
 74
170
 0
VERTEX
 8
CILINDRO_2
 10
0
 20
0
 30
0
 70
128
 71
187
 72
188
 73
172
 74
171
 0
VERTEX
 8
CILINDRO_2
 10
0
 20
0
 30
0
 70
128
 71
188
 72
189
 73
173
 74
172
 0
VERTEX
 8
CILINDRO_2
 10
0
 20
0
 30
0
 70
128
 71
189
 72
190
 73
174
 74
173
 0
VERTEX
 8
CILINDRO_2
 10
0
 20
0
 30
0
 70
128
 71
190
 72
118
 73
116
 74
174
 0
VERTEX
 8
CILINDRO_2
 10
0
 20
0
 30
0
 70
128
 71
262
 72
261
 73
509
 74
508
 0
VERTEX
 8
CILINDRO_2
 10
0
 20
0
 30
0
 70
128
 71
261
 72
260
 73
510
 74
509
 0
VERTEX
 8
CILINDRO_2
 10
0
 20
0
 30
0
 70
128
 71
260
 72
259
 73
511
 74
510
 0
VERTEX
 8
CILINDRO_2
 10
0
 20
0
 30
0
 70
128
 71
259
 72
258
 73
512
 74
511
 0
VERTEX
 8
CILINDRO_2
 10
0
 20
0
 30
0
 70
128
 71
258
 72
257
 73
514
 74
512
 0
VERTEX
 8
CILINDRO_2
 10
0
 20
0
 30
0
 70
128
 71
257
 72
256
 73
515
 74
514
 0
VERTEX
 8
CILINDRO_2
 10
0
 20
0
 30
0
 70
128
 71
256
 72
255
 73
516
 74
515
 0
VERTEX
 8
CILINDRO_2
 10
0
 20
0
 30
0
 70
128
 71
255
 72
76
 73
502
 74
516
 0
VERTEX
 8
CILINDRO_2
 10
0
 20
0
 30
0
 70
128
 71
318
 72
317
 73
432
 74
434
 0
VERTEX
 8
CILINDRO_2
 10
0
 20
0
 30
0
 70
128
 71
317
 72
316
 73
431
 74
432
 0
VERTEX
 8
CILINDRO_2
 10
0
 20
0
 30
0
 70
128
 71
316
 72
315
 73
442
 74
431
 0
VERTEX
 8
CILINDRO_2
 10
0
 20
0
 30
0
 70
128
 71
315
 72
314
 73
443
 74
442
 0
VERTEX
 8
CILINDRO_2
 10
0
 20
0
 30
0
 70
128
 71
314
 72
313
 73
444
 74
443
 0
VERTEX
 8
CILINDRO_2
 10
0
 20
0
 30
0
 70
128
 71
313
 72
312
 73
445
 74
444
 0
VERTEX
 8
CILINDRO_2
 10
0
 20
0
 30
0
 70
128
 71
312
 72
311
 73
446
 74
445
 0
VERTEX
 8
CILINDRO_2
 10
0
 20
0
 30
0
 70
128
 71
311
 72
71
 73
427
 74
446
 0
VERTEX
 8
CILINDRO_2
 10
0
 20
0
 30
0
 70
128
 71
423
 72
75
 73
32
 74
424
 0
VERTEX
 8
CILINDRO_2
 10
0
 20
0
 30
0
 70
128
 71
425
 72
22
 73
100
 74
426
 0
VERTEX
 8
CILINDRO_2
 10
0
 20
0
 30
0
 70
128
 71
427
 72
71
 73
22
 74
425
 0
VERTEX
 8
CILINDRO_2
 10
0
 20
0
 30
0
 70
128
 71
428
 72
462
 73
453
 74
429
 0
VERTEX
 8
CILINDRO_2
 10
0
 20
0
 30
0
 70
128
 71
430
 72
23
 73
33
 74
429
 0
VERTEX
 8
CILINDRO_2
 10
0
 20
0
 30
0
 70
128
 71
430
 72
452
 73
448
 74
424
 0
VERTEX
 8
CILINDRO_2
 10
0
 20
0
 30
0
 70
128
 71
431
 72
463
 73
464
 74
432
 0
VERTEX
 8
CILINDRO_2
 10
0
 20
0
 30
0
 70
128
 71
433
 72
319
 73
75
 74
423
 0
VERTEX
 8
CILINDRO_2
 10
0
 20
0
 30
0
 70
128
 71
432
 72
464
 73
465
 74
434
 0
VERTEX
 8
CILINDRO_2
 10
0
 20
0
 30
0
 70
128
 71
434
 72
465
 73
462
 74
428
 0
VERTEX
 8
CILINDRO_2
 10
0
 20
0
 30
0
 70
128
 71
435
 72
320
 73
319
 74
433
 0
VERTEX
 8
CILINDRO_2
 10
0
 20
0
 30
0
 70
128
 71
436
 72
321
 73
320
 74
435
 0
VERTEX
 8
CILINDRO_2
 10
0
 20
0
 30
0
 70
128
 71
437
 72
322
 73
321
 74
436
 0
VERTEX
 8
CILINDRO_2
 10
0
 20
0
 30
0
 70
128
 71
438
 72
323
 73
322
 74
437
 0
VERTEX
 8
CILINDRO_2
 10
0
 20
0
 30
0
 70
128
 71
439
 72
324
 73
323
 74
438
 0
VERTEX
 8
CILINDRO_2
 10
0
 20
0
 30
0
 70
128
 71
440
 72
325
 73
324
 74
439
 0
VERTEX
 8
CILINDRO_2
 10
0
 20
0
 30
0
 70
128
 71
441
 72
326
 73
325
 74
440
 0
VERTEX
 8
CILINDRO_2
 10
0
 20
0
 30
0
 70
128
 71
426
 72
100
 73
326
 74
441
 0
VERTEX
 8
CILINDRO_2
 10
0
 20
0
 30
0
 70
128
 71
442
 72
466
 73
463
 74
431
 0
VERTEX
 8
CILINDRO_2
 10
0
 20
0
 30
0
 70
128
 71
443
 72
467
 73
466
 74
442
 0
VERTEX
 8
CILINDRO_2
 10
0
 20
0
 30
0
 70
128
 71
444
 72
468
 73
467
 74
443
 0
VERTEX
 8
CILINDRO_2
 10
0
 20
0
 30
0
 70
128
 71
521
 72
530
 73
536
 74
536
 0
VERTEX
 8
CILINDRO_2
 10
0
 20
0
 30
0
 70
128
 71
529
 72
528
 73
519
 74
519
 0
VERTEX
 8
CILINDRO_2
 10
0
 20
0
 30
0
 70
128
 71
532
 72
533
 73
524
 74
524
 0
VERTEX
 8
CILINDRO_2
 10
0
 20
0
 30
0
 70
128
 71
447
 72
423
 73
424
 74
448
 0
VERTEX
 8
CILINDRO_2
 10
0
 20
0
 30
0
 70
128
 71
532
 72
523
 73
522
 74
522
 0
VERTEX
 8
CILINDRO_2
 10
0
 20
0
 30
0
 70
128
 71
527
 72
536
 73
535
 74
535
 0
VERTEX
 8
CILINDRO_2
 10
0
 20
0
 30
0
 70
128
 71
452
 72
430
 73
429
 74
453
 0
VERTEX
 8
CILINDRO_2
 10
0
 20
0
 30
0
 70
128
 71
454
 72
433
 73
423
 74
447
 0
VERTEX
 8
CILINDRO_2
 10
0
 20
0
 30
0
 70
128
 71
455
 72
435
 73
433
 74
454
 0
VERTEX
 8
CILINDRO_2
 10
0
 20
0
 30
0
 70
128
 71
456
 72
436
 73
435
 74
455
 0
VERTEX
 8
CILINDRO_2
 10
0
 20
0
 30
0
 70
128
 71
457
 72
437
 73
436
 74
456
 0
VERTEX
 8
CILINDRO_2
 10
0
 20
0
 30
0
 70
128
 71
458
 72
438
 73
437
 74
457
 0
VERTEX
 8
CILINDRO_2
 10
0
 20
0
 30
0
 70
128
 71
459
 72
439
 73
438
 74
458
 0
VERTEX
 8
CILINDRO_2
 10
0
 20
0
 30
0
 70
128
 71
533
 72
529
 73
520
 74
520
 0
VERTEX
 8
CILINDRO_2
 10
0
 20
0
 30
0
 70
128
 71
535
 72
534
 73
525
 74
525
 0
VERTEX
 8
CILINDRO_2
 10
0
 20
0
 30
0
 70
128
 71
519
 72
528
 73
530
 74
530
 0
VERTEX
 8
CILINDRO_2
 10
0
 20
0
 30
0
 70
128
 71
462
 72
490
 73
481
 74
453
 0
VERTEX
 8
CILINDRO_2
 10
0
 20
0
 30
0
 70
128
 71
452
 72
480
 73
474
 74
448
 0
VERTEX
 8
CILINDRO_2
 10
0
 20
0
 30
0
 70
128
 71
463
 72
491
 73
492
 74
464
 0
VERTEX
 8
CILINDRO_2
 10
0
 20
0
 30
0
 70
128
 71
464
 72
492
 73
493
 74
465
 0
VERTEX
 8
CILINDRO_2
 10
0
 20
0
 30
0
 70
128
 71
465
 72
493
 73
490
 74
462
 0
VERTEX
 8
CILINDRO_2
 10
0
 20
0
 30
0
 70
128
 71
466
 72
494
 73
491
 74
463
 0
VERTEX
 8
CILINDRO_2
 10
0
 20
0
 30
0
 70
128
 71
467
 72
479
 73
494
 74
466
 0
VERTEX
 8
CILINDRO_2
 10
0
 20
0
 30
0
 70
128
 71
468
 72
478
 73
479
 74
467
 0
VERTEX
 8
CILINDRO_2
 10
0
 20
0
 30
0
 70
128
 71
469
 72
472
 73
478
 74
468
 0
VERTEX
 8
CILINDRO_2
 10
0
 20
0
 30
0
 70
128
 71
470
 72
471
 73
472
 74
469
 0
VERTEX
 8
CILINDRO_2
 10
0
 20
0
 30
0
 70
128
 71
451
 72
475
 73
471
 74
470
 0
VERTEX
 8
CILINDRO_2
 10
0
 20
0
 30
0
 70
128
 71
545
 72
544
 73
543
 74
543
 0
VERTEX
 8
CILINDRO_2
 10
0
 20
0
 30
0
 70
128
 71
473
 72
447
 73
448
 74
474
 0
VERTEX
 8
CILINDRO_2
 10
0
 20
0
 30
0
 70
128
 71
541
 72
554
 73
549
 74
549
 0
VERTEX
 8
CILINDRO_2
 10
0
 20
0
 30
0
 70
128
 71
476
 72
449
 73
450
 74
477
 0
VERTEX
 8
CILINDRO_2
 10
0
 20
0
 30
0
 70
128
 71
478
 72
500
 73
495
 74
479
 0
VERTEX
 8
CILINDRO_2
 10
0
 20
0
 30
0
 70
128
 71
475
 72
451
 73
449
 74
476
 0
VERTEX
 8
CILINDRO_2
 10
0
 20
0
 30
0
 70
128
 71
480
 72
452
 73
453
 74
481
 0
VERTEX
 8
CILINDRO_2
 10
0
 20
0
 30
0
 70
128
 71
482
 72
454
 73
447
 74
473
 0
VERTEX
 8
CILINDRO_2
 10
0
 20
0
 30
0
 70
128
 71
483
 72
455
 73
454
 74
482
 0
VERTEX
 8
CILINDRO_2
 10
0
 20
0
 30
0
 70
128
 71
484
 72
456
 73
455
 74
483
 0
VERTEX
 8
CILINDRO_2
 10
0
 20
0
 30
0
 70
128
 71
485
 72
457
 73
456
 74
484
 0
VERTEX
 8
CILINDRO_2
 10
0
 20
0
 30
0
 70
128
 71
486
 72
458
 73
457
 74
485
 0
VERTEX
 8
CILINDRO_2
 10
0
 20
0
 30
0
 70
128
 71
487
 72
459
 73
458
 74
486
 0
VERTEX
 8
CILINDRO_2
 10
0
 20
0
 30
0
 70
128
 71
488
 72
460
 73
459
 74
487
 0
VERTEX
 8
CILINDRO_2
 10
0
 20
0
 30
0
 70
128
 71
489
 72
461
 73
460
 74
488
 0
VERTEX
 8
CILINDRO_2
 10
0
 20
0
 30
0
 70
128
 71
477
 72
450
 73
461
 74
489
 0
VERTEX
 8
CILINDRO_2
 10
0
 20
0
 30
0
 70
128
 71
490
 72
504
 73
507
 74
481
 0
VERTEX
 8
CILINDRO_2
 10
0
 20
0
 30
0
 70
128
 71
480
 72
506
 73
498
 74
474
 0
VERTEX
 8
CILINDRO_2
 10
0
 20
0
 30
0
 70
128
 71
491
 72
517
 73
518
 74
492
 0
VERTEX
 8
CILINDRO_2
 10
0
 20
0
 30
0
 70
128
 71
492
 72
518
 73
503
 74
493
 0
VERTEX
 8
CILINDRO_2
 10
0
 20
0
 30
0
 70
128
 71
493
 72
503
 73
504
 74
490
 0
VERTEX
 8
CILINDRO_2
 10
0
 20
0
 30
0
 70
128
 71
494
 72
496
 73
517
 74
491
 0
VERTEX
 8
CILINDRO_2
 10
0
 20
0
 30
0
 70
128
 71
479
 72
495
 73
496
 74
494
 0
VERTEX
 8
CILINDRO_2
 10
0
 20
0
 30
0
 70
128
 71
547
 72
550
 73
551
 74
551
 0
VERTEX
 8
CILINDRO_2
 10
0
 20
0
 30
0
 70
128
 71
495
 72
251
 73
250
 74
496
 0
VERTEX
 8
CILINDRO_2
 10
0
 20
0
 30
0
 70
128
 71
497
 72
473
 73
474
 74
498
 0
VERTEX
 8
CILINDRO_2
 10
0
 20
0
 30
0
 70
128
 71
499
 72
253
 73
252
 74
500
 0
VERTEX
 8
CILINDRO_2
 10
0
 20
0
 30
0
 70
128
 71
547
 72
542
 73
537
 74
537
 0
VERTEX
 8
CILINDRO_2
 10
0
 20
0
 30
0
 70
128
 71
503
 72
247
 73
73
 74
504
 0
VERTEX
 8
CILINDRO_2
 10
0
 20
0
 30
0
 70
128
 71
554
 72
541
 73
545
 74
545
 0
VERTEX
 8
CILINDRO_2
 10
0
 20
0
 30
0
 70
128
 71
506
 72
480
 73
481
 74
507
 0
VERTEX
 8
CILINDRO_2
 10
0
 20
0
 30
0
 70
128
 71
508
 72
482
 73
473
 74
497
 0
VERTEX
 8
CILINDRO_2
 10
0
 20
0
 30
0
 70
128
 71
500
 72
252
 73
251
 74
495
 0
VERTEX
 8
CILINDRO_2
 10
0
 20
0
 30
0
 70
128
 71
509
 72
483
 73
482
 74
508
 0
VERTEX
 8
CILINDRO_2
 10
0
 20
0
 30
0
 70
128
 71
510
 72
484
 73
483
 74
509
 0
VERTEX
 8
CILINDRO_2
 10
0
 20
0
 30
0
 70
128
 71
511
 72
485
 73
484
 74
510
 0
VERTEX
 8
CILINDRO_2
 10
0
 20
0
 30
0
 70
128
 71
512
 72
486
 73
485
 74
511
 0
VERTEX
 8
CILINDRO_2
 10
0
 20
0
 30
0
 70
128
 71
513
 72
254
 73
253
 74
499
 0
VERTEX
 8
CILINDRO_2
 10
0
 20
0
 30
0
 70
128
 71
514
 72
487
 73
486
 74
512
 0
VERTEX
 8
CILINDRO_2
 10
0
 20
0
 30
0
 70
128
 71
553
 72
554
 73
552
 74
552
 0
VERTEX
 8
CILINDRO_2
 10
0
 20
0
 30
0
 70
128
 71
505
 72
60
 73
254
 74
513
 0
VERTEX
 8
CILINDRO_2
 10
0
 20
0
 30
0
 70
128
 71
547
 72
549
 73
548
 74
548
 0
VERTEX
 8
CILINDRO_2
 10
0
 20
0
 30
0
 70
128
 71
542
 72
538
 73
537
 74
537
 0
VERTEX
 8
CILINDRO_2
 10
0
 20
0
 30
0
 70
128
 71
504
 72
73
 73
12
 74
507
 0
VERTEX
 8
CILINDRO_2
 10
0
 20
0
 30
0
 70
128
 71
506
 72
2
 73
13
 74
498
 0
VERTEX
 8
CILINDRO_2
 10
0
 20
0
 30
0
 70
128
 71
517
 72
249
 73
248
 74
518
 0
VERTEX
 8
CILINDRO_2
 10
0
 20
0
 30
0
 70
128
 71
518
 72
248
 73
247
 74
503
 0
VERTEX
 8
CILINDRO_2
 10
0
 20
0
 30
0
 70
128
 71
496
 72
250
 73
249
 74
517
 0
VERTEX
 8
CILINDRO_2
 10
0
 20
0
 30
0
 70
128
 71
460
 72
532
 73
531
 74
459
 0
VERTEX
 8
CILINDRO_2
 10
0
 20
0
 30
0
 70
128
 71
459
 72
531
 73
522
 74
439
 0
VERTEX
 8
CILINDRO_2
 10
0
 20
0
 30
0
 70
128
 71
439
 72
522
 73
523
 74
440
 0
VERTEX
 8
CILINDRO_2
 10
0
 20
0
 30
0
 70
128
 71
440
 72
523
 73
524
 74
441
 0
VERTEX
 8
CILINDRO_2
 10
0
 20
0
 30
0
 70
128
 71
441
 72
524
 73
520
 74
426
 0
VERTEX
 8
CILINDRO_2
 10
0
 20
0
 30
0
 70
128
 71
426
 72
520
 73
519
 74
425
 0
VERTEX
 8
CILINDRO_2
 10
0
 20
0
 30
0
 70
128
 71
425
 72
519
 73
521
 74
427
 0
VERTEX
 8
CILINDRO_2
 10
0
 20
0
 30
0
 70
128
 71
427
 72
521
 73
527
 74
446
 0
VERTEX
 8
CILINDRO_2
 10
0
 20
0
 30
0
 70
128
 71
446
 72
527
 73
526
 74
445
 0
VERTEX
 8
CILINDRO_2
 10
0
 20
0
 30
0
 70
128
 71
445
 72
526
 73
525
 74
444
 0
VERTEX
 8
CILINDRO_2
 10
0
 20
0
 30
0
 70
128
 71
444
 72
525
 73
534
 74
468
 0
VERTEX
 8
CILINDRO_2
 10
0
 20
0
 30
0
 70
128
 71
468
 72
534
 73
535
 74
469
 0
VERTEX
 8
CILINDRO_2
 10
0
 20
0
 30
0
 70
128
 71
469
 72
535
 73
536
 74
470
 0
VERTEX
 8
CILINDRO_2
 10
0
 20
0
 30
0
 70
128
 71
470
 72
536
 73
530
 74
451
 0
VERTEX
 8
CILINDRO_2
 10
0
 20
0
 30
0
 70
128
 71
451
 72
530
 73
528
 74
449
 0
VERTEX
 8
CILINDRO_2
 10
0
 20
0
 30
0
 70
128
 71
449
 72
528
 73
529
 74
450
 0
VERTEX
 8
CILINDRO_2
 10
0
 20
0
 30
0
 70
128
 71
450
 72
529
 73
533
 74
461
 0
VERTEX
 8
CILINDRO_2
 10
0
 20
0
 30
0
 70
128
 71
461
 72
533
 73
532
 74
460
 0
VERTEX
 8
CILINDRO_2
 10
0
 20
0
 30
0
 70
128
 71
521
 72
536
 73
527
 74
527
 0
VERTEX
 8
CILINDRO_2
 10
0
 20
0
 30
0
 70
128
 71
529
 72
519
 73
520
 74
520
 0
VERTEX
 8
CILINDRO_2
 10
0
 20
0
 30
0
 70
128
 71
532
 72
524
 73
523
 74
523
 0
VERTEX
 8
CILINDRO_2
 10
0
 20
0
 30
0
 70
128
 71
532
 72
522
 73
531
 74
531
 0
VERTEX
 8
CILINDRO_2
 10
0
 20
0
 30
0
 70
128
 71
527
 72
535
 73
526
 74
526
 0
VERTEX
 8
CILINDRO_2
 10
0
 20
0
 30
0
 70
128
 71
533
 72
520
 73
524
 74
524
 0
VERTEX
 8
CILINDRO_2
 10
0
 20
0
 30
0
 70
128
 71
535
 72
525
 73
526
 74
526
 0
VERTEX
 8
CILINDRO_2
 10
0
 20
0
 30
0
 70
128
 71
519
 72
530
 73
521
 74
521
 0
VERTEX
 8
CILINDRO_2
 10
0
 20
0
 30
0
 70
128
 71
547
 72
539
 73
540
 74
540
 0
VERTEX
 8
CILINDRO_2
 10
0
 20
0
 30
0
 70
128
 71
547
 72
540
 73
541
 74
541
 0
VERTEX
 8
CILINDRO_2
 10
0
 20
0
 30
0
 70
128
 71
515
 72
553
 73
552
 74
514
 0
VERTEX
 8
CILINDRO_2
 10
0
 20
0
 30
0
 70
128
 71
514
 72
552
 73
543
 74
487
 0
VERTEX
 8
CILINDRO_2
 10
0
 20
0
 30
0
 70
128
 71
487
 72
543
 73
544
 74
488
 0
VERTEX
 8
CILINDRO_2
 10
0
 20
0
 30
0
 70
128
 71
488
 72
544
 73
545
 74
489
 0
VERTEX
 8
CILINDRO_2
 10
0
 20
0
 30
0
 70
128
 71
489
 72
545
 73
541
 74
477
 0
VERTEX
 8
CILINDRO_2
 10
0
 20
0
 30
0
 70
128
 71
477
 72
541
 73
540
 74
476
 0
VERTEX
 8
CILINDRO_2
 10
0
 20
0
 30
0
 70
128
 71
476
 72
540
 73
539
 74
475
 0
VERTEX
 8
CILINDRO_2
 10
0
 20
0
 30
0
 70
128
 71
475
 72
539
 73
537
 74
471
 0
VERTEX
 8
CILINDRO_2
 10
0
 20
0
 30
0
 70
128
 71
471
 72
537
 73
538
 74
472
 0
VERTEX
 8
CILINDRO_2
 10
0
 20
0
 30
0
 70
128
 71
472
 72
538
 73
542
 74
478
 0
VERTEX
 8
CILINDRO_2
 10
0
 20
0
 30
0
 70
128
 71
478
 72
542
 73
547
 74
500
 0
VERTEX
 8
CILINDRO_2
 10
0
 20
0
 30
0
 70
128
 71
500
 72
547
 73
546
 74
499
 0
VERTEX
 8
CILINDRO_2
 10
0
 20
0
 30
0
 70
128
 71
499
 72
546
 73
551
 74
513
 0
VERTEX
 8
CILINDRO_2
 10
0
 20
0
 30
0
 70
128
 71
513
 72
551
 73
550
 74
505
 0
VERTEX
 8
CILINDRO_2
 10
0
 20
0
 30
0
 70
128
 71
505
 72
550
 73
548
 74
501
 0
VERTEX
 8
CILINDRO_2
 10
0
 20
0
 30
0
 70
128
 71
501
 72
548
 73
549
 74
502
 0
VERTEX
 8
CILINDRO_2
 10
0
 20
0
 30
0
 70
128
 71
502
 72
549
 73
554
 74
516
 0
VERTEX
 8
CILINDRO_2
 10
0
 20
0
 30
0
 70
128
 71
516
 72
554
 73
553
 74
515
 0
VERTEX
 8
CILINDRO_2
 10
0
 20
0
 30
0
 70
128
 71
545
 72
543
 73
552
 74
552
 0
VERTEX
 8
CILINDRO_2
 10
0
 20
0
 30
0
 70
128
 71
541
 72
549
 73
547
 74
547
 0
VERTEX
 8
CILINDRO_2
 10
0
 20
0
 30
0
 70
128
 71
547
 72
551
 73
546
 74
546
 0
VERTEX
 8
CILINDRO_2
 10
0
 20
0
 30
0
 70
128
 71
547
 72
537
 73
539
 74
539
 0
VERTEX
 8
CILINDRO_2
 10
0
 20
0
 30
0
 70
128
 71
554
 72
545
 73
552
 74
552
 0
VERTEX
 8
CILINDRO_2
 10
0
 20
0
 30
0
 70
128
 71
547
 72
548
 73
550
 74
550
 0
SEQEND
 0
POLYLINE
 8
GRIGLIA2
 66
1
 10
0.0
 20
0.0
 30
0.0
 70
64
 71
298
 72
422
 0
VERTEX
 8
GRIGLIA2
 10
0.0207
 20
-10.2913
 30
1.8192
 70
192
 0
VERTEX
 8
GRIGLIA2
 10
0.0207
 20
-10.241
 30
2.7179
 70
192
 0
VERTEX
 8
GRIGLIA2
 10
32.4982
 20
-10.2913
 30
1.8192
 70
192
 0
VERTEX
 8
GRIGLIA2
 10
32.4982
 20
-10.241
 30
2.7179
 70
192
 0
VERTEX
 8
GRIGLIA2
 10
32.4982
 20
17.55
 30
0.2626
 70
192
 0
VERTEX
 8
GRIGLIA2
 10
32.4982
 20
17.6003
 30
1.1613
 70
192
 0
VERTEX
 8
GRIGLIA2
 10
0.0207
 20
17.55
 30
0.2626
 70
192
 0
VERTEX
 8
GRIGLIA2
 10
0.0207
 20
17.6003
 30
1.1613
 70
192
 0
VERTEX
 8
GRIGLIA2
 10
5.9233
 20
-10.241
 30
2.7179
 70
192
 0
VERTEX
 8
GRIGLIA2
 10
5.9233
 20
-10.2913
 30
1.8192
 70
192
 0
VERTEX
 8
GRIGLIA2
 10
5.9233
 20
17.6003
 30
1.1613
 70
192
 0
VERTEX
 8
GRIGLIA2
 10
5.9233
 20
17.55
 30
0.2626
 70
192
 0
VERTEX
 8
GRIGLIA2
 10
6.61
 20
17.6003
 30
1.1613
 70
192
 0
VERTEX
 8
GRIGLIA2
 10
6.61
 20
17.55
 30
0.2626
 70
192
 0
VERTEX
 8
GRIGLIA2
 10
6.61
 20
-10.241
 30
2.7179
 70
192
 0
VERTEX
 8
GRIGLIA2
 10
6.61
 20
-10.2913
 30
1.8192
 70
192
 0
VERTEX
 8
GRIGLIA2
 10
32.4982
 20
-9.2392
 30
2.6619
 70
192
 0
VERTEX
 8
GRIGLIA2
 10
32.4982
 20
-9.2895
 30
1.7632
 70
192
 0
VERTEX
 8
GRIGLIA2
 10
0.0207
 20
-9.2392
 30
2.6619
 70
192
 0
VERTEX
 8
GRIGLIA2
 10
0.0207
 20
-9.2895
 30
1.7632
 70
192
 0
VERTEX
 8
GRIGLIA2
 10
25.9236
 20
16.5866
 30
1.016
 70
192
 0
VERTEX
 8
GRIGLIA2
 10
5.9233
 20
-9.2895
 30
1.7632
 70
192
 0
VERTEX
 8
GRIGLIA2
 10
25.9236
 20
-9.2505
 30
2.4606
 70
192
 0
VERTEX
 8
GRIGLIA2
 10
6.61
 20
-9.2895
 30
1.7632
 70
192
 0
VERTEX
 8
GRIGLIA2
 10
0.0207
 20
16.5979
 30
1.2174
 70
192
 0
VERTEX
 8
GRIGLIA2
 10
0.0207
 20
16.5477
 30
0.3187
 70
192
 0
VERTEX
 8
GRIGLIA2
 10
5.9233
 20
16.5477
 30
0.3187
 70
192
 0
VERTEX
 8
GRIGLIA2
 10
26.6114
 20
16.5866
 30
1.016
 70
192
 0
VERTEX
 8
GRIGLIA2
 10
26.6114
 20
-9.2505
 30
2.4606
 70
192
 0
VERTEX
 8
GRIGLIA2
 10
32.4982
 20
16.5979
 30
1.2174
 70
192
 0
VERTEX
 8
GRIGLIA2
 10
32.4982
 20
16.5477
 30
0.3187
 70
192
 0
VERTEX
 8
GRIGLIA2
 10
6.61
 20
16.5477
 30
0.3187
 70
192
 0
VERTEX
 8
GRIGLIA2
 10
5.9233
 20
-9.2505
 30
2.4606
 70
192
 0
VERTEX
 8
GRIGLIA2
 10
6.6101
 20
-9.2505
 30
2.4606
 70
192
 0
VERTEX
 8
GRIGLIA2
 10
5.9233
 20
16.5866
 30
1.0161
 70
192
 0
VERTEX
 8
GRIGLIA2
 10
6.6101
 20
16.5866
 30
1.0161
 70
192
 0
VERTEX
 8
GRIGLIA2
 10
8.4239
 20
17.6003
 30
1.1613
 70
192
 0
VERTEX
 8
GRIGLIA2
 10
8.4239
 20
17.55
 30
0.2626
 70
192
 0
VERTEX
 8
GRIGLIA2
 10
8.4239
 20
-10.241
 30
2.7179
 70
192
 0
VERTEX
 8
GRIGLIA2
 10
8.4239
 20
-10.2913
 30
1.8192
 70
192
 0
VERTEX
 8
GRIGLIA2
 10
8.4239
 20
-9.2895
 30
1.7632
 70
192
 0
VERTEX
 8
GRIGLIA2
 10
8.4239
 20
16.5477
 30
0.3187
 70
192
 0
VERTEX
 8
GRIGLIA2
 10
9.1109
 20
17.6003
 30
1.1613
 70
192
 0
VERTEX
 8
GRIGLIA2
 10
9.1109
 20
17.55
 30
0.2626
 70
192
 0
VERTEX
 8
GRIGLIA2
 10
9.1109
 20
16.5477
 30
0.3187
 70
192
 0
VERTEX
 8
GRIGLIA2
 10
9.1109
 20
-9.2895
 30
1.7632
 70
192
 0
VERTEX
 8
GRIGLIA2
 10
9.1109
 20
-10.241
 30
2.7179
 70
192
 0
VERTEX
 8
GRIGLIA2
 10
9.1109
 20
-10.2913
 30
1.8192
 70
192
 0
VERTEX
 8
GRIGLIA2
 10
10.9233
 20
17.6003
 30
1.1613
 70
192
 0
VERTEX
 8
GRIGLIA2
 10
10.9233
 20
17.55
 30
0.2626
 70
192
 0
VERTEX
 8
GRIGLIA2
 10
10.9233
 20
16.5477
 30
0.3187
 70
192
 0
VERTEX
 8
GRIGLIA2
 10
10.9233
 20
-9.2895
 30
1.7632
 70
192
 0
VERTEX
 8
GRIGLIA2
 10
10.9233
 20
-10.241
 30
2.7179
 70
192
 0
VERTEX
 8
GRIGLIA2
 10
10.9233
 20
-10.2913
 30
1.8192
 70
192
 0
VERTEX
 8
GRIGLIA2
 10
11.6111
 20
17.6003
 30
1.1613
 70
192
 0
VERTEX
 8
GRIGLIA2
 10
11.6111
 20
17.55
 30
0.2626
 70
192
 0
VERTEX
 8
GRIGLIA2
 10
11.6111
 20
16.5477
 30
0.3187
 70
192
 0
VERTEX
 8
GRIGLIA2
 10
11.6111
 20
-9.2895
 30
1.7632
 70
192
 0
VERTEX
 8
GRIGLIA2
 10
11.6111
 20
-10.241
 30
2.7179
 70
192
 0
VERTEX
 8
GRIGLIA2
 10
11.6111
 20
-10.2913
 30
1.8192
 70
192
 0
VERTEX
 8
GRIGLIA2
 10
13.4234
 20
17.6003
 30
1.1613
 70
192
 0
VERTEX
 8
GRIGLIA2
 10
13.4234
 20
17.55
 30
0.2626
 70
192
 0
VERTEX
 8
GRIGLIA2
 10
13.4234
 20
16.5477
 30
0.3187
 70
192
 0
VERTEX
 8
GRIGLIA2
 10
13.4234
 20
-9.2895
 30
1.7632
 70
192
 0
VERTEX
 8
GRIGLIA2
 10
13.4234
 20
-10.241
 30
2.7179
 70
192
 0
VERTEX
 8
GRIGLIA2
 10
13.4234
 20
-10.2913
 30
1.8192
 70
192
 0
VERTEX
 8
GRIGLIA2
 10
14.1116
 20
17.6003
 30
1.1613
 70
192
 0
VERTEX
 8
GRIGLIA2
 10
14.1116
 20
17.55
 30
0.2626
 70
192
 0
VERTEX
 8
GRIGLIA2
 10
14.1116
 20
16.5477
 30
0.3187
 70
192
 0
VERTEX
 8
GRIGLIA2
 10
14.1116
 20
-9.2895
 30
1.7632
 70
192
 0
VERTEX
 8
GRIGLIA2
 10
14.1116
 20
-10.241
 30
2.7179
 70
192
 0
VERTEX
 8
GRIGLIA2
 10
14.1116
 20
-10.2913
 30
1.8192
 70
192
 0
VERTEX
 8
GRIGLIA2
 10
15.9231
 20
17.6003
 30
1.1613
 70
192
 0
VERTEX
 8
GRIGLIA2
 10
15.9231
 20
17.55
 30
0.2626
 70
192
 0
VERTEX
 8
GRIGLIA2
 10
15.9231
 20
16.5477
 30
0.3187
 70
192
 0
VERTEX
 8
GRIGLIA2
 10
15.9231
 20
-9.2895
 30
1.7632
 70
192
 0
VERTEX
 8
GRIGLIA2
 10
15.9231
 20
-10.241
 30
2.7179
 70
192
 0
VERTEX
 8
GRIGLIA2
 10
15.9231
 20
-10.2913
 30
1.8192
 70
192
 0
VERTEX
 8
GRIGLIA2
 10
16.6109
 20
17.6003
 30
1.1613
 70
192
 0
VERTEX
 8
GRIGLIA2
 10
16.6109
 20
17.55
 30
0.2626
 70
192
 0
VERTEX
 8
GRIGLIA2
 10
16.6109
 20
-10.241
 30
2.7179
 70
192
 0
VERTEX
 8
GRIGLIA2
 10
16.6109
 20
-10.2913
 30
1.8192
 70
192
 0
VERTEX
 8
GRIGLIA2
 10
16.6109
 20
16.5477
 30
0.3187
 70
192
 0
VERTEX
 8
GRIGLIA2
 10
16.6109
 20
-9.2895
 30
1.7632
 70
192
 0
VERTEX
 8
GRIGLIA2
 10
18.4232
 20
17.6003
 30
1.1613
 70
192
 0
VERTEX
 8
GRIGLIA2
 10
18.4232
 20
17.55
 30
0.2626
 70
192
 0
VERTEX
 8
GRIGLIA2
 10
18.4232
 20
16.5477
 30
0.3187
 70
192
 0
VERTEX
 8
GRIGLIA2
 10
18.4232
 20
-9.2895
 30
1.7632
 70
192
 0
VERTEX
 8
GRIGLIA2
 10
18.4232
 20
-10.2913
 30
1.8192
 70
192
 0
VERTEX
 8
GRIGLIA2
 10
18.4232
 20
-10.241
 30
2.7179
 70
192
 0
VERTEX
 8
GRIGLIA2
 10
19.1114
 20
17.6003
 30
1.1613
 70
192
 0
VERTEX
 8
GRIGLIA2
 10
19.1114
 20
17.55
 30
0.2626
 70
192
 0
VERTEX
 8
GRIGLIA2
 10
19.1114
 20
16.5477
 30
0.3187
 70
192
 0
VERTEX
 8
GRIGLIA2
 10
19.1114
 20
-9.2895
 30
1.7632
 70
192
 0
VERTEX
 8
GRIGLIA2
 10
19.1114
 20
-10.2913
 30
1.8192
 70
192
 0
VERTEX
 8
GRIGLIA2
 10
19.1114
 20
-10.241
 30
2.7179
 70
192
 0
VERTEX
 8
GRIGLIA2
 10
20.9233
 20
17.6003
 30
1.1613
 70
192
 0
VERTEX
 8
GRIGLIA2
 10
20.9233
 20
17.55
 30
0.2626
 70
192
 0
VERTEX
 8
GRIGLIA2
 10
20.9233
 20
16.5477
 30
0.3187
 70
192
 0
VERTEX
 8
GRIGLIA2
 10
20.9233
 20
-9.2895
 30
1.7632
 70
192
 0
VERTEX
 8
GRIGLIA2
 10
20.9233
 20
-10.2913
 30
1.8192
 70
192
 0
VERTEX
 8
GRIGLIA2
 10
20.9233
 20
-10.241
 30
2.7179
 70
192
 0
VERTEX
 8
GRIGLIA2
 10
21.6111
 20
17.6003
 30
1.1613
 70
192
 0
VERTEX
 8
GRIGLIA2
 10
21.6111
 20
17.55
 30
0.2626
 70
192
 0
VERTEX
 8
GRIGLIA2
 10
21.6111
 20
16.5477
 30
0.3187
 70
192
 0
VERTEX
 8
GRIGLIA2
 10
21.6111
 20
-9.2895
 30
1.7632
 70
192
 0
VERTEX
 8
GRIGLIA2
 10
21.6111
 20
-10.2913
 30
1.8192
 70
192
 0
VERTEX
 8
GRIGLIA2
 10
21.6111
 20
-10.241
 30
2.7179
 70
192
 0
VERTEX
 8
GRIGLIA2
 10
23.4281
 20
17.6003
 30
1.1613
 70
192
 0
VERTEX
 8
GRIGLIA2
 10
23.4281
 20
17.55
 30
0.2626
 70
192
 0
VERTEX
 8
GRIGLIA2
 10
23.4281
 20
16.5477
 30
0.3187
 70
192
 0
VERTEX
 8
GRIGLIA2
 10
23.4281
 20
-9.2895
 30
1.7632
 70
192
 0
VERTEX
 8
GRIGLIA2
 10
23.4281
 20
-10.2913
 30
1.8192
 70
192
 0
VERTEX
 8
GRIGLIA2
 10
23.4281
 20
-10.241
 30
2.7179
 70
192
 0
VERTEX
 8
GRIGLIA2
 10
24.1101
 20
17.6003
 30
1.1613
 70
192
 0
VERTEX
 8
GRIGLIA2
 10
24.1101
 20
17.55
 30
0.2626
 70
192
 0
VERTEX
 8
GRIGLIA2
 10
24.1101
 20
16.5477
 30
0.3187
 70
192
 0
VERTEX
 8
GRIGLIA2
 10
24.1101
 20
-9.2895
 30
1.7632
 70
192
 0
VERTEX
 8
GRIGLIA2
 10
24.1101
 20
-10.2913
 30
1.8192
 70
192
 0
VERTEX
 8
GRIGLIA2
 10
24.1101
 20
-10.241
 30
2.7179
 70
192
 0
VERTEX
 8
GRIGLIA2
 10
25.9236
 20
17.6003
 30
1.1613
 70
192
 0
VERTEX
 8
GRIGLIA2
 10
25.9236
 20
17.55
 30
0.2626
 70
192
 0
VERTEX
 8
GRIGLIA2
 10
25.9236
 20
16.5477
 30
0.3187
 70
192
 0
VERTEX
 8
GRIGLIA2
 10
25.9236
 20
-9.2895
 30
1.7632
 70
192
 0
VERTEX
 8
GRIGLIA2
 10
25.9236
 20
-10.2913
 30
1.8192
 70
192
 0
VERTEX
 8
GRIGLIA2
 10
25.9236
 20
-10.241
 30
2.7179
 70
192
 0
VERTEX
 8
GRIGLIA2
 10
26.6114
 20
17.6003
 30
1.1613
 70
192
 0
VERTEX
 8
GRIGLIA2
 10
26.6114
 20
17.55
 30
0.2626
 70
192
 0
VERTEX
 8
GRIGLIA2
 10
26.6114
 20
16.5477
 30
0.3187
 70
192
 0
VERTEX
 8
GRIGLIA2
 10
26.6114
 20
-9.2895
 30
1.7632
 70
192
 0
VERTEX
 8
GRIGLIA2
 10
26.6114
 20
-10.2913
 30
1.8192
 70
192
 0
VERTEX
 8
GRIGLIA2
 10
26.6114
 20
-10.241
 30
2.7179
 70
192
 0
VERTEX
 8
GRIGLIA2
 10
13.4234
 20
-4.1569
 30
1.4762
 70
192
 0
VERTEX
 8
GRIGLIA2
 10
14.1116
 20
-4.1569
 30
1.4762
 70
192
 0
VERTEX
 8
GRIGLIA2
 10
15.9231
 20
-4.1569
 30
1.4762
 70
192
 0
VERTEX
 8
GRIGLIA2
 10
16.6109
 20
-4.1569
 30
1.4762
 70
192
 0
VERTEX
 8
GRIGLIA2
 10
18.4232
 20
-4.1569
 30
1.4762
 70
192
 0
VERTEX
 8
GRIGLIA2
 10
19.1114
 20
-4.1569
 30
1.4762
 70
192
 0
VERTEX
 8
GRIGLIA2
 10
8.4239
 20
-9.2505
 30
2.4606
 70
192
 0
VERTEX
 8
GRIGLIA2
 10
8.4239
 20
16.5866
 30
1.016
 70
192
 0
VERTEX
 8
GRIGLIA2
 10
9.1109
 20
16.5866
 30
1.016
 70
192
 0
VERTEX
 8
GRIGLIA2
 10
9.1109
 20
-9.2505
 30
2.4606
 70
192
 0
VERTEX
 8
GRIGLIA2
 10
10.9233
 20
16.5866
 30
1.016
 70
192
 0
VERTEX
 8
GRIGLIA2
 10
10.9233
 20
-9.2505
 30
2.4606
 70
192
 0
VERTEX
 8
GRIGLIA2
 10
11.6111
 20
16.5866
 30
1.016
 70
192
 0
VERTEX
 8
GRIGLIA2
 10
11.6111
 20
-9.2505
 30
2.4606
 70
192
 0
VERTEX
 8
GRIGLIA2
 10
13.4234
 20
16.5866
 30
1.016
 70
192
 0
VERTEX
 8
GRIGLIA2
 10
14.1117
 20
16.5866
 30
1.016
 70
192
 0
VERTEX
 8
GRIGLIA2
 10
13.4234
 20
-4.1179
 30
2.1736
 70
192
 0
VERTEX
 8
GRIGLIA2
 10
14.1117
 20
-4.1179
 30
2.1736
 70
192
 0
VERTEX
 8
GRIGLIA2
 10
15.9231
 20
16.5866
 30
1.016
 70
192
 0
VERTEX
 8
GRIGLIA2
 10
16.6109
 20
16.5866
 30
1.016
 70
192
 0
VERTEX
 8
GRIGLIA2
 10
15.9231
 20
-4.1179
 30
2.1736
 70
192
 0
VERTEX
 8
GRIGLIA2
 10
16.6109
 20
-4.1179
 30
2.1736
 70
192
 0
VERTEX
 8
GRIGLIA2
 10
18.4233
 20
16.5866
 30
1.016
 70
192
 0
VERTEX
 8
GRIGLIA2
 10
19.1114
 20
16.5866
 30
1.016
 70
192
 0
VERTEX
 8
GRIGLIA2
 10
18.4233
 20
-4.1179
 30
2.1736
 70
192
 0
VERTEX
 8
GRIGLIA2
 10
19.1114
 20
-4.1179
 30
2.1736
 70
192
 0
VERTEX
 8
GRIGLIA2
 10
20.9233
 20
16.5866
 30
1.016
 70
192
 0
VERTEX
 8
GRIGLIA2
 10
20.9233
 20
-9.2505
 30
2.4606
 70
192
 0
VERTEX
 8
GRIGLIA2
 10
21.6111
 20
16.5866
 30
1.016
 70
192
 0
VERTEX
 8
GRIGLIA2
 10
21.6111
 20
-9.2505
 30
2.4606
 70
192
 0
VERTEX
 8
GRIGLIA2
 10
23.4281
 20
16.5866
 30
1.016
 70
192
 0
VERTEX
 8
GRIGLIA2
 10
23.4281
 20
-9.2505
 30
2.4606
 70
192
 0
VERTEX
 8
GRIGLIA2
 10
24.1101
 20
16.5866
 30
1.016
 70
192
 0
VERTEX
 8
GRIGLIA2
 10
24.1101
 20
-9.2505
 30
2.4606
 70
192
 0
VERTEX
 8
GRIGLIA2
 10
5.3074
 20
-10.241
 30
2.7179
 70
192
 0
VERTEX
 8
GRIGLIA2
 10
32.4982
 20
-9.7401
 30
2.6899
 70
192
 0
VERTEX
 8
GRIGLIA2
 10
27.2269
 20
17.6003
 30
1.1613
 70
192
 0
VERTEX
 8
GRIGLIA2
 10
0.0207
 20
17.0991
 30
1.1893
 70
192
 0
VERTEX
 8
GRIGLIA2
 10
6.2667
 20
-10.241
 30
2.7179
 70
192
 0
VERTEX
 8
GRIGLIA2
 10
5.3074
 20
17.6003
 30
1.1613
 70
192
 0
VERTEX
 8
GRIGLIA2
 10
6.2667
 20
17.6003
 30
1.1613
 70
192
 0
VERTEX
 8
GRIGLIA2
 10
7.517
 20
-10.241
 30
2.7179
 70
192
 0
VERTEX
 8
GRIGLIA2
 10
32.4982
 20
2.612
 30
1.9993
 70
192
 0
VERTEX
 8
GRIGLIA2
 10
0.0207
 20
-9.7401
 30
2.6899
 70
192
 0
VERTEX
 8
GRIGLIA2
 10
0.0207
 20
2.612
 30
1.9993
 70
192
 0
VERTEX
 8
GRIGLIA2
 10
32.4982
 20
17.0991
 30
1.1893
 70
192
 0
VERTEX
 8
GRIGLIA2
 10
7.517
 20
17.6003
 30
1.1613
 70
192
 0
VERTEX
 8
GRIGLIA2
 10
8.7674
 20
-10.241
 30
2.7179
 70
192
 0
VERTEX
 8
GRIGLIA2
 10
8.7674
 20
17.6003
 30
1.1613
 70
192
 0
VERTEX
 8
GRIGLIA2
 10
10.0171
 20
-10.241
 30
2.7179
 70
192
 0
VERTEX
 8
GRIGLIA2
 10
10.0171
 20
17.6003
 30
1.1613
 70
192
 0
VERTEX
 8
GRIGLIA2
 10
11.2672
 20
-10.241
 30
2.7179
 70
192
 0
VERTEX
 8
GRIGLIA2
 10
11.2672
 20
17.6003
 30
1.1613
 70
192
 0
VERTEX
 8
GRIGLIA2
 10
12.5173
 20
-10.241
 30
2.7179
 70
192
 0
VERTEX
 8
GRIGLIA2
 10
12.5173
 20
17.6003
 30
1.1613
 70
192
 0
VERTEX
 8
GRIGLIA2
 10
13.7675
 20
-10.241
 30
2.7179
 70
192
 0
VERTEX
 8
GRIGLIA2
 10
13.7675
 20
17.6003
 30
1.1613
 70
192
 0
VERTEX
 8
GRIGLIA2
 10
15.0174
 20
-10.241
 30
2.7179
 70
192
 0
VERTEX
 8
GRIGLIA2
 10
15.0174
 20
17.6003
 30
1.1613
 70
192
 0
VERTEX
 8
GRIGLIA2
 10
16.267
 20
-10.241
 30
2.7179
 70
192
 0
VERTEX
 8
GRIGLIA2
 10
16.267
 20
17.6003
 30
1.1613
 70
192
 0
VERTEX
 8
GRIGLIA2
 10
17.5171
 20
-10.241
 30
2.7179
 70
192
 0
VERTEX
 8
GRIGLIA2
 10
17.5171
 20
17.6003
 30
1.1613
 70
192
 0
VERTEX
 8
GRIGLIA2
 10
18.7673
 20
-10.241
 30
2.7179
 70
192
 0
VERTEX
 8
GRIGLIA2
 10
18.7673
 20
17.6003
 30
1.1613
 70
192
 0
VERTEX
 8
GRIGLIA2
 10
20.0173
 20
-10.241
 30
2.7179
 70
192
 0
VERTEX
 8
GRIGLIA2
 10
20.0173
 20
17.6003
 30
1.1613
 70
192
 0
VERTEX
 8
GRIGLIA2
 10
21.2672
 20
-10.241
 30
2.7179
 70
192
 0
VERTEX
 8
GRIGLIA2
 10
21.2672
 20
17.6003
 30
1.1613
 70
192
 0
VERTEX
 8
GRIGLIA2
 10
22.5196
 20
-10.241
 30
2.7179
 70
192
 0
VERTEX
 8
GRIGLIA2
 10
22.5196
 20
17.6003
 30
1.1613
 70
192
 0
VERTEX
 8
GRIGLIA2
 10
23.7691
 20
-10.241
 30
2.7179
 70
192
 0
VERTEX
 8
GRIGLIA2
 10
23.7691
 20
17.6003
 30
1.1613
 70
192
 0
VERTEX
 8
GRIGLIA2
 10
25.0169
 20
-10.241
 30
2.7179
 70
192
 0
VERTEX
 8
GRIGLIA2
 10
25.0169
 20
17.6003
 30
1.1613
 70
192
 0
VERTEX
 8
GRIGLIA2
 10
26.2675
 20
-10.241
 30
2.7179
 70
192
 0
VERTEX
 8
GRIGLIA2
 10
26.2675
 20
17.6003
 30
1.1613
 70
192
 0
VERTEX
 8
GRIGLIA2
 10
27.2269
 20
-10.241
 30
2.7179
 70
192
 0
VERTEX
 8
GRIGLIA2
 10
17.8167
 20
-5.1508
 30
1.5318
 70
192
 0
VERTEX
 8
GRIGLIA2
 10
14.7164
 20
-5.1509
 30
1.5318
 70
192
 0
VERTEX
 8
GRIGLIA2
 10
14.7164
 20
-9.1636
 30
1.7562
 70
192
 0
VERTEX
 8
GRIGLIA2
 10
17.8167
 20
-9.1636
 30
1.7562
 70
192
 0
VERTEX
 8
GRIGLIA2
 10
17.8167
 20
-5.157
 30
1.4222
 70
192
 0
VERTEX
 8
GRIGLIA2
 10
14.7164
 20
-5.157
 30
1.4222
 70
192
 0
VERTEX
 8
GRIGLIA2
 10
14.7164
 20
-9.1697
 30
1.6466
 70
192
 0
VERTEX
 8
GRIGLIA2
 10
17.8167
 20
-9.1697
 30
1.6466
 70
192
 0
VERTEX
 8
GRIGLIA2
 10
17.2762
 20
-5.7059
 30
1.4529
 70
192
 0
VERTEX
 8
GRIGLIA2
 10
15.2571
 20
-5.7059
 30
1.4529
 70
192
 0
VERTEX
 8
GRIGLIA2
 10
15.2571
 20
-6.6057
 30
1.5032
 70
192
 0
VERTEX
 8
GRIGLIA2
 10
17.2762
 20
-6.6057
 30
1.5032
 70
192
 0
VERTEX
 8
GRIGLIA2
 10
17.0762
 20
-5.7633
 30
1.5585
 70
192
 0
VERTEX
 8
GRIGLIA2
 10
15.4571
 20
-5.7634
 30
1.5585
 70
192
 0
VERTEX
 8
GRIGLIA2
 10
15.4571
 20
-6.5999
 30
1.6053
 70
192
 0
VERTEX
 8
GRIGLIA2
 10
17.0762
 20
-6.5999
 30
1.6053
 70
192
 0
VERTEX
 8
GRIGLIA2
 10
28.4226
 20
-10.2517
 30
2.5275
 70
192
 0
VERTEX
 8
GRIGLIA2
 10
28.4226
 20
-10.2913
 30
1.8192
 70
192
 0
VERTEX
 8
GRIGLIA2
 10
28.4226
 20
17.6003
 30
1.1613
 70
192
 0
VERTEX
 8
GRIGLIA2
 10
28.4226
 20
17.5896
 30
0.971
 70
192
 0
VERTEX
 8
GRIGLIA2
 10
28.4226
 20
-9.2895
 30
1.7632
 70
192
 0
VERTEX
 8
GRIGLIA2
 10
28.4226
 20
17.55
 30
0.2626
 70
192
 0
VERTEX
 8
GRIGLIA2
 10
28.4226
 20
-10.241
 30
2.7179
 70
192
 0
VERTEX
 8
GRIGLIA2
 10
28.4226
 20
16.5477
 30
0.3187
 70
192
 0
VERTEX
 8
GRIGLIA2
 10
29.1109
 20
17.55
 30
0.2626
 70
192
 0
VERTEX
 8
GRIGLIA2
 10
29.1109
 20
17.5741
 30
0.6927
 70
192
 0
VERTEX
 8
GRIGLIA2
 10
29.1109
 20
16.5477
 30
0.3187
 70
192
 0
VERTEX
 8
GRIGLIA2
 10
29.1109
 20
-9.2895
 30
1.7632
 70
192
 0
VERTEX
 8
GRIGLIA2
 10
29.1109
 20
17.6003
 30
1.1613
 70
192
 0
VERTEX
 8
GRIGLIA2
 10
29.1109
 20
-10.241
 30
2.7179
 70
192
 0
VERTEX
 8
GRIGLIA2
 10
29.1109
 20
-10.2672
 30
2.2492
 70
192
 0
VERTEX
 8
GRIGLIA2
 10
29.1109
 20
-10.2913
 30
1.8192
 70
192
 0
VERTEX
 8
GRIGLIA2
 10
3.4226
 20
-10.241
 30
2.7179
 70
192
 0
VERTEX
 8
GRIGLIA2
 10
3.4226
 20
-10.269
 30
2.2167
 70
192
 0
VERTEX
 8
GRIGLIA2
 10
3.4226
 20
17.6003
 30
1.1613
 70
192
 0
VERTEX
 8
GRIGLIA2
 10
3.4226
 20
-10.2913
 30
1.8192
 70
192
 0
VERTEX
 8
GRIGLIA2
 10
3.4226
 20
16.5477
 30
0.3187
 70
192
 0
VERTEX
 8
GRIGLIA2
 10
3.4226
 20
17.55
 30
0.2626
 70
192
 0
VERTEX
 8
GRIGLIA2
 10
3.4226
 20
17.5723
 30
0.6601
 70
192
 0
VERTEX
 8
GRIGLIA2
 10
3.4226
 20
-9.2895
 30
1.7632
 70
192
 0
VERTEX
 8
GRIGLIA2
 10
4.1108
 20
17.6003
 30
1.1613
 70
192
 0
VERTEX
 8
GRIGLIA2
 10
4.1108
 20
-10.241
 30
2.7179
 70
192
 0
VERTEX
 8
GRIGLIA2
 10
4.1108
 20
-10.2603
 30
2.3736
 70
192
 0
VERTEX
 8
GRIGLIA2
 10
4.1108
 20
17.581
 30
0.8171
 70
192
 0
VERTEX
 8
GRIGLIA2
 10
4.1108
 20
-10.2913
 30
1.8192
 70
192
 0
VERTEX
 8
GRIGLIA2
 10
4.1108
 20
16.5477
 30
0.3187
 70
192
 0
VERTEX
 8
GRIGLIA2
 10
4.1108
 20
17.55
 30
0.2626
 70
192
 0
VERTEX
 8
GRIGLIA2
 10
4.1108
 20
-9.2895
 30
1.7632
 70
192
 0
VERTEX
 8
GRIGLIA2
 10
3.4229
 20
16.5869
 30
1.0156
 70
192
 0
VERTEX
 8
GRIGLIA2
 10
3.4229
 20
-9.2506
 30
2.4602
 70
192
 0
VERTEX
 8
GRIGLIA2
 10
4.1109
 20
16.5869
 30
1.0156
 70
192
 0
VERTEX
 8
GRIGLIA2
 10
4.1109
 20
-9.2506
 30
2.4602
 70
192
 0
VERTEX
 8
GRIGLIA2
 10
28.4229
 20
-9.2506
 30
2.4602
 70
192
 0
VERTEX
 8
GRIGLIA2
 10
28.4229
 20
16.5869
 30
1.0156
 70
192
 0
VERTEX
 8
GRIGLIA2
 10
29.1109
 20
16.5869
 30
1.0156
 70
192
 0
VERTEX
 8
GRIGLIA2
 10
29.1109
 20
-9.2506
 30
2.4602
 70
192
 0
VERTEX
 8
GRIGLIA2
 10
30.9165
 20
-10.241
 30
2.7179
 70
192
 0
VERTEX
 8
GRIGLIA2
 10
30.9165
 20
17.6003
 30
1.1613
 70
192
 0
VERTEX
 8
GRIGLIA2
 10
30.9165
 20
-10.2913
 30
1.8192
 70
192
 0
VERTEX
 8
GRIGLIA2
 10
31.6045
 20
-10.241
 30
2.7179
 70
192
 0
VERTEX
 8
GRIGLIA2
 10
31.6045
 20
-10.2913
 30
1.8192
 70
192
 0
VERTEX
 8
GRIGLIA2
 10
31.6045
 20
17.6003
 30
1.1613
 70
192
 0
VERTEX
 8
GRIGLIA2
 10
1.6053
 20
17.6003
 30
1.1613
 70
192
 0
VERTEX
 8
GRIGLIA2
 10
1.6053
 20
-10.241
 30
2.7179
 70
192
 0
VERTEX
 8
GRIGLIA2
 10
1.6053
 20
-10.2913
 30
1.8192
 70
192
 0
VERTEX
 8
GRIGLIA2
 10
0.9172
 20
-10.2913
 30
1.8192
 70
192
 0
VERTEX
 8
GRIGLIA2
 10
0.9172
 20
-10.241
 30
2.7179
 70
192
 0
VERTEX
 8
GRIGLIA2
 10
0.9172
 20
17.6003
 30
1.1613
 70
192
 0
VERTEX
 8
GRIGLIA2
 10
0.9172
 20
16.5477
 30
0.3187
 70
192
 0
VERTEX
 8
GRIGLIA2
 10
0.9172
 20
17.55
 30
0.2626
 70
192
 0
VERTEX
 8
GRIGLIA2
 10
0.9172
 20
-9.2895
 30
1.7632
 70
192
 0
VERTEX
 8
GRIGLIA2
 10
1.6053
 20
16.5477
 30
0.3187
 70
192
 0
VERTEX
 8
GRIGLIA2
 10
1.6053
 20
17.55
 30
0.2626
 70
192
 0
VERTEX
 8
GRIGLIA2
 10
1.6053
 20
-9.2895
 30
1.7632
 70
192
 0
VERTEX
 8
GRIGLIA2
 10
30.9165
 20
16.5477
 30
0.3187
 70
192
 0
VERTEX
 8
GRIGLIA2
 10
30.9165
 20
-9.2895
 30
1.7632
 70
192
 0
VERTEX
 8
GRIGLIA2
 10
30.9165
 20
17.55
 30
0.2626
 70
192
 0
VERTEX
 8
GRIGLIA2
 10
31.6045
 20
17.55
 30
0.2626
 70
192
 0
VERTEX
 8
GRIGLIA2
 10
31.6045
 20
16.5477
 30
0.3187
 70
192
 0
VERTEX
 8
GRIGLIA2
 10
31.6045
 20
-9.2895
 30
1.7632
 70
192
 0
VERTEX
 8
GRIGLIA2
 10
0.9169
 20
16.5865
 30
1.0157
 70
192
 0
VERTEX
 8
GRIGLIA2
 10
0.9169
 20
-9.2502
 30
2.4601
 70
192
 0
VERTEX
 8
GRIGLIA2
 10
1.6049
 20
16.5865
 30
1.0157
 70
192
 0
VERTEX
 8
GRIGLIA2
 10
1.6049
 20
-9.2502
 30
2.4601
 70
192
 0
VERTEX
 8
GRIGLIA2
 10
30.9169
 20
16.5865
 30
1.0157
 70
192
 0
VERTEX
 8
GRIGLIA2
 10
30.9169
 20
-9.2502
 30
2.4601
 70
192
 0
VERTEX
 8
GRIGLIA2
 10
31.6049
 20
16.5865
 30
1.0157
 70
192
 0
VERTEX
 8
GRIGLIA2
 10
31.6049
 20
-9.2502
 30
2.4601
 70
192
 0
VERTEX
 8
GRIGLIA2
 10
0
 20
0
 30
0
 70
128
 71
167
 72
9
 73
10
 74
10
 0
VERTEX
 8
GRIGLIA2
 10
0
 20
0
 30
0
 70
128
 71
167
 72
253
 73
252
 74
252
 0
VERTEX
 8
GRIGLIA2
 10
0
 20
0
 30
0
 70
128
 71
275
 72
276
 73
277
 74
274
 0
VERTEX
 8
GRIGLIA2
 10
0
 20
0
 30
0
 70
128
 71
4
 72
168
 73
3
 74
3
 0
VERTEX
 8
GRIGLIA2
 10
0
 20
0
 30
0
 70
128
 71
168
 72
17
 73
18
 74
18
 0
VERTEX
 8
GRIGLIA2
 10
0
 20
0
 30
0
 70
128
 71
168
 72
18
 73
3
 74
3
 0
VERTEX
 8
GRIGLIA2
 10
0
 20
0
 30
0
 70
128
 71
169
 72
230
 73
229
 74
229
 0
VERTEX
 8
GRIGLIA2
 10
0
 20
0
 30
0
 70
128
 71
169
 72
127
 73
128
 74
128
 0
VERTEX
 8
GRIGLIA2
 10
0
 20
0
 30
0
 70
128
 71
285
 72
237
 73
238
 74
286
 0
VERTEX
 8
GRIGLIA2
 10
0
 20
0
 30
0
 70
128
 71
8
 72
170
 73
7
 74
7
 0
VERTEX
 8
GRIGLIA2
 10
0
 20
0
 30
0
 70
128
 71
170
 72
25
 73
26
 74
26
 0
VERTEX
 8
GRIGLIA2
 10
0
 20
0
 30
0
 70
128
 71
170
 72
26
 73
7
 74
7
 0
VERTEX
 8
GRIGLIA2
 10
0
 20
0
 30
0
 70
128
 71
7
 72
26
 73
279
 74
280
 0
VERTEX
 8
GRIGLIA2
 10
0
 20
0
 30
0
 70
128
 71
9
 72
171
 73
10
 74
10
 0
VERTEX
 8
GRIGLIA2
 10
0
 20
0
 30
0
 70
128
 71
171
 72
15
 73
16
 74
16
 0
VERTEX
 8
GRIGLIA2
 10
0
 20
0
 30
0
 70
128
 71
171
 72
16
 73
10
 74
10
 0
VERTEX
 8
GRIGLIA2
 10
0
 20
0
 30
0
 70
128
 71
172
 72
254
 73
257
 74
12
 0
VERTEX
 8
GRIGLIA2
 10
0
 20
0
 30
0
 70
128
 71
172
 72
251
 73
254
 74
254
 0
VERTEX
 8
GRIGLIA2
 10
0
 20
0
 30
0
 70
128
 71
278
 72
8
 73
7
 74
280
 0
VERTEX
 8
GRIGLIA2
 10
0
 20
0
 30
0
 70
128
 71
10
 72
16
 73
24
 74
22
 0
VERTEX
 8
GRIGLIA2
 10
0
 20
0
 30
0
 70
128
 71
13
 72
173
 73
14
 74
14
 0
VERTEX
 8
GRIGLIA2
 10
0
 20
0
 30
0
 70
128
 71
173
 72
11
 73
12
 74
12
 0
VERTEX
 8
GRIGLIA2
 10
0
 20
0
 30
0
 70
128
 71
173
 72
12
 73
14
 74
14
 0
VERTEX
 8
GRIGLIA2
 10
0
 20
0
 30
0
 70
128
 71
15
 72
174
 73
16
 74
16
 0
VERTEX
 8
GRIGLIA2
 10
0
 20
0
 30
0
 70
128
 71
174
 72
39
 73
40
 74
40
 0
VERTEX
 8
GRIGLIA2
 10
0
 20
0
 30
0
 70
128
 71
174
 72
40
 73
16
 74
16
 0
VERTEX
 8
GRIGLIA2
 10
0
 20
0
 30
0
 70
128
 71
16
 72
40
 73
41
 74
24
 0
VERTEX
 8
GRIGLIA2
 10
0
 20
0
 30
0
 70
128
 71
17
 72
175
 73
18
 74
18
 0
VERTEX
 8
GRIGLIA2
 10
0
 20
0
 30
0
 70
128
 71
175
 72
30
 73
31
 74
31
 0
VERTEX
 8
GRIGLIA2
 10
0
 20
0
 30
0
 70
128
 71
175
 72
31
 73
18
 74
18
 0
VERTEX
 8
GRIGLIA2
 10
0
 20
0
 30
0
 70
128
 71
19
 72
176
 73
20
 74
20
 0
VERTEX
 8
GRIGLIA2
 10
0
 20
0
 30
0
 70
128
 71
176
 72
2
 73
1
 74
1
 0
VERTEX
 8
GRIGLIA2
 10
0
 20
0
 30
0
 70
128
 71
176
 72
1
 73
20
 74
20
 0
VERTEX
 8
GRIGLIA2
 10
0
 20
0
 30
0
 70
128
 71
20
 72
1
 73
276
 74
281
 0
VERTEX
 8
GRIGLIA2
 10
0
 20
0
 30
0
 70
128
 71
34
 72
36
 73
35
 74
33
 0
VERTEX
 8
GRIGLIA2
 10
0
 20
0
 30
0
 70
128
 71
18
 72
31
 73
289
 74
290
 0
VERTEX
 8
GRIGLIA2
 10
0
 20
0
 30
0
 70
128
 71
25
 72
177
 73
26
 74
26
 0
VERTEX
 8
GRIGLIA2
 10
0
 20
0
 30
0
 70
128
 71
177
 72
19
 73
20
 74
20
 0
VERTEX
 8
GRIGLIA2
 10
0
 20
0
 30
0
 70
128
 71
177
 72
20
 73
26
 74
26
 0
VERTEX
 8
GRIGLIA2
 10
0
 20
0
 30
0
 70
128
 71
26
 72
20
 73
281
 74
279
 0
VERTEX
 8
GRIGLIA2
 10
0
 20
0
 30
0
 70
128
 71
30
 72
178
 73
31
 74
31
 0
VERTEX
 8
GRIGLIA2
 10
0
 20
0
 30
0
 70
128
 71
178
 72
6
 73
5
 74
5
 0
VERTEX
 8
GRIGLIA2
 10
0
 20
0
 30
0
 70
128
 71
178
 72
5
 73
31
 74
31
 0
VERTEX
 8
GRIGLIA2
 10
0
 20
0
 30
0
 70
128
 71
32
 72
14
 73
12
 74
27
 0
VERTEX
 8
GRIGLIA2
 10
0
 20
0
 30
0
 70
128
 71
31
 72
5
 73
288
 74
289
 0
VERTEX
 8
GRIGLIA2
 10
0
 20
0
 30
0
 70
128
 71
24
 72
34
 73
33
 74
22
 0
VERTEX
 8
GRIGLIA2
 10
0
 20
0
 30
0
 70
128
 71
22
 72
33
 73
35
 74
27
 0
VERTEX
 8
GRIGLIA2
 10
0
 20
0
 30
0
 70
128
 71
27
 72
35
 73
36
 74
32
 0
VERTEX
 8
GRIGLIA2
 10
0
 20
0
 30
0
 70
128
 71
32
 72
36
 73
34
 74
24
 0
VERTEX
 8
GRIGLIA2
 10
0
 20
0
 30
0
 70
128
 71
37
 72
179
 73
38
 74
38
 0
VERTEX
 8
GRIGLIA2
 10
0
 20
0
 30
0
 70
128
 71
179
 72
13
 73
14
 74
14
 0
VERTEX
 8
GRIGLIA2
 10
0
 20
0
 30
0
 70
128
 71
179
 72
14
 73
38
 74
38
 0
VERTEX
 8
GRIGLIA2
 10
0
 20
0
 30
0
 70
128
 71
39
 72
180
 73
40
 74
40
 0
VERTEX
 8
GRIGLIA2
 10
0
 20
0
 30
0
 70
128
 71
180
 72
47
 73
48
 74
48
 0
VERTEX
 8
GRIGLIA2
 10
0
 20
0
 30
0
 70
128
 71
180
 72
48
 73
40
 74
40
 0
VERTEX
 8
GRIGLIA2
 10
0
 20
0
 30
0
 70
128
 71
40
 72
48
 73
46
 74
41
 0
VERTEX
 8
GRIGLIA2
 10
0
 20
0
 30
0
 70
128
 71
42
 72
32
 73
24
 74
41
 0
VERTEX
 8
GRIGLIA2
 10
0
 20
0
 30
0
 70
128
 71
38
 72
14
 73
32
 74
42
 0
VERTEX
 8
GRIGLIA2
 10
0
 20
0
 30
0
 70
128
 71
43
 72
181
 73
44
 74
44
 0
VERTEX
 8
GRIGLIA2
 10
0
 20
0
 30
0
 70
128
 71
181
 72
37
 73
38
 74
38
 0
VERTEX
 8
GRIGLIA2
 10
0
 20
0
 30
0
 70
128
 71
181
 72
38
 73
44
 74
44
 0
VERTEX
 8
GRIGLIA2
 10
0
 20
0
 30
0
 70
128
 71
141
 72
140
 73
139
 74
142
 0
VERTEX
 8
GRIGLIA2
 10
0
 20
0
 30
0
 70
128
 71
44
 72
38
 73
42
 74
45
 0
VERTEX
 8
GRIGLIA2
 10
0
 20
0
 30
0
 70
128
 71
47
 72
182
 73
48
 74
48
 0
VERTEX
 8
GRIGLIA2
 10
0
 20
0
 30
0
 70
128
 71
182
 72
53
 73
54
 74
54
 0
VERTEX
 8
GRIGLIA2
 10
0
 20
0
 30
0
 70
128
 71
182
 72
54
 73
48
 74
48
 0
VERTEX
 8
GRIGLIA2
 10
0
 20
0
 30
0
 70
128
 71
48
 72
54
 73
52
 74
46
 0
VERTEX
 8
GRIGLIA2
 10
0
 20
0
 30
0
 70
128
 71
49
 72
183
 73
50
 74
50
 0
VERTEX
 8
GRIGLIA2
 10
0
 20
0
 30
0
 70
128
 71
183
 72
43
 73
44
 74
44
 0
VERTEX
 8
GRIGLIA2
 10
0
 20
0
 30
0
 70
128
 71
183
 72
44
 73
50
 74
50
 0
VERTEX
 8
GRIGLIA2
 10
0
 20
0
 30
0
 70
128
 71
51
 72
45
 73
46
 74
52
 0
VERTEX
 8
GRIGLIA2
 10
0
 20
0
 30
0
 70
128
 71
50
 72
44
 73
45
 74
51
 0
VERTEX
 8
GRIGLIA2
 10
0
 20
0
 30
0
 70
128
 71
53
 72
184
 73
54
 74
54
 0
VERTEX
 8
GRIGLIA2
 10
0
 20
0
 30
0
 70
128
 71
184
 72
59
 73
60
 74
60
 0
VERTEX
 8
GRIGLIA2
 10
0
 20
0
 30
0
 70
128
 71
184
 72
60
 73
54
 74
54
 0
VERTEX
 8
GRIGLIA2
 10
0
 20
0
 30
0
 70
128
 71
54
 72
60
 73
58
 74
52
 0
VERTEX
 8
GRIGLIA2
 10
0
 20
0
 30
0
 70
128
 71
55
 72
185
 73
56
 74
56
 0
VERTEX
 8
GRIGLIA2
 10
0
 20
0
 30
0
 70
128
 71
185
 72
49
 73
50
 74
50
 0
VERTEX
 8
GRIGLIA2
 10
0
 20
0
 30
0
 70
128
 71
185
 72
50
 73
56
 74
56
 0
VERTEX
 8
GRIGLIA2
 10
0
 20
0
 30
0
 70
128
 71
145
 72
143
 73
144
 74
146
 0
VERTEX
 8
GRIGLIA2
 10
0
 20
0
 30
0
 70
128
 71
56
 72
50
 73
51
 74
57
 0
VERTEX
 8
GRIGLIA2
 10
0
 20
0
 30
0
 70
128
 71
59
 72
186
 73
60
 74
60
 0
VERTEX
 8
GRIGLIA2
 10
0
 20
0
 30
0
 70
128
 71
186
 72
65
 73
66
 74
66
 0
VERTEX
 8
GRIGLIA2
 10
0
 20
0
 30
0
 70
128
 71
186
 72
66
 73
60
 74
60
 0
VERTEX
 8
GRIGLIA2
 10
0
 20
0
 30
0
 70
128
 71
60
 72
66
 73
64
 74
58
 0
VERTEX
 8
GRIGLIA2
 10
0
 20
0
 30
0
 70
128
 71
61
 72
187
 73
62
 74
62
 0
VERTEX
 8
GRIGLIA2
 10
0
 20
0
 30
0
 70
128
 71
187
 72
55
 73
56
 74
56
 0
VERTEX
 8
GRIGLIA2
 10
0
 20
0
 30
0
 70
128
 71
187
 72
56
 73
62
 74
62
 0
VERTEX
 8
GRIGLIA2
 10
0
 20
0
 30
0
 70
128
 71
62
 72
56
 73
57
 74
63
 0
VERTEX
 8
GRIGLIA2
 10
0
 20
0
 30
0
 70
128
 71
65
 72
188
 73
66
 74
66
 0
VERTEX
 8
GRIGLIA2
 10
0
 20
0
 30
0
 70
128
 71
188
 72
71
 73
72
 74
72
 0
VERTEX
 8
GRIGLIA2
 10
0
 20
0
 30
0
 70
128
 71
188
 72
72
 73
66
 74
66
 0
VERTEX
 8
GRIGLIA2
 10
0
 20
0
 30
0
 70
128
 71
66
 72
72
 73
70
 74
64
 0
VERTEX
 8
GRIGLIA2
 10
0
 20
0
 30
0
 70
128
 71
67
 72
189
 73
68
 74
68
 0
VERTEX
 8
GRIGLIA2
 10
0
 20
0
 30
0
 70
128
 71
189
 72
61
 73
62
 74
62
 0
VERTEX
 8
GRIGLIA2
 10
0
 20
0
 30
0
 70
128
 71
189
 72
62
 73
68
 74
68
 0
VERTEX
 8
GRIGLIA2
 10
0
 20
0
 30
0
 70
128
 71
148
 72
147
 73
149
 74
150
 0
VERTEX
 8
GRIGLIA2
 10
0
 20
0
 30
0
 70
128
 71
68
 72
62
 73
63
 74
69
 0
VERTEX
 8
GRIGLIA2
 10
0
 20
0
 30
0
 70
128
 71
71
 72
190
 73
72
 74
72
 0
VERTEX
 8
GRIGLIA2
 10
0
 20
0
 30
0
 70
128
 71
190
 72
77
 73
78
 74
78
 0
VERTEX
 8
GRIGLIA2
 10
0
 20
0
 30
0
 70
128
 71
190
 72
78
 73
72
 74
72
 0
VERTEX
 8
GRIGLIA2
 10
0
 20
0
 30
0
 70
128
 71
72
 72
78
 73
76
 74
70
 0
VERTEX
 8
GRIGLIA2
 10
0
 20
0
 30
0
 70
128
 71
73
 72
191
 73
74
 74
74
 0
VERTEX
 8
GRIGLIA2
 10
0
 20
0
 30
0
 70
128
 71
191
 72
67
 73
68
 74
68
 0
VERTEX
 8
GRIGLIA2
 10
0
 20
0
 30
0
 70
128
 71
191
 72
68
 73
74
 74
74
 0
VERTEX
 8
GRIGLIA2
 10
0
 20
0
 30
0
 70
128
 71
75
 72
69
 73
134
 74
135
 0
VERTEX
 8
GRIGLIA2
 10
0
 20
0
 30
0
 70
128
 71
74
 72
68
 73
69
 74
75
 0
VERTEX
 8
GRIGLIA2
 10
0
 20
0
 30
0
 70
128
 71
77
 72
192
 73
78
 74
78
 0
VERTEX
 8
GRIGLIA2
 10
0
 20
0
 30
0
 70
128
 71
192
 72
81
 73
82
 74
82
 0
VERTEX
 8
GRIGLIA2
 10
0
 20
0
 30
0
 70
128
 71
192
 72
82
 73
78
 74
78
 0
VERTEX
 8
GRIGLIA2
 10
0
 20
0
 30
0
 70
128
 71
78
 72
82
 73
84
 74
76
 0
VERTEX
 8
GRIGLIA2
 10
0
 20
0
 30
0
 70
128
 71
79
 72
193
 73
80
 74
80
 0
VERTEX
 8
GRIGLIA2
 10
0
 20
0
 30
0
 70
128
 71
193
 72
73
 73
74
 74
74
 0
VERTEX
 8
GRIGLIA2
 10
0
 20
0
 30
0
 70
128
 71
193
 72
74
 73
80
 74
80
 0
VERTEX
 8
GRIGLIA2
 10
0
 20
0
 30
0
 70
128
 71
81
 72
194
 73
82
 74
82
 0
VERTEX
 8
GRIGLIA2
 10
0
 20
0
 30
0
 70
128
 71
194
 72
90
 73
89
 74
89
 0
VERTEX
 8
GRIGLIA2
 10
0
 20
0
 30
0
 70
128
 71
194
 72
89
 73
82
 74
82
 0
VERTEX
 8
GRIGLIA2
 10
0
 20
0
 30
0
 70
128
 71
152
 72
151
 73
153
 74
154
 0
VERTEX
 8
GRIGLIA2
 10
0
 20
0
 30
0
 70
128
 71
80
 72
74
 73
75
 74
83
 0
VERTEX
 8
GRIGLIA2
 10
0
 20
0
 30
0
 70
128
 71
82
 72
89
 73
88
 74
84
 0
VERTEX
 8
GRIGLIA2
 10
0
 20
0
 30
0
 70
128
 71
85
 72
195
 73
86
 74
86
 0
VERTEX
 8
GRIGLIA2
 10
0
 20
0
 30
0
 70
128
 71
195
 72
79
 73
80
 74
80
 0
VERTEX
 8
GRIGLIA2
 10
0
 20
0
 30
0
 70
128
 71
195
 72
80
 73
86
 74
86
 0
VERTEX
 8
GRIGLIA2
 10
0
 20
0
 30
0
 70
128
 71
87
 72
83
 73
136
 74
137
 0
VERTEX
 8
GRIGLIA2
 10
0
 20
0
 30
0
 70
128
 71
89
 72
95
 73
94
 74
88
 0
VERTEX
 8
GRIGLIA2
 10
0
 20
0
 30
0
 70
128
 71
86
 72
80
 73
83
 74
87
 0
VERTEX
 8
GRIGLIA2
 10
0
 20
0
 30
0
 70
128
 71
90
 72
196
 73
89
 74
89
 0
VERTEX
 8
GRIGLIA2
 10
0
 20
0
 30
0
 70
128
 71
196
 72
96
 73
95
 74
95
 0
VERTEX
 8
GRIGLIA2
 10
0
 20
0
 30
0
 70
128
 71
196
 72
95
 73
89
 74
89
 0
VERTEX
 8
GRIGLIA2
 10
0
 20
0
 30
0
 70
128
 71
91
 72
197
 73
92
 74
92
 0
VERTEX
 8
GRIGLIA2
 10
0
 20
0
 30
0
 70
128
 71
197
 72
85
 73
86
 74
86
 0
VERTEX
 8
GRIGLIA2
 10
0
 20
0
 30
0
 70
128
 71
197
 72
86
 73
92
 74
92
 0
VERTEX
 8
GRIGLIA2
 10
0
 20
0
 30
0
 70
128
 71
156
 72
155
 73
157
 74
158
 0
VERTEX
 8
GRIGLIA2
 10
0
 20
0
 30
0
 70
128
 71
92
 72
86
 73
87
 74
93
 0
VERTEX
 8
GRIGLIA2
 10
0
 20
0
 30
0
 70
128
 71
95
 72
101
 73
100
 74
94
 0
VERTEX
 8
GRIGLIA2
 10
0
 20
0
 30
0
 70
128
 71
96
 72
198
 73
95
 74
95
 0
VERTEX
 8
GRIGLIA2
 10
0
 20
0
 30
0
 70
128
 71
198
 72
102
 73
101
 74
101
 0
VERTEX
 8
GRIGLIA2
 10
0
 20
0
 30
0
 70
128
 71
198
 72
101
 73
95
 74
95
 0
VERTEX
 8
GRIGLIA2
 10
0
 20
0
 30
0
 70
128
 71
97
 72
199
 73
98
 74
98
 0
VERTEX
 8
GRIGLIA2
 10
0
 20
0
 30
0
 70
128
 71
199
 72
91
 73
92
 74
92
 0
VERTEX
 8
GRIGLIA2
 10
0
 20
0
 30
0
 70
128
 71
199
 72
92
 73
98
 74
98
 0
VERTEX
 8
GRIGLIA2
 10
0
 20
0
 30
0
 70
128
 71
98
 72
92
 73
93
 74
99
 0
VERTEX
 8
GRIGLIA2
 10
0
 20
0
 30
0
 70
128
 71
101
 72
107
 73
106
 74
100
 0
VERTEX
 8
GRIGLIA2
 10
0
 20
0
 30
0
 70
128
 71
102
 72
200
 73
101
 74
101
 0
VERTEX
 8
GRIGLIA2
 10
0
 20
0
 30
0
 70
128
 71
200
 72
108
 73
107
 74
107
 0
VERTEX
 8
GRIGLIA2
 10
0
 20
0
 30
0
 70
128
 71
200
 72
107
 73
101
 74
101
 0
VERTEX
 8
GRIGLIA2
 10
0
 20
0
 30
0
 70
128
 71
100
 72
160
 73
159
 74
99
 0
VERTEX
 8
GRIGLIA2
 10
0
 20
0
 30
0
 70
128
 71
99
 72
159
 73
161
 74
105
 0
VERTEX
 8
GRIGLIA2
 10
0
 20
0
 30
0
 70
128
 71
103
 72
201
 73
104
 74
104
 0
VERTEX
 8
GRIGLIA2
 10
0
 20
0
 30
0
 70
128
 71
201
 72
97
 73
98
 74
98
 0
VERTEX
 8
GRIGLIA2
 10
0
 20
0
 30
0
 70
128
 71
201
 72
98
 73
104
 74
104
 0
VERTEX
 8
GRIGLIA2
 10
0
 20
0
 30
0
 70
128
 71
161
 72
159
 73
160
 74
162
 0
VERTEX
 8
GRIGLIA2
 10
0
 20
0
 30
0
 70
128
 71
104
 72
98
 73
99
 74
105
 0
VERTEX
 8
GRIGLIA2
 10
0
 20
0
 30
0
 70
128
 71
107
 72
113
 73
112
 74
106
 0
VERTEX
 8
GRIGLIA2
 10
0
 20
0
 30
0
 70
128
 71
108
 72
202
 73
107
 74
107
 0
VERTEX
 8
GRIGLIA2
 10
0
 20
0
 30
0
 70
128
 71
202
 72
114
 73
113
 74
113
 0
VERTEX
 8
GRIGLIA2
 10
0
 20
0
 30
0
 70
128
 71
202
 72
113
 73
107
 74
107
 0
VERTEX
 8
GRIGLIA2
 10
0
 20
0
 30
0
 70
128
 71
117
 72
165
 73
166
 74
118
 0
VERTEX
 8
GRIGLIA2
 10
0
 20
0
 30
0
 70
128
 71
118
 72
166
 73
164
 74
112
 0
VERTEX
 8
GRIGLIA2
 10
0
 20
0
 30
0
 70
128
 71
109
 72
203
 73
110
 74
110
 0
VERTEX
 8
GRIGLIA2
 10
0
 20
0
 30
0
 70
128
 71
203
 72
103
 73
104
 74
104
 0
VERTEX
 8
GRIGLIA2
 10
0
 20
0
 30
0
 70
128
 71
203
 72
104
 73
110
 74
110
 0
VERTEX
 8
GRIGLIA2
 10
0
 20
0
 30
0
 70
128
 71
111
 72
105
 73
106
 74
112
 0
VERTEX
 8
GRIGLIA2
 10
0
 20
0
 30
0
 70
128
 71
110
 72
104
 73
105
 74
111
 0
VERTEX
 8
GRIGLIA2
 10
0
 20
0
 30
0
 70
128
 71
113
 72
119
 73
118
 74
112
 0
VERTEX
 8
GRIGLIA2
 10
0
 20
0
 30
0
 70
128
 71
114
 72
204
 73
113
 74
113
 0
VERTEX
 8
GRIGLIA2
 10
0
 20
0
 30
0
 70
128
 71
204
 72
120
 73
119
 74
119
 0
VERTEX
 8
GRIGLIA2
 10
0
 20
0
 30
0
 70
128
 71
204
 72
119
 73
113
 74
113
 0
VERTEX
 8
GRIGLIA2
 10
0
 20
0
 30
0
 70
128
 71
112
 72
164
 73
163
 74
111
 0
VERTEX
 8
GRIGLIA2
 10
0
 20
0
 30
0
 70
128
 71
111
 72
163
 73
165
 74
117
 0
VERTEX
 8
GRIGLIA2
 10
0
 20
0
 30
0
 70
128
 71
115
 72
205
 73
116
 74
116
 0
VERTEX
 8
GRIGLIA2
 10
0
 20
0
 30
0
 70
128
 71
205
 72
109
 73
110
 74
110
 0
VERTEX
 8
GRIGLIA2
 10
0
 20
0
 30
0
 70
128
 71
205
 72
110
 73
116
 74
116
 0
VERTEX
 8
GRIGLIA2
 10
0
 20
0
 30
0
 70
128
 71
165
 72
163
 73
164
 74
166
 0
VERTEX
 8
GRIGLIA2
 10
0
 20
0
 30
0
 70
128
 71
116
 72
110
 73
111
 74
117
 0
VERTEX
 8
GRIGLIA2
 10
0
 20
0
 30
0
 70
128
 71
119
 72
125
 73
124
 74
118
 0
VERTEX
 8
GRIGLIA2
 10
0
 20
0
 30
0
 70
128
 71
120
 72
206
 73
119
 74
119
 0
VERTEX
 8
GRIGLIA2
 10
0
 20
0
 30
0
 70
128
 71
206
 72
126
 73
125
 74
125
 0
VERTEX
 8
GRIGLIA2
 10
0
 20
0
 30
0
 70
128
 71
206
 72
125
 73
119
 74
119
 0
VERTEX
 8
GRIGLIA2
 10
0
 20
0
 30
0
 70
128
 71
129
 72
28
 73
29
 74
130
 0
VERTEX
 8
GRIGLIA2
 10
0
 20
0
 30
0
 70
128
 71
130
 72
29
 73
23
 74
124
 0
VERTEX
 8
GRIGLIA2
 10
0
 20
0
 30
0
 70
128
 71
121
 72
207
 73
122
 74
122
 0
VERTEX
 8
GRIGLIA2
 10
0
 20
0
 30
0
 70
128
 71
207
 72
115
 73
116
 74
116
 0
VERTEX
 8
GRIGLIA2
 10
0
 20
0
 30
0
 70
128
 71
207
 72
116
 73
122
 74
122
 0
VERTEX
 8
GRIGLIA2
 10
0
 20
0
 30
0
 70
128
 71
123
 72
117
 73
118
 74
124
 0
VERTEX
 8
GRIGLIA2
 10
0
 20
0
 30
0
 70
128
 71
122
 72
116
 73
117
 74
123
 0
VERTEX
 8
GRIGLIA2
 10
0
 20
0
 30
0
 70
128
 71
125
 72
131
 73
130
 74
124
 0
VERTEX
 8
GRIGLIA2
 10
0
 20
0
 30
0
 70
128
 71
126
 72
208
 73
125
 74
125
 0
VERTEX
 8
GRIGLIA2
 10
0
 20
0
 30
0
 70
128
 71
208
 72
132
 73
131
 74
131
 0
VERTEX
 8
GRIGLIA2
 10
0
 20
0
 30
0
 70
128
 71
208
 72
131
 73
125
 74
125
 0
VERTEX
 8
GRIGLIA2
 10
0
 20
0
 30
0
 70
128
 71
124
 72
23
 73
21
 74
123
 0
VERTEX
 8
GRIGLIA2
 10
0
 20
0
 30
0
 70
128
 71
123
 72
21
 73
28
 74
129
 0
VERTEX
 8
GRIGLIA2
 10
0
 20
0
 30
0
 70
128
 71
127
 72
209
 73
128
 74
128
 0
VERTEX
 8
GRIGLIA2
 10
0
 20
0
 30
0
 70
128
 71
209
 72
121
 73
122
 74
122
 0
VERTEX
 8
GRIGLIA2
 10
0
 20
0
 30
0
 70
128
 71
209
 72
122
 73
128
 74
128
 0
VERTEX
 8
GRIGLIA2
 10
0
 20
0
 30
0
 70
128
 71
28
 72
21
 73
23
 74
29
 0
VERTEX
 8
GRIGLIA2
 10
0
 20
0
 30
0
 70
128
 71
128
 72
122
 73
123
 74
129
 0
VERTEX
 8
GRIGLIA2
 10
0
 20
0
 30
0
 70
128
 71
131
 72
228
 73
231
 74
130
 0
VERTEX
 8
GRIGLIA2
 10
0
 20
0
 30
0
 70
128
 71
210
 72
227
 73
228
 74
131
 0
VERTEX
 8
GRIGLIA2
 10
0
 20
0
 30
0
 70
128
 71
210
 72
233
 73
227
 74
227
 0
VERTEX
 8
GRIGLIA2
 10
0
 20
0
 30
0
 70
128
 71
267
 72
270
 73
271
 74
269
 0
VERTEX
 8
GRIGLIA2
 10
0
 20
0
 30
0
 70
128
 71
133
 72
64
 73
70
 74
134
 0
VERTEX
 8
GRIGLIA2
 10
0
 20
0
 30
0
 70
128
 71
134
 72
212
 73
135
 74
135
 0
VERTEX
 8
GRIGLIA2
 10
0
 20
0
 30
0
 70
128
 71
70
 72
76
 73
213
 74
213
 0
VERTEX
 8
GRIGLIA2
 10
0
 20
0
 30
0
 70
128
 71
212
 72
134
 73
70
 74
70
 0
VERTEX
 8
GRIGLIA2
 10
0
 20
0
 30
0
 70
128
 71
137
 72
88
 73
94
 74
138
 0
VERTEX
 8
GRIGLIA2
 10
0
 20
0
 30
0
 70
128
 71
45
 72
141
 73
142
 74
46
 0
VERTEX
 8
GRIGLIA2
 10
0
 20
0
 30
0
 70
128
 71
46
 72
142
 73
139
 74
41
 0
VERTEX
 8
GRIGLIA2
 10
0
 20
0
 30
0
 70
128
 71
41
 72
139
 73
140
 74
42
 0
VERTEX
 8
GRIGLIA2
 10
0
 20
0
 30
0
 70
128
 71
42
 72
140
 73
141
 74
45
 0
VERTEX
 8
GRIGLIA2
 10
0
 20
0
 30
0
 70
128
 71
57
 72
145
 73
146
 74
58
 0
VERTEX
 8
GRIGLIA2
 10
0
 20
0
 30
0
 70
128
 71
58
 72
146
 73
144
 74
52
 0
VERTEX
 8
GRIGLIA2
 10
0
 20
0
 30
0
 70
128
 71
52
 72
144
 73
143
 74
51
 0
VERTEX
 8
GRIGLIA2
 10
0
 20
0
 30
0
 70
128
 71
51
 72
143
 73
145
 74
57
 0
VERTEX
 8
GRIGLIA2
 10
0
 20
0
 30
0
 70
128
 71
69
 72
148
 73
150
 74
134
 0
VERTEX
 8
GRIGLIA2
 10
0
 20
0
 30
0
 70
128
 71
134
 72
150
 73
149
 74
133
 0
VERTEX
 8
GRIGLIA2
 10
0
 20
0
 30
0
 70
128
 71
133
 72
149
 73
147
 74
63
 0
VERTEX
 8
GRIGLIA2
 10
0
 20
0
 30
0
 70
128
 71
63
 72
147
 73
148
 74
69
 0
VERTEX
 8
GRIGLIA2
 10
0
 20
0
 30
0
 70
128
 71
83
 72
152
 73
154
 74
136
 0
VERTEX
 8
GRIGLIA2
 10
0
 20
0
 30
0
 70
128
 71
136
 72
154
 73
153
 74
135
 0
VERTEX
 8
GRIGLIA2
 10
0
 20
0
 30
0
 70
128
 71
135
 72
153
 73
151
 74
75
 0
VERTEX
 8
GRIGLIA2
 10
0
 20
0
 30
0
 70
128
 71
75
 72
151
 73
152
 74
83
 0
VERTEX
 8
GRIGLIA2
 10
0
 20
0
 30
0
 70
128
 71
93
 72
156
 73
158
 74
138
 0
VERTEX
 8
GRIGLIA2
 10
0
 20
0
 30
0
 70
128
 71
138
 72
158
 73
157
 74
137
 0
VERTEX
 8
GRIGLIA2
 10
0
 20
0
 30
0
 70
128
 71
137
 72
157
 73
155
 74
87
 0
VERTEX
 8
GRIGLIA2
 10
0
 20
0
 30
0
 70
128
 71
87
 72
155
 73
156
 74
93
 0
VERTEX
 8
GRIGLIA2
 10
0
 20
0
 30
0
 70
128
 71
105
 72
161
 73
162
 74
106
 0
VERTEX
 8
GRIGLIA2
 10
0
 20
0
 30
0
 70
128
 71
106
 72
162
 73
160
 74
100
 0
VERTEX
 8
GRIGLIA2
 10
0
 20
0
 30
0
 70
128
 71
210
 72
131
 73
132
 74
132
 0
VERTEX
 8
GRIGLIA2
 10
0
 20
0
 30
0
 70
128
 71
230
 72
236
 73
239
 74
229
 0
VERTEX
 8
GRIGLIA2
 10
0
 20
0
 30
0
 70
128
 71
265
 72
264
 73
263
 74
266
 0
VERTEX
 8
GRIGLIA2
 10
0
 20
0
 30
0
 70
128
 71
235
 72
232
 73
234
 74
237
 0
VERTEX
 8
GRIGLIA2
 10
0
 20
0
 30
0
 70
128
 71
287
 72
235
 73
237
 74
285
 0
VERTEX
 8
GRIGLIA2
 10
0
 20
0
 30
0
 70
128
 71
236
 72
230
 73
232
 74
235
 0
VERTEX
 8
GRIGLIA2
 10
0
 20
0
 30
0
 70
128
 71
228
 72
242
 73
238
 74
231
 0
VERTEX
 8
GRIGLIA2
 10
0
 20
0
 30
0
 70
128
 71
232
 72
230
 73
169
 74
128
 0
VERTEX
 8
GRIGLIA2
 10
0
 20
0
 30
0
 70
128
 71
227
 72
233
 73
240
 74
241
 0
VERTEX
 8
GRIGLIA2
 10
0
 20
0
 30
0
 70
128
 71
279
 72
282
 73
283
 74
280
 0
VERTEX
 8
GRIGLIA2
 10
0
 20
0
 30
0
 70
128
 71
288
 72
5
 73
6
 74
272
 0
VERTEX
 8
GRIGLIA2
 10
0
 20
0
 30
0
 70
128
 71
269
 72
271
 73
290
 74
286
 0
VERTEX
 8
GRIGLIA2
 10
0
 20
0
 30
0
 70
128
 71
272
 72
268
 73
287
 74
288
 0
VERTEX
 8
GRIGLIA2
 10
0
 20
0
 30
0
 70
128
 71
292
 72
294
 73
293
 74
291
 0
VERTEX
 8
GRIGLIA2
 10
0
 20
0
 30
0
 70
128
 71
269
 72
242
 73
241
 74
241
 0
VERTEX
 8
GRIGLIA2
 10
0
 20
0
 30
0
 70
128
 71
267
 72
269
 73
241
 74
240
 0
VERTEX
 8
GRIGLIA2
 10
0
 20
0
 30
0
 70
128
 71
274
 72
19
 73
243
 74
243
 0
VERTEX
 8
GRIGLIA2
 10
0
 20
0
 30
0
 70
128
 71
277
 72
2
 73
176
 74
176
 0
VERTEX
 8
GRIGLIA2
 10
0
 20
0
 30
0
 70
128
 71
243
 72
19
 73
177
 74
177
 0
VERTEX
 8
GRIGLIA2
 10
0
 20
0
 30
0
 70
128
 71
270
 72
4
 73
3
 74
271
 0
VERTEX
 8
GRIGLIA2
 10
0
 20
0
 30
0
 70
128
 71
177
 72
25
 73
251
 74
251
 0
VERTEX
 8
GRIGLIA2
 10
0
 20
0
 30
0
 70
128
 71
177
 72
172
 73
11
 74
11
 0
VERTEX
 8
GRIGLIA2
 10
0
 20
0
 30
0
 70
128
 71
177
 72
11
 73
173
 74
173
 0
VERTEX
 8
GRIGLIA2
 10
0
 20
0
 30
0
 70
128
 71
177
 72
173
 73
13
 74
13
 0
VERTEX
 8
GRIGLIA2
 10
0
 20
0
 30
0
 70
128
 71
177
 72
13
 73
179
 74
179
 0
VERTEX
 8
GRIGLIA2
 10
0
 20
0
 30
0
 70
128
 71
177
 72
179
 73
37
 74
37
 0
VERTEX
 8
GRIGLIA2
 10
0
 20
0
 30
0
 70
128
 71
282
 72
247
 73
248
 74
283
 0
VERTEX
 8
GRIGLIA2
 10
0
 20
0
 30
0
 70
128
 71
19
 72
274
 73
277
 74
277
 0
VERTEX
 8
GRIGLIA2
 10
0
 20
0
 30
0
 70
128
 71
99
 72
93
 73
138
 74
138
 0
VERTEX
 8
GRIGLIA2
 10
0
 20
0
 30
0
 70
128
 71
138
 72
94
 73
100
 74
100
 0
VERTEX
 8
GRIGLIA2
 10
0
 20
0
 30
0
 70
128
 71
133
 72
63
 73
57
 74
57
 0
VERTEX
 8
GRIGLIA2
 10
0
 20
0
 30
0
 70
128
 71
58
 72
64
 73
133
 74
133
 0
VERTEX
 8
GRIGLIA2
 10
0
 20
0
 30
0
 70
128
 71
99
 72
138
 73
100
 74
100
 0
VERTEX
 8
GRIGLIA2
 10
0
 20
0
 30
0
 70
128
 71
133
 72
57
 73
58
 74
58
 0
VERTEX
 8
GRIGLIA2
 10
0
 20
0
 30
0
 70
128
 71
276
 72
275
 73
284
 74
281
 0
VERTEX
 8
GRIGLIA2
 10
0
 20
0
 30
0
 70
128
 71
177
 72
37
 73
181
 74
181
 0
VERTEX
 8
GRIGLIA2
 10
0
 20
0
 30
0
 70
128
 71
276
 72
1
 73
2
 74
277
 0
VERTEX
 8
GRIGLIA2
 10
0
 20
0
 30
0
 70
128
 71
177
 72
181
 73
43
 74
43
 0
VERTEX
 8
GRIGLIA2
 10
0
 20
0
 30
0
 70
128
 71
177
 72
43
 73
183
 74
183
 0
VERTEX
 8
GRIGLIA2
 10
0
 20
0
 30
0
 70
128
 71
177
 72
183
 73
49
 74
49
 0
VERTEX
 8
GRIGLIA2
 10
0
 20
0
 30
0
 70
128
 71
177
 72
49
 73
185
 74
185
 0
VERTEX
 8
GRIGLIA2
 10
0
 20
0
 30
0
 70
128
 71
177
 72
185
 73
55
 74
55
 0
VERTEX
 8
GRIGLIA2
 10
0
 20
0
 30
0
 70
128
 71
177
 72
55
 73
187
 74
187
 0
VERTEX
 8
GRIGLIA2
 10
0
 20
0
 30
0
 70
128
 71
177
 72
187
 73
61
 74
61
 0
VERTEX
 8
GRIGLIA2
 10
0
 20
0
 30
0
 70
128
 71
177
 72
61
 73
189
 74
189
 0
VERTEX
 8
GRIGLIA2
 10
0
 20
0
 30
0
 70
128
 71
213
 72
84
 73
214
 74
214
 0
VERTEX
 8
GRIGLIA2
 10
0
 20
0
 30
0
 70
128
 71
136
 72
135
 73
212
 74
212
 0
VERTEX
 8
GRIGLIA2
 10
0
 20
0
 30
0
 70
128
 71
88
 72
137
 73
211
 74
211
 0
VERTEX
 8
GRIGLIA2
 10
0
 20
0
 30
0
 70
128
 71
137
 72
136
 73
211
 74
211
 0
VERTEX
 8
GRIGLIA2
 10
0
 20
0
 30
0
 70
128
 71
213
 72
76
 73
84
 74
84
 0
VERTEX
 8
GRIGLIA2
 10
0
 20
0
 30
0
 70
128
 71
84
 72
88
 73
214
 74
214
 0
VERTEX
 8
GRIGLIA2
 10
0
 20
0
 30
0
 70
128
 71
224
 72
225
 73
226
 74
223
 0
VERTEX
 8
GRIGLIA2
 10
0
 20
0
 30
0
 70
128
 71
212
 72
216
 73
215
 74
211
 0
VERTEX
 8
GRIGLIA2
 10
0
 20
0
 30
0
 70
128
 71
211
 72
215
 73
218
 74
214
 0
VERTEX
 8
GRIGLIA2
 10
0
 20
0
 30
0
 70
128
 71
214
 72
218
 73
217
 74
213
 0
VERTEX
 8
GRIGLIA2
 10
0
 20
0
 30
0
 70
128
 71
213
 72
217
 73
216
 74
212
 0
VERTEX
 8
GRIGLIA2
 10
0
 20
0
 30
0
 70
128
 71
216
 72
220
 73
219
 74
215
 0
VERTEX
 8
GRIGLIA2
 10
0
 20
0
 30
0
 70
128
 71
215
 72
219
 73
222
 74
218
 0
VERTEX
 8
GRIGLIA2
 10
0
 20
0
 30
0
 70
128
 71
218
 72
222
 73
221
 74
217
 0
VERTEX
 8
GRIGLIA2
 10
0
 20
0
 30
0
 70
128
 71
217
 72
221
 73
220
 74
216
 0
VERTEX
 8
GRIGLIA2
 10
0
 20
0
 30
0
 70
128
 71
220
 72
224
 73
223
 74
219
 0
VERTEX
 8
GRIGLIA2
 10
0
 20
0
 30
0
 70
128
 71
219
 72
223
 73
226
 74
222
 0
VERTEX
 8
GRIGLIA2
 10
0
 20
0
 30
0
 70
128
 71
222
 72
226
 73
225
 74
221
 0
VERTEX
 8
GRIGLIA2
 10
0
 20
0
 30
0
 70
128
 71
221
 72
225
 73
224
 74
220
 0
VERTEX
 8
GRIGLIA2
 10
0
 20
0
 30
0
 70
128
 71
212
 72
70
 73
213
 74
213
 0
VERTEX
 8
GRIGLIA2
 10
0
 20
0
 30
0
 70
128
 71
136
 72
212
 73
211
 74
211
 0
VERTEX
 8
GRIGLIA2
 10
0
 20
0
 30
0
 70
128
 71
88
 72
211
 73
214
 74
214
 0
VERTEX
 8
GRIGLIA2
 10
0
 20
0
 30
0
 70
128
 71
177
 72
188
 73
65
 74
65
 0
VERTEX
 8
GRIGLIA2
 10
0
 20
0
 30
0
 70
128
 71
177
 72
65
 73
186
 74
186
 0
VERTEX
 8
GRIGLIA2
 10
0
 20
0
 30
0
 70
128
 71
177
 72
186
 73
59
 74
59
 0
VERTEX
 8
GRIGLIA2
 10
0
 20
0
 30
0
 70
128
 71
177
 72
59
 73
184
 74
184
 0
VERTEX
 8
GRIGLIA2
 10
0
 20
0
 30
0
 70
128
 71
177
 72
184
 73
53
 74
53
 0
VERTEX
 8
GRIGLIA2
 10
0
 20
0
 30
0
 70
128
 71
253
 72
244
 73
243
 74
252
 0
VERTEX
 8
GRIGLIA2
 10
0
 20
0
 30
0
 70
128
 71
247
 72
256
 73
257
 74
248
 0
VERTEX
 8
GRIGLIA2
 10
0
 20
0
 30
0
 70
128
 71
280
 72
283
 73
273
 74
278
 0
VERTEX
 8
GRIGLIA2
 10
0
 20
0
 30
0
 70
128
 71
249
 72
248
 73
257
 74
254
 0
VERTEX
 8
GRIGLIA2
 10
0
 20
0
 30
0
 70
128
 71
246
 72
255
 73
258
 74
250
 0
VERTEX
 8
GRIGLIA2
 10
0
 20
0
 30
0
 70
128
 71
260
 72
262
 73
261
 74
259
 0
VERTEX
 8
GRIGLIA2
 10
0
 20
0
 30
0
 70
128
 71
232
 72
128
 73
129
 74
234
 0
VERTEX
 8
GRIGLIA2
 10
0
 20
0
 30
0
 70
128
 71
177
 72
53
 73
182
 74
182
 0
VERTEX
 8
GRIGLIA2
 10
0
 20
0
 30
0
 70
128
 71
241
 72
242
 73
228
 74
227
 0
VERTEX
 8
GRIGLIA2
 10
0
 20
0
 30
0
 70
128
 71
297
 72
295
 73
296
 74
298
 0
VERTEX
 8
GRIGLIA2
 10
0
 20
0
 30
0
 70
128
 71
242
 72
269
 73
286
 74
238
 0
VERTEX
 8
GRIGLIA2
 10
0
 20
0
 30
0
 70
128
 71
177
 72
182
 73
47
 74
47
 0
VERTEX
 8
GRIGLIA2
 10
0
 20
0
 30
0
 70
128
 71
234
 72
129
 73
130
 74
231
 0
VERTEX
 8
GRIGLIA2
 10
0
 20
0
 30
0
 70
128
 71
177
 72
47
 73
180
 74
180
 0
VERTEX
 8
GRIGLIA2
 10
0
 20
0
 30
0
 70
128
 71
244
 72
253
 73
255
 74
246
 0
VERTEX
 8
GRIGLIA2
 10
0
 20
0
 30
0
 70
128
 71
254
 72
251
 73
245
 74
249
 0
VERTEX
 8
GRIGLIA2
 10
0
 20
0
 30
0
 70
128
 71
167
 72
10
 73
255
 74
253
 0
VERTEX
 8
GRIGLIA2
 10
0
 20
0
 30
0
 70
128
 71
256
 72
27
 73
12
 74
257
 0
VERTEX
 8
GRIGLIA2
 10
0
 20
0
 30
0
 70
128
 71
172
 72
12
 73
11
 74
11
 0
VERTEX
 8
GRIGLIA2
 10
0
 20
0
 30
0
 70
128
 71
255
 72
10
 73
22
 74
258
 0
VERTEX
 8
GRIGLIA2
 10
0
 20
0
 30
0
 70
128
 71
258
 72
22
 73
27
 74
256
 0
VERTEX
 8
GRIGLIA2
 10
0
 20
0
 30
0
 70
128
 71
250
 72
260
 73
259
 74
247
 0
VERTEX
 8
GRIGLIA2
 10
0
 20
0
 30
0
 70
128
 71
247
 72
259
 73
261
 74
256
 0
VERTEX
 8
GRIGLIA2
 10
0
 20
0
 30
0
 70
128
 71
256
 72
261
 73
262
 74
258
 0
VERTEX
 8
GRIGLIA2
 10
0
 20
0
 30
0
 70
128
 71
258
 72
262
 73
260
 74
250
 0
VERTEX
 8
GRIGLIA2
 10
0
 20
0
 30
0
 70
128
 71
237
 72
265
 73
266
 74
238
 0
VERTEX
 8
GRIGLIA2
 10
0
 20
0
 30
0
 70
128
 71
238
 72
266
 73
263
 74
231
 0
VERTEX
 8
GRIGLIA2
 10
0
 20
0
 30
0
 70
128
 71
231
 72
263
 73
264
 74
234
 0
VERTEX
 8
GRIGLIA2
 10
0
 20
0
 30
0
 70
128
 71
234
 72
264
 73
265
 74
237
 0
VERTEX
 8
GRIGLIA2
 10
0
 20
0
 30
0
 70
128
 71
177
 72
180
 73
39
 74
39
 0
VERTEX
 8
GRIGLIA2
 10
0
 20
0
 30
0
 70
128
 71
177
 72
39
 73
174
 74
174
 0
VERTEX
 8
GRIGLIA2
 10
0
 20
0
 30
0
 70
128
 71
177
 72
174
 73
15
 74
15
 0
VERTEX
 8
GRIGLIA2
 10
0
 20
0
 30
0
 70
128
 71
177
 72
15
 73
171
 74
171
 0
VERTEX
 8
GRIGLIA2
 10
0
 20
0
 30
0
 70
128
 71
177
 72
171
 73
9
 74
9
 0
VERTEX
 8
GRIGLIA2
 10
0
 20
0
 30
0
 70
128
 71
177
 72
9
 73
167
 74
167
 0
VERTEX
 8
GRIGLIA2
 10
0
 20
0
 30
0
 70
128
 71
177
 72
167
 73
252
 74
252
 0
VERTEX
 8
GRIGLIA2
 10
0
 20
0
 30
0
 70
128
 71
25
 72
170
 73
278
 74
278
 0
VERTEX
 8
GRIGLIA2
 10
0
 20
0
 30
0
 70
128
 71
25
 72
273
 73
245
 74
245
 0
VERTEX
 8
GRIGLIA2
 10
0
 20
0
 30
0
 70
128
 71
25
 72
245
 73
251
 74
251
 0
VERTEX
 8
GRIGLIA2
 10
0
 20
0
 30
0
 70
128
 71
170
 72
8
 73
278
 74
278
 0
VERTEX
 8
GRIGLIA2
 10
0
 20
0
 30
0
 70
128
 71
189
 72
67
 73
71
 74
71
 0
VERTEX
 8
GRIGLIA2
 10
0
 20
0
 30
0
 70
128
 71
71
 72
67
 73
191
 74
191
 0
VERTEX
 8
GRIGLIA2
 10
0
 20
0
 30
0
 70
128
 71
191
 72
73
 73
77
 74
77
 0
VERTEX
 8
GRIGLIA2
 10
0
 20
0
 30
0
 70
128
 71
73
 72
193
 73
192
 74
192
 0
VERTEX
 8
GRIGLIA2
 10
0
 20
0
 30
0
 70
128
 71
192
 72
193
 73
79
 74
79
 0
VERTEX
 8
GRIGLIA2
 10
0
 20
0
 30
0
 70
128
 71
79
 72
195
 73
194
 74
194
 0
VERTEX
 8
GRIGLIA2
 10
0
 20
0
 30
0
 70
128
 71
194
 72
195
 73
85
 74
85
 0
VERTEX
 8
GRIGLIA2
 10
0
 20
0
 30
0
 70
128
 71
90
 72
85
 73
197
 74
197
 0
VERTEX
 8
GRIGLIA2
 10
0
 20
0
 30
0
 70
128
 71
197
 72
91
 73
175
 74
175
 0
VERTEX
 8
GRIGLIA2
 10
0
 20
0
 30
0
 70
128
 71
91
 72
199
 73
175
 74
175
 0
VERTEX
 8
GRIGLIA2
 10
0
 20
0
 30
0
 70
128
 71
274
 72
243
 73
244
 74
275
 0
VERTEX
 8
GRIGLIA2
 10
0
 20
0
 30
0
 70
128
 71
244
 72
246
 73
275
 74
275
 0
VERTEX
 8
GRIGLIA2
 10
0
 20
0
 30
0
 70
128
 71
199
 72
97
 73
175
 74
175
 0
VERTEX
 8
GRIGLIA2
 10
0
 20
0
 30
0
 70
128
 71
97
 72
201
 73
175
 74
175
 0
VERTEX
 8
GRIGLIA2
 10
0
 20
0
 30
0
 70
128
 71
201
 72
103
 73
175
 74
175
 0
VERTEX
 8
GRIGLIA2
 10
0
 20
0
 30
0
 70
128
 71
103
 72
203
 73
175
 74
175
 0
VERTEX
 8
GRIGLIA2
 10
0
 20
0
 30
0
 70
128
 71
203
 72
109
 73
175
 74
175
 0
VERTEX
 8
GRIGLIA2
 10
0
 20
0
 30
0
 70
128
 71
109
 72
205
 73
175
 74
175
 0
VERTEX
 8
GRIGLIA2
 10
0
 20
0
 30
0
 70
128
 71
205
 72
115
 73
175
 74
175
 0
VERTEX
 8
GRIGLIA2
 10
0
 20
0
 30
0
 70
128
 71
115
 72
207
 73
175
 74
175
 0
VERTEX
 8
GRIGLIA2
 10
0
 20
0
 30
0
 70
128
 71
284
 72
250
 73
247
 74
282
 0
VERTEX
 8
GRIGLIA2
 10
0
 20
0
 30
0
 70
128
 71
275
 72
246
 73
250
 74
284
 0
VERTEX
 8
GRIGLIA2
 10
0
 20
0
 30
0
 70
128
 71
283
 72
248
 73
249
 74
249
 0
VERTEX
 8
GRIGLIA2
 10
0
 20
0
 30
0
 70
128
 71
273
 72
283
 73
249
 74
245
 0
VERTEX
 8
GRIGLIA2
 10
0
 20
0
 30
0
 70
128
 71
236
 72
235
 73
287
 74
287
 0
VERTEX
 8
GRIGLIA2
 10
0
 20
0
 30
0
 70
128
 71
268
 72
239
 73
236
 74
287
 0
VERTEX
 8
GRIGLIA2
 10
0
 20
0
 30
0
 70
128
 71
288
 72
287
 73
285
 74
289
 0
VERTEX
 8
GRIGLIA2
 10
0
 20
0
 30
0
 70
128
 71
271
 72
3
 73
18
 74
290
 0
VERTEX
 8
GRIGLIA2
 10
0
 20
0
 30
0
 70
128
 71
281
 72
292
 73
291
 74
279
 0
VERTEX
 8
GRIGLIA2
 10
0
 20
0
 30
0
 70
128
 71
279
 72
291
 73
293
 74
282
 0
VERTEX
 8
GRIGLIA2
 10
0
 20
0
 30
0
 70
128
 71
282
 72
293
 73
294
 74
284
 0
VERTEX
 8
GRIGLIA2
 10
0
 20
0
 30
0
 70
128
 71
284
 72
294
 73
292
 74
281
 0
VERTEX
 8
GRIGLIA2
 10
0
 20
0
 30
0
 70
128
 71
289
 72
297
 73
298
 74
290
 0
VERTEX
 8
GRIGLIA2
 10
0
 20
0
 30
0
 70
128
 71
290
 72
298
 73
296
 74
286
 0
VERTEX
 8
GRIGLIA2
 10
0
 20
0
 30
0
 70
128
 71
286
 72
296
 73
295
 74
285
 0
VERTEX
 8
GRIGLIA2
 10
0
 20
0
 30
0
 70
128
 71
285
 72
295
 73
297
 74
289
 0
VERTEX
 8
GRIGLIA2
 10
0
 20
0
 30
0
 70
128
 71
207
 72
121
 73
175
 74
175
 0
VERTEX
 8
GRIGLIA2
 10
0
 20
0
 30
0
 70
128
 71
121
 72
209
 73
175
 74
175
 0
VERTEX
 8
GRIGLIA2
 10
0
 20
0
 30
0
 70
128
 71
209
 72
127
 73
175
 74
175
 0
VERTEX
 8
GRIGLIA2
 10
0
 20
0
 30
0
 70
128
 71
127
 72
169
 73
175
 74
175
 0
VERTEX
 8
GRIGLIA2
 10
0
 20
0
 30
0
 70
128
 71
175
 72
169
 73
229
 74
229
 0
VERTEX
 8
GRIGLIA2
 10
0
 20
0
 30
0
 70
128
 71
229
 72
239
 73
30
 74
30
 0
VERTEX
 8
GRIGLIA2
 10
0
 20
0
 30
0
 70
128
 71
239
 72
268
 73
30
 74
30
 0
VERTEX
 8
GRIGLIA2
 10
0
 20
0
 30
0
 70
128
 71
30
 72
268
 73
272
 74
272
 0
VERTEX
 8
GRIGLIA2
 10
0
 20
0
 30
0
 70
128
 71
272
 72
6
 73
178
 74
178
 0
VERTEX
 8
GRIGLIA2
 10
0
 20
0
 30
0
 70
128
 71
175
 72
17
 73
240
 74
240
 0
VERTEX
 8
GRIGLIA2
 10
0
 20
0
 30
0
 70
128
 71
175
 72
233
 73
210
 74
210
 0
VERTEX
 8
GRIGLIA2
 10
0
 20
0
 30
0
 70
128
 71
175
 72
210
 73
132
 74
132
 0
VERTEX
 8
GRIGLIA2
 10
0
 20
0
 30
0
 70
128
 71
175
 72
132
 73
208
 74
208
 0
VERTEX
 8
GRIGLIA2
 10
0
 20
0
 30
0
 70
128
 71
175
 72
208
 73
126
 74
126
 0
VERTEX
 8
GRIGLIA2
 10
0
 20
0
 30
0
 70
128
 71
175
 72
126
 73
206
 74
206
 0
VERTEX
 8
GRIGLIA2
 10
0
 20
0
 30
0
 70
128
 71
175
 72
206
 73
120
 74
120
 0
VERTEX
 8
GRIGLIA2
 10
0
 20
0
 30
0
 70
128
 71
175
 72
120
 73
204
 74
204
 0
VERTEX
 8
GRIGLIA2
 10
0
 20
0
 30
0
 70
128
 71
175
 72
204
 73
114
 74
114
 0
VERTEX
 8
GRIGLIA2
 10
0
 20
0
 30
0
 70
128
 71
175
 72
114
 73
202
 74
202
 0
VERTEX
 8
GRIGLIA2
 10
0
 20
0
 30
0
 70
128
 71
175
 72
202
 73
108
 74
108
 0
VERTEX
 8
GRIGLIA2
 10
0
 20
0
 30
0
 70
128
 71
175
 72
108
 73
200
 74
200
 0
VERTEX
 8
GRIGLIA2
 10
0
 20
0
 30
0
 70
128
 71
175
 72
200
 73
102
 74
102
 0
VERTEX
 8
GRIGLIA2
 10
0
 20
0
 30
0
 70
128
 71
175
 72
102
 73
198
 74
198
 0
VERTEX
 8
GRIGLIA2
 10
0
 20
0
 30
0
 70
128
 71
175
 72
198
 73
96
 74
96
 0
VERTEX
 8
GRIGLIA2
 10
0
 20
0
 30
0
 70
128
 71
175
 72
96
 73
196
 74
196
 0
VERTEX
 8
GRIGLIA2
 10
0
 20
0
 30
0
 70
128
 71
17
 72
168
 73
270
 74
270
 0
VERTEX
 8
GRIGLIA2
 10
0
 20
0
 30
0
 70
128
 71
17
 72
267
 73
240
 74
240
 0
VERTEX
 8
GRIGLIA2
 10
0
 20
0
 30
0
 70
128
 71
168
 72
4
 73
270
 74
270
 0
VERTEX
 8
GRIGLIA2
 10
0
 20
0
 30
0
 70
128
 71
243
 72
177
 73
252
 74
252
 0
VERTEX
 8
GRIGLIA2
 10
0
 20
0
 30
0
 70
128
 71
177
 72
251
 73
172
 74
172
 0
VERTEX
 8
GRIGLIA2
 10
0
 20
0
 30
0
 70
128
 71
19
 72
277
 73
176
 74
176
 0
VERTEX
 8
GRIGLIA2
 10
0
 20
0
 30
0
 70
128
 71
177
 72
189
 73
188
 74
188
 0
VERTEX
 8
GRIGLIA2
 10
0
 20
0
 30
0
 70
128
 71
25
 72
278
 73
273
 74
273
 0
VERTEX
 8
GRIGLIA2
 10
0
 20
0
 30
0
 70
128
 71
189
 72
71
 73
188
 74
188
 0
VERTEX
 8
GRIGLIA2
 10
0
 20
0
 30
0
 70
128
 71
71
 72
191
 73
190
 74
190
 0
VERTEX
 8
GRIGLIA2
 10
0
 20
0
 30
0
 70
128
 71
191
 72
77
 73
190
 74
190
 0
VERTEX
 8
GRIGLIA2
 10
0
 20
0
 30
0
 70
128
 71
73
 72
192
 73
77
 74
77
 0
VERTEX
 8
GRIGLIA2
 10
0
 20
0
 30
0
 70
128
 71
192
 72
79
 73
81
 74
81
 0
VERTEX
 8
GRIGLIA2
 10
0
 20
0
 30
0
 70
128
 71
79
 72
194
 73
81
 74
81
 0
VERTEX
 8
GRIGLIA2
 10
0
 20
0
 30
0
 70
128
 71
194
 72
85
 73
90
 74
90
 0
VERTEX
 8
GRIGLIA2
 10
0
 20
0
 30
0
 70
128
 71
90
 72
197
 73
196
 74
196
 0
VERTEX
 8
GRIGLIA2
 10
0
 20
0
 30
0
 70
128
 71
197
 72
175
 73
196
 74
196
 0
VERTEX
 8
GRIGLIA2
 10
0
 20
0
 30
0
 70
128
 71
175
 72
229
 73
30
 74
30
 0
VERTEX
 8
GRIGLIA2
 10
0
 20
0
 30
0
 70
128
 71
30
 72
272
 73
178
 74
178
 0
VERTEX
 8
GRIGLIA2
 10
0
 20
0
 30
0
 70
128
 71
175
 72
240
 73
233
 74
233
 0
VERTEX
 8
GRIGLIA2
 10
0
 20
0
 30
0
 70
128
 71
17
 72
270
 73
267
 74
267
 0
SEQEND
 0
POLYLINE
 8
GRIGLIA1
 66
1
 10
0.0
 20
0.0
 30
0.0
 70
64
 71
298
 72
422
 0
VERTEX
 8
GRIGLIA1
 10
-32.5053
 20
-10.2913
 30
1.8192
 70
192
 0
VERTEX
 8
GRIGLIA1
 10
-32.5053
 20
-10.241
 30
2.7179
 70
192
 0
VERTEX
 8
GRIGLIA1
 10
-0.0278
 20
-10.2913
 30
1.8192
 70
192
 0
VERTEX
 8
GRIGLIA1
 10
-0.0278
 20
-10.241
 30
2.7179
 70
192
 0
VERTEX
 8
GRIGLIA1
 10
-0.0278
 20
17.55
 30
0.2626
 70
192
 0
VERTEX
 8
GRIGLIA1
 10
-0.0278
 20
17.6003
 30
1.1613
 70
192
 0
VERTEX
 8
GRIGLIA1
 10
-32.5053
 20
17.55
 30
0.2626
 70
192
 0
VERTEX
 8
GRIGLIA1
 10
-32.5053
 20
17.6003
 30
1.1613
 70
192
 0
VERTEX
 8
GRIGLIA1
 10
-26.6028
 20
-10.241
 30
2.7179
 70
192
 0
VERTEX
 8
GRIGLIA1
 10
-26.6028
 20
-10.2913
 30
1.8192
 70
192
 0
VERTEX
 8
GRIGLIA1
 10
-26.6028
 20
17.6003
 30
1.1613
 70
192
 0
VERTEX
 8
GRIGLIA1
 10
-26.6028
 20
17.55
 30
0.2626
 70
192
 0
VERTEX
 8
GRIGLIA1
 10
-25.916
 20
17.6003
 30
1.1613
 70
192
 0
VERTEX
 8
GRIGLIA1
 10
-25.916
 20
17.55
 30
0.2626
 70
192
 0
VERTEX
 8
GRIGLIA1
 10
-25.916
 20
-10.241
 30
2.7179
 70
192
 0
VERTEX
 8
GRIGLIA1
 10
-25.916
 20
-10.2913
 30
1.8192
 70
192
 0
VERTEX
 8
GRIGLIA1
 10
-0.0278
 20
-9.2392
 30
2.6619
 70
192
 0
VERTEX
 8
GRIGLIA1
 10
-0.0278
 20
-9.2895
 30
1.7632
 70
192
 0
VERTEX
 8
GRIGLIA1
 10
-32.5053
 20
-9.2392
 30
2.6619
 70
192
 0
VERTEX
 8
GRIGLIA1
 10
-32.5053
 20
-9.2895
 30
1.7632
 70
192
 0
VERTEX
 8
GRIGLIA1
 10
-6.6025
 20
16.5866
 30
1.016
 70
192
 0
VERTEX
 8
GRIGLIA1
 10
-26.6028
 20
-9.2895
 30
1.7632
 70
192
 0
VERTEX
 8
GRIGLIA1
 10
-6.6025
 20
-9.2505
 30
2.4606
 70
192
 0
VERTEX
 8
GRIGLIA1
 10
-25.916
 20
-9.2895
 30
1.7632
 70
192
 0
VERTEX
 8
GRIGLIA1
 10
-32.5053
 20
16.5979
 30
1.2174
 70
192
 0
VERTEX
 8
GRIGLIA1
 10
-32.5053
 20
16.5477
 30
0.3187
 70
192
 0
VERTEX
 8
GRIGLIA1
 10
-26.6028
 20
16.5477
 30
0.3187
 70
192
 0
VERTEX
 8
GRIGLIA1
 10
-5.9147
 20
16.5866
 30
1.016
 70
192
 0
VERTEX
 8
GRIGLIA1
 10
-5.9147
 20
-9.2505
 30
2.4606
 70
192
 0
VERTEX
 8
GRIGLIA1
 10
-0.0278
 20
16.5979
 30
1.2174
 70
192
 0
VERTEX
 8
GRIGLIA1
 10
-0.0278
 20
16.5477
 30
0.3187
 70
192
 0
VERTEX
 8
GRIGLIA1
 10
-25.916
 20
16.5477
 30
0.3187
 70
192
 0
VERTEX
 8
GRIGLIA1
 10
-26.6028
 20
-9.2505
 30
2.4606
 70
192
 0
VERTEX
 8
GRIGLIA1
 10
-25.916
 20
-9.2505
 30
2.4606
 70
192
 0
VERTEX
 8
GRIGLIA1
 10
-26.6028
 20
16.5866
 30
1.0161
 70
192
 0
VERTEX
 8
GRIGLIA1
 10
-25.916
 20
16.5866
 30
1.0161
 70
192
 0
VERTEX
 8
GRIGLIA1
 10
-24.1022
 20
17.6003
 30
1.1613
 70
192
 0
VERTEX
 8
GRIGLIA1
 10
-24.1022
 20
17.55
 30
0.2626
 70
192
 0
VERTEX
 8
GRIGLIA1
 10
-24.1022
 20
-10.241
 30
2.7179
 70
192
 0
VERTEX
 8
GRIGLIA1
 10
-24.1022
 20
-10.2913
 30
1.8192
 70
192
 0
VERTEX
 8
GRIGLIA1
 10
-24.1022
 20
-9.2895
 30
1.7632
 70
192
 0
VERTEX
 8
GRIGLIA1
 10
-24.1022
 20
16.5477
 30
0.3187
 70
192
 0
VERTEX
 8
GRIGLIA1
 10
-23.4152
 20
17.6003
 30
1.1613
 70
192
 0
VERTEX
 8
GRIGLIA1
 10
-23.4152
 20
17.55
 30
0.2626
 70
192
 0
VERTEX
 8
GRIGLIA1
 10
-23.4152
 20
16.5477
 30
0.3187
 70
192
 0
VERTEX
 8
GRIGLIA1
 10
-23.4152
 20
-9.2895
 30
1.7632
 70
192
 0
VERTEX
 8
GRIGLIA1
 10
-23.4152
 20
-10.241
 30
2.7179
 70
192
 0
VERTEX
 8
GRIGLIA1
 10
-23.4152
 20
-10.2913
 30
1.8192
 70
192
 0
VERTEX
 8
GRIGLIA1
 10
-21.6028
 20
17.6003
 30
1.1613
 70
192
 0
VERTEX
 8
GRIGLIA1
 10
-21.6028
 20
17.55
 30
0.2626
 70
192
 0
VERTEX
 8
GRIGLIA1
 10
-21.6028
 20
16.5477
 30
0.3187
 70
192
 0
VERTEX
 8
GRIGLIA1
 10
-21.6028
 20
-9.2895
 30
1.7632
 70
192
 0
VERTEX
 8
GRIGLIA1
 10
-21.6028
 20
-10.241
 30
2.7179
 70
192
 0
VERTEX
 8
GRIGLIA1
 10
-21.6028
 20
-10.2913
 30
1.8192
 70
192
 0
VERTEX
 8
GRIGLIA1
 10
-20.9149
 20
17.6003
 30
1.1613
 70
192
 0
VERTEX
 8
GRIGLIA1
 10
-20.9149
 20
17.55
 30
0.2626
 70
192
 0
VERTEX
 8
GRIGLIA1
 10
-20.9149
 20
16.5477
 30
0.3187
 70
192
 0
VERTEX
 8
GRIGLIA1
 10
-20.9149
 20
-9.2895
 30
1.7632
 70
192
 0
VERTEX
 8
GRIGLIA1
 10
-20.9149
 20
-10.241
 30
2.7179
 70
192
 0
VERTEX
 8
GRIGLIA1
 10
-20.9149
 20
-10.2913
 30
1.8192
 70
192
 0
VERTEX
 8
GRIGLIA1
 10
-19.1026
 20
17.6003
 30
1.1613
 70
192
 0
VERTEX
 8
GRIGLIA1
 10
-19.1026
 20
17.55
 30
0.2626
 70
192
 0
VERTEX
 8
GRIGLIA1
 10
-19.1026
 20
16.5477
 30
0.3187
 70
192
 0
VERTEX
 8
GRIGLIA1
 10
-19.1026
 20
-9.2895
 30
1.7632
 70
192
 0
VERTEX
 8
GRIGLIA1
 10
-19.1026
 20
-10.241
 30
2.7179
 70
192
 0
VERTEX
 8
GRIGLIA1
 10
-19.1026
 20
-10.2913
 30
1.8192
 70
192
 0
VERTEX
 8
GRIGLIA1
 10
-18.4144
 20
17.6003
 30
1.1613
 70
192
 0
VERTEX
 8
GRIGLIA1
 10
-18.4144
 20
17.55
 30
0.2626
 70
192
 0
VERTEX
 8
GRIGLIA1
 10
-18.4144
 20
16.5477
 30
0.3187
 70
192
 0
VERTEX
 8
GRIGLIA1
 10
-18.4144
 20
-9.2895
 30
1.7632
 70
192
 0
VERTEX
 8
GRIGLIA1
 10
-18.4144
 20
-10.241
 30
2.7179
 70
192
 0
VERTEX
 8
GRIGLIA1
 10
-18.4144
 20
-10.2913
 30
1.8192
 70
192
 0
VERTEX
 8
GRIGLIA1
 10
-16.603
 20
17.6003
 30
1.1613
 70
192
 0
VERTEX
 8
GRIGLIA1
 10
-16.603
 20
17.55
 30
0.2626
 70
192
 0
VERTEX
 8
GRIGLIA1
 10
-16.603
 20
16.5477
 30
0.3187
 70
192
 0
VERTEX
 8
GRIGLIA1
 10
-16.603
 20
-9.2895
 30
1.7632
 70
192
 0
VERTEX
 8
GRIGLIA1
 10
-16.603
 20
-10.241
 30
2.7179
 70
192
 0
VERTEX
 8
GRIGLIA1
 10
-16.603
 20
-10.2913
 30
1.8192
 70
192
 0
VERTEX
 8
GRIGLIA1
 10
-15.9152
 20
17.6003
 30
1.1613
 70
192
 0
VERTEX
 8
GRIGLIA1
 10
-15.9152
 20
17.55
 30
0.2626
 70
192
 0
VERTEX
 8
GRIGLIA1
 10
-15.9152
 20
-10.241
 30
2.7179
 70
192
 0
VERTEX
 8
GRIGLIA1
 10
-15.9152
 20
-10.2913
 30
1.8192
 70
192
 0
VERTEX
 8
GRIGLIA1
 10
-15.9152
 20
16.5477
 30
0.3187
 70
192
 0
VERTEX
 8
GRIGLIA1
 10
-15.9152
 20
-9.2895
 30
1.7632
 70
192
 0
VERTEX
 8
GRIGLIA1
 10
-14.1028
 20
17.6003
 30
1.1613
 70
192
 0
VERTEX
 8
GRIGLIA1
 10
-14.1028
 20
17.55
 30
0.2626
 70
192
 0
VERTEX
 8
GRIGLIA1
 10
-14.1028
 20
16.5477
 30
0.3187
 70
192
 0
VERTEX
 8
GRIGLIA1
 10
-14.1028
 20
-9.2895
 30
1.7632
 70
192
 0
VERTEX
 8
GRIGLIA1
 10
-14.1028
 20
-10.2913
 30
1.8192
 70
192
 0
VERTEX
 8
GRIGLIA1
 10
-14.1028
 20
-10.241
 30
2.7179
 70
192
 0
VERTEX
 8
GRIGLIA1
 10
-13.4147
 20
17.6003
 30
1.1613
 70
192
 0
VERTEX
 8
GRIGLIA1
 10
-13.4147
 20
17.55
 30
0.2626
 70
192
 0
VERTEX
 8
GRIGLIA1
 10
-13.4147
 20
16.5477
 30
0.3187
 70
192
 0
VERTEX
 8
GRIGLIA1
 10
-13.4147
 20
-9.2895
 30
1.7632
 70
192
 0
VERTEX
 8
GRIGLIA1
 10
-13.4147
 20
-10.2913
 30
1.8192
 70
192
 0
VERTEX
 8
GRIGLIA1
 10
-13.4147
 20
-10.241
 30
2.7179
 70
192
 0
VERTEX
 8
GRIGLIA1
 10
-11.6028
 20
17.6003
 30
1.1613
 70
192
 0
VERTEX
 8
GRIGLIA1
 10
-11.6028
 20
17.55
 30
0.2626
 70
192
 0
VERTEX
 8
GRIGLIA1
 10
-11.6028
 20
16.5477
 30
0.3187
 70
192
 0
VERTEX
 8
GRIGLIA1
 10
-11.6028
 20
-9.2895
 30
1.7632
 70
192
 0
VERTEX
 8
GRIGLIA1
 10
-11.6028
 20
-10.2913
 30
1.8192
 70
192
 0
VERTEX
 8
GRIGLIA1
 10
-11.6028
 20
-10.241
 30
2.7179
 70
192
 0
VERTEX
 8
GRIGLIA1
 10
-10.915
 20
17.6003
 30
1.1613
 70
192
 0
VERTEX
 8
GRIGLIA1
 10
-10.915
 20
17.55
 30
0.2626
 70
192
 0
VERTEX
 8
GRIGLIA1
 10
-10.915
 20
16.5477
 30
0.3187
 70
192
 0
VERTEX
 8
GRIGLIA1
 10
-10.915
 20
-9.2895
 30
1.7632
 70
192
 0
VERTEX
 8
GRIGLIA1
 10
-10.915
 20
-10.2913
 30
1.8192
 70
192
 0
VERTEX
 8
GRIGLIA1
 10
-10.915
 20
-10.241
 30
2.7179
 70
192
 0
VERTEX
 8
GRIGLIA1
 10
-9.098
 20
17.6003
 30
1.1613
 70
192
 0
VERTEX
 8
GRIGLIA1
 10
-9.098
 20
17.55
 30
0.2626
 70
192
 0
VERTEX
 8
GRIGLIA1
 10
-9.098
 20
16.5477
 30
0.3187
 70
192
 0
VERTEX
 8
GRIGLIA1
 10
-9.098
 20
-9.2895
 30
1.7632
 70
192
 0
VERTEX
 8
GRIGLIA1
 10
-9.098
 20
-10.2913
 30
1.8192
 70
192
 0
VERTEX
 8
GRIGLIA1
 10
-9.098
 20
-10.241
 30
2.7179
 70
192
 0
VERTEX
 8
GRIGLIA1
 10
-8.416
 20
17.6003
 30
1.1613
 70
192
 0
VERTEX
 8
GRIGLIA1
 10
-8.416
 20
17.55
 30
0.2626
 70
192
 0
VERTEX
 8
GRIGLIA1
 10
-8.416
 20
16.5477
 30
0.3187
 70
192
 0
VERTEX
 8
GRIGLIA1
 10
-8.416
 20
-9.2895
 30
1.7632
 70
192
 0
VERTEX
 8
GRIGLIA1
 10
-8.416
 20
-10.2913
 30
1.8192
 70
192
 0
VERTEX
 8
GRIGLIA1
 10
-8.416
 20
-10.241
 30
2.7179
 70
192
 0
VERTEX
 8
GRIGLIA1
 10
-6.6024
 20
17.6003
 30
1.1613
 70
192
 0
VERTEX
 8
GRIGLIA1
 10
-6.6024
 20
17.55
 30
0.2626
 70
192
 0
VERTEX
 8
GRIGLIA1
 10
-6.6024
 20
16.5477
 30
0.3187
 70
192
 0
VERTEX
 8
GRIGLIA1
 10
-6.6024
 20
-9.2895
 30
1.7632
 70
192
 0
VERTEX
 8
GRIGLIA1
 10
-6.6024
 20
-10.2913
 30
1.8192
 70
192
 0
VERTEX
 8
GRIGLIA1
 10
-6.6024
 20
-10.241
 30
2.7179
 70
192
 0
VERTEX
 8
GRIGLIA1
 10
-5.9147
 20
17.6003
 30
1.1613
 70
192
 0
VERTEX
 8
GRIGLIA1
 10
-5.9147
 20
17.55
 30
0.2626
 70
192
 0
VERTEX
 8
GRIGLIA1
 10
-5.9147
 20
16.5477
 30
0.3187
 70
192
 0
VERTEX
 8
GRIGLIA1
 10
-5.9147
 20
-9.2895
 30
1.7632
 70
192
 0
VERTEX
 8
GRIGLIA1
 10
-5.9147
 20
-10.2913
 30
1.8192
 70
192
 0
VERTEX
 8
GRIGLIA1
 10
-5.9147
 20
-10.241
 30
2.7179
 70
192
 0
VERTEX
 8
GRIGLIA1
 10
-19.1026
 20
-4.1569
 30
1.4762
 70
192
 0
VERTEX
 8
GRIGLIA1
 10
-18.4144
 20
-4.1569
 30
1.4762
 70
192
 0
VERTEX
 8
GRIGLIA1
 10
-16.603
 20
-4.1569
 30
1.4762
 70
192
 0
VERTEX
 8
GRIGLIA1
 10
-15.9152
 20
-4.1569
 30
1.4762
 70
192
 0
VERTEX
 8
GRIGLIA1
 10
-14.1028
 20
-4.1569
 30
1.4762
 70
192
 0
VERTEX
 8
GRIGLIA1
 10
-13.4147
 20
-4.1569
 30
1.4762
 70
192
 0
VERTEX
 8
GRIGLIA1
 10
-24.1022
 20
-9.2505
 30
2.4606
 70
192
 0
VERTEX
 8
GRIGLIA1
 10
-24.1022
 20
16.5866
 30
1.016
 70
192
 0
VERTEX
 8
GRIGLIA1
 10
-23.4152
 20
16.5866
 30
1.016
 70
192
 0
VERTEX
 8
GRIGLIA1
 10
-23.4152
 20
-9.2505
 30
2.4606
 70
192
 0
VERTEX
 8
GRIGLIA1
 10
-21.6028
 20
16.5866
 30
1.016
 70
192
 0
VERTEX
 8
GRIGLIA1
 10
-21.6028
 20
-9.2505
 30
2.4606
 70
192
 0
VERTEX
 8
GRIGLIA1
 10
-20.915
 20
16.5866
 30
1.016
 70
192
 0
VERTEX
 8
GRIGLIA1
 10
-20.915
 20
-9.2505
 30
2.4606
 70
192
 0
VERTEX
 8
GRIGLIA1
 10
-19.1027
 20
16.5866
 30
1.016
 70
192
 0
VERTEX
 8
GRIGLIA1
 10
-18.4144
 20
16.5866
 30
1.016
 70
192
 0
VERTEX
 8
GRIGLIA1
 10
-19.1027
 20
-4.1179
 30
2.1736
 70
192
 0
VERTEX
 8
GRIGLIA1
 10
-18.4144
 20
-4.1179
 30
2.1736
 70
192
 0
VERTEX
 8
GRIGLIA1
 10
-16.603
 20
16.5866
 30
1.016
 70
192
 0
VERTEX
 8
GRIGLIA1
 10
-15.9152
 20
16.5866
 30
1.016
 70
192
 0
VERTEX
 8
GRIGLIA1
 10
-16.603
 20
-4.1179
 30
2.1736
 70
192
 0
VERTEX
 8
GRIGLIA1
 10
-15.9152
 20
-4.1179
 30
2.1736
 70
192
 0
VERTEX
 8
GRIGLIA1
 10
-14.1028
 20
16.5866
 30
1.016
 70
192
 0
VERTEX
 8
GRIGLIA1
 10
-13.4147
 20
16.5866
 30
1.016
 70
192
 0
VERTEX
 8
GRIGLIA1
 10
-14.1028
 20
-4.1179
 30
2.1736
 70
192
 0
VERTEX
 8
GRIGLIA1
 10
-13.4147
 20
-4.1179
 30
2.1736
 70
192
 0
VERTEX
 8
GRIGLIA1
 10
-11.6028
 20
16.5866
 30
1.016
 70
192
 0
VERTEX
 8
GRIGLIA1
 10
-11.6028
 20
-9.2505
 30
2.4606
 70
192
 0
VERTEX
 8
GRIGLIA1
 10
-10.915
 20
16.5866
 30
1.016
 70
192
 0
VERTEX
 8
GRIGLIA1
 10
-10.915
 20
-9.2505
 30
2.4606
 70
192
 0
VERTEX
 8
GRIGLIA1
 10
-9.098
 20
16.5866
 30
1.016
 70
192
 0
VERTEX
 8
GRIGLIA1
 10
-9.098
 20
-9.2505
 30
2.4606
 70
192
 0
VERTEX
 8
GRIGLIA1
 10
-8.416
 20
16.5866
 30
1.016
 70
192
 0
VERTEX
 8
GRIGLIA1
 10
-8.416
 20
-9.2505
 30
2.4606
 70
192
 0
VERTEX
 8
GRIGLIA1
 10
-27.2187
 20
-10.241
 30
2.7179
 70
192
 0
VERTEX
 8
GRIGLIA1
 10
-0.0278
 20
-9.7401
 30
2.6899
 70
192
 0
VERTEX
 8
GRIGLIA1
 10
-5.2992
 20
17.6003
 30
1.1613
 70
192
 0
VERTEX
 8
GRIGLIA1
 10
-32.5053
 20
17.0991
 30
1.1893
 70
192
 0
VERTEX
 8
GRIGLIA1
 10
-26.2594
 20
-10.241
 30
2.7179
 70
192
 0
VERTEX
 8
GRIGLIA1
 10
-27.2187
 20
17.6003
 30
1.1613
 70
192
 0
VERTEX
 8
GRIGLIA1
 10
-26.2594
 20
17.6003
 30
1.1613
 70
192
 0
VERTEX
 8
GRIGLIA1
 10
-25.0091
 20
-10.241
 30
2.7179
 70
192
 0
VERTEX
 8
GRIGLIA1
 10
-0.0278
 20
2.612
 30
1.9993
 70
192
 0
VERTEX
 8
GRIGLIA1
 10
-32.5053
 20
-9.7401
 30
2.6899
 70
192
 0
VERTEX
 8
GRIGLIA1
 10
-32.5053
 20
2.612
 30
1.9993
 70
192
 0
VERTEX
 8
GRIGLIA1
 10
-0.0278
 20
17.0991
 30
1.1893
 70
192
 0
VERTEX
 8
GRIGLIA1
 10
-25.0091
 20
17.6003
 30
1.1613
 70
192
 0
VERTEX
 8
GRIGLIA1
 10
-23.7587
 20
-10.241
 30
2.7179
 70
192
 0
VERTEX
 8
GRIGLIA1
 10
-23.7587
 20
17.6003
 30
1.1613
 70
192
 0
VERTEX
 8
GRIGLIA1
 10
-22.509
 20
-10.241
 30
2.7179
 70
192
 0
VERTEX
 8
GRIGLIA1
 10
-22.509
 20
17.6003
 30
1.1613
 70
192
 0
VERTEX
 8
GRIGLIA1
 10
-21.2589
 20
-10.241
 30
2.7179
 70
192
 0
VERTEX
 8
GRIGLIA1
 10
-21.2589
 20
17.6003
 30
1.1613
 70
192
 0
VERTEX
 8
GRIGLIA1
 10
-20.0088
 20
-10.241
 30
2.7179
 70
192
 0
VERTEX
 8
GRIGLIA1
 10
-20.0088
 20
17.6003
 30
1.1613
 70
192
 0
VERTEX
 8
GRIGLIA1
 10
-18.7585
 20
-10.241
 30
2.7179
 70
192
 0
VERTEX
 8
GRIGLIA1
 10
-18.7585
 20
17.6003
 30
1.1613
 70
192
 0
VERTEX
 8
GRIGLIA1
 10
-17.5087
 20
-10.241
 30
2.7179
 70
192
 0
VERTEX
 8
GRIGLIA1
 10
-17.5087
 20
17.6003
 30
1.1613
 70
192
 0
VERTEX
 8
GRIGLIA1
 10
-16.2591
 20
-10.241
 30
2.7179
 70
192
 0
VERTEX
 8
GRIGLIA1
 10
-16.2591
 20
17.6003
 30
1.1613
 70
192
 0
VERTEX
 8
GRIGLIA1
 10
-15.009
 20
-10.241
 30
2.7179
 70
192
 0
VERTEX
 8
GRIGLIA1
 10
-15.009
 20
17.6003
 30
1.1613
 70
192
 0
VERTEX
 8
GRIGLIA1
 10
-13.7587
 20
-10.241
 30
2.7179
 70
192
 0
VERTEX
 8
GRIGLIA1
 10
-13.7587
 20
17.6003
 30
1.1613
 70
192
 0
VERTEX
 8
GRIGLIA1
 10
-12.5087
 20
-10.241
 30
2.7179
 70
192
 0
VERTEX
 8
GRIGLIA1
 10
-12.5087
 20
17.6003
 30
1.1613
 70
192
 0
VERTEX
 8
GRIGLIA1
 10
-11.2589
 20
-10.241
 30
2.7179
 70
192
 0
VERTEX
 8
GRIGLIA1
 10
-11.2589
 20
17.6003
 30
1.1613
 70
192
 0
VERTEX
 8
GRIGLIA1
 10
-10.0065
 20
-10.241
 30
2.7179
 70
192
 0
VERTEX
 8
GRIGLIA1
 10
-10.0065
 20
17.6003
 30
1.1613
 70
192
 0
VERTEX
 8
GRIGLIA1
 10
-8.757
 20
-10.241
 30
2.7179
 70
192
 0
VERTEX
 8
GRIGLIA1
 10
-8.757
 20
17.6003
 30
1.1613
 70
192
 0
VERTEX
 8
GRIGLIA1
 10
-7.5092
 20
-10.241
 30
2.7179
 70
192
 0
VERTEX
 8
GRIGLIA1
 10
-7.5092
 20
17.6003
 30
1.1613
 70
192
 0
VERTEX
 8
GRIGLIA1
 10
-6.2586
 20
-10.241
 30
2.7179
 70
192
 0
VERTEX
 8
GRIGLIA1
 10
-6.2586
 20
17.6003
 30
1.1613
 70
192
 0
VERTEX
 8
GRIGLIA1
 10
-5.2992
 20
-10.241
 30
2.7179
 70
192
 0
VERTEX
 8
GRIGLIA1
 10
-14.7094
 20
-5.1508
 30
1.5318
 70
192
 0
VERTEX
 8
GRIGLIA1
 10
-17.8097
 20
-5.1509
 30
1.5318
 70
192
 0
VERTEX
 8
GRIGLIA1
 10
-17.8097
 20
-9.1636
 30
1.7562
 70
192
 0
VERTEX
 8
GRIGLIA1
 10
-14.7094
 20
-9.1636
 30
1.7562
 70
192
 0
VERTEX
 8
GRIGLIA1
 10
-14.7094
 20
-5.157
 30
1.4222
 70
192
 0
VERTEX
 8
GRIGLIA1
 10
-17.8097
 20
-5.157
 30
1.4222
 70
192
 0
VERTEX
 8
GRIGLIA1
 10
-17.8097
 20
-9.1697
 30
1.6466
 70
192
 0
VERTEX
 8
GRIGLIA1
 10
-14.7094
 20
-9.1697
 30
1.6466
 70
192
 0
VERTEX
 8
GRIGLIA1
 10
-15.2499
 20
-5.7059
 30
1.4529
 70
192
 0
VERTEX
 8
GRIGLIA1
 10
-17.269
 20
-5.7059
 30
1.4529
 70
192
 0
VERTEX
 8
GRIGLIA1
 10
-17.269
 20
-6.6057
 30
1.5032
 70
192
 0
VERTEX
 8
GRIGLIA1
 10
-15.2499
 20
-6.6057
 30
1.5032
 70
192
 0
VERTEX
 8
GRIGLIA1
 10
-15.4499
 20
-5.7633
 30
1.5585
 70
192
 0
VERTEX
 8
GRIGLIA1
 10
-17.069
 20
-5.7634
 30
1.5585
 70
192
 0
VERTEX
 8
GRIGLIA1
 10
-17.069
 20
-6.5999
 30
1.6053
 70
192
 0
VERTEX
 8
GRIGLIA1
 10
-15.4499
 20
-6.5999
 30
1.6053
 70
192
 0
VERTEX
 8
GRIGLIA1
 10
-4.1034
 20
-10.2517
 30
2.5275
 70
192
 0
VERTEX
 8
GRIGLIA1
 10
-4.1034
 20
-10.2913
 30
1.8192
 70
192
 0
VERTEX
 8
GRIGLIA1
 10
-4.1034
 20
17.6003
 30
1.1613
 70
192
 0
VERTEX
 8
GRIGLIA1
 10
-4.1034
 20
17.5896
 30
0.971
 70
192
 0
VERTEX
 8
GRIGLIA1
 10
-4.1034
 20
-9.2895
 30
1.7632
 70
192
 0
VERTEX
 8
GRIGLIA1
 10
-4.1034
 20
17.55
 30
0.2626
 70
192
 0
VERTEX
 8
GRIGLIA1
 10
-4.1034
 20
-10.241
 30
2.7179
 70
192
 0
VERTEX
 8
GRIGLIA1
 10
-4.1034
 20
16.5477
 30
0.3187
 70
192
 0
VERTEX
 8
GRIGLIA1
 10
-3.4152
 20
17.55
 30
0.2626
 70
192
 0
VERTEX
 8
GRIGLIA1
 10
-3.4152
 20
17.5741
 30
0.6927
 70
192
 0
VERTEX
 8
GRIGLIA1
 10
-3.4152
 20
16.5477
 30
0.3187
 70
192
 0
VERTEX
 8
GRIGLIA1
 10
-3.4152
 20
-9.2895
 30
1.7632
 70
192
 0
VERTEX
 8
GRIGLIA1
 10
-3.4152
 20
17.6003
 30
1.1613
 70
192
 0
VERTEX
 8
GRIGLIA1
 10
-3.4152
 20
-10.241
 30
2.7179
 70
192
 0
VERTEX
 8
GRIGLIA1
 10
-3.4152
 20
-10.2672
 30
2.2492
 70
192
 0
VERTEX
 8
GRIGLIA1
 10
-3.4152
 20
-10.2913
 30
1.8192
 70
192
 0
VERTEX
 8
GRIGLIA1
 10
-29.1035
 20
-10.241
 30
2.7179
 70
192
 0
VERTEX
 8
GRIGLIA1
 10
-29.1035
 20
-10.269
 30
2.2167
 70
192
 0
VERTEX
 8
GRIGLIA1
 10
-29.1035
 20
17.6003
 30
1.1613
 70
192
 0
VERTEX
 8
GRIGLIA1
 10
-29.1035
 20
-10.2913
 30
1.8192
 70
192
 0
VERTEX
 8
GRIGLIA1
 10
-29.1035
 20
16.5477
 30
0.3187
 70
192
 0
VERTEX
 8
GRIGLIA1
 10
-29.1035
 20
17.55
 30
0.2626
 70
192
 0
VERTEX
 8
GRIGLIA1
 10
-29.1035
 20
17.5723
 30
0.6601
 70
192
 0
VERTEX
 8
GRIGLIA1
 10
-29.1035
 20
-9.2895
 30
1.7632
 70
192
 0
VERTEX
 8
GRIGLIA1
 10
-28.4152
 20
17.6003
 30
1.1613
 70
192
 0
VERTEX
 8
GRIGLIA1
 10
-28.4152
 20
-10.241
 30
2.7179
 70
192
 0
VERTEX
 8
GRIGLIA1
 10
-28.4152
 20
-10.2603
 30
2.3736
 70
192
 0
VERTEX
 8
GRIGLIA1
 10
-28.4152
 20
17.581
 30
0.8171
 70
192
 0
VERTEX
 8
GRIGLIA1
 10
-28.4152
 20
-10.2913
 30
1.8192
 70
192
 0
VERTEX
 8
GRIGLIA1
 10
-28.4152
 20
16.5477
 30
0.3187
 70
192
 0
VERTEX
 8
GRIGLIA1
 10
-28.4152
 20
17.55
 30
0.2626
 70
192
 0
VERTEX
 8
GRIGLIA1
 10
-28.4152
 20
-9.2895
 30
1.7632
 70
192
 0
VERTEX
 8
GRIGLIA1
 10
-29.1032
 20
16.5869
 30
1.0156
 70
192
 0
VERTEX
 8
GRIGLIA1
 10
-29.1032
 20
-9.2506
 30
2.4602
 70
192
 0
VERTEX
 8
GRIGLIA1
 10
-28.4152
 20
16.5869
 30
1.0156
 70
192
 0
VERTEX
 8
GRIGLIA1
 10
-28.4152
 20
-9.2506
 30
2.4602
 70
192
 0
VERTEX
 8
GRIGLIA1
 10
-4.1032
 20
-9.2506
 30
2.4602
 70
192
 0
VERTEX
 8
GRIGLIA1
 10
-4.1032
 20
16.5869
 30
1.0156
 70
192
 0
VERTEX
 8
GRIGLIA1
 10
-3.4152
 20
16.5869
 30
1.0156
 70
192
 0
VERTEX
 8
GRIGLIA1
 10
-3.4152
 20
-9.2506
 30
2.4602
 70
192
 0
VERTEX
 8
GRIGLIA1
 10
-1.6096
 20
-10.241
 30
2.7179
 70
192
 0
VERTEX
 8
GRIGLIA1
 10
-1.6096
 20
17.6003
 30
1.1613
 70
192
 0
VERTEX
 8
GRIGLIA1
 10
-1.6096
 20
-10.2913
 30
1.8192
 70
192
 0
VERTEX
 8
GRIGLIA1
 10
-0.9216
 20
-10.241
 30
2.7179
 70
192
 0
VERTEX
 8
GRIGLIA1
 10
-0.9216
 20
-10.2913
 30
1.8192
 70
192
 0
VERTEX
 8
GRIGLIA1
 10
-0.9216
 20
17.6003
 30
1.1613
 70
192
 0
VERTEX
 8
GRIGLIA1
 10
-30.9208
 20
17.6003
 30
1.1613
 70
192
 0
VERTEX
 8
GRIGLIA1
 10
-30.9208
 20
-10.241
 30
2.7179
 70
192
 0
VERTEX
 8
GRIGLIA1
 10
-30.9208
 20
-10.2913
 30
1.8192
 70
192
 0
VERTEX
 8
GRIGLIA1
 10
-31.6089
 20
-10.2913
 30
1.8192
 70
192
 0
VERTEX
 8
GRIGLIA1
 10
-31.6089
 20
-10.241
 30
2.7179
 70
192
 0
VERTEX
 8
GRIGLIA1
 10
-31.6089
 20
17.6003
 30
1.1613
 70
192
 0
VERTEX
 8
GRIGLIA1
 10
-31.6089
 20
16.5477
 30
0.3187
 70
192
 0
VERTEX
 8
GRIGLIA1
 10
-31.6089
 20
17.55
 30
0.2626
 70
192
 0
VERTEX
 8
GRIGLIA1
 10
-31.6089
 20
-9.2895
 30
1.7632
 70
192
 0
VERTEX
 8
GRIGLIA1
 10
-30.9208
 20
16.5477
 30
0.3187
 70
192
 0
VERTEX
 8
GRIGLIA1
 10
-30.9208
 20
17.55
 30
0.2626
 70
192
 0
VERTEX
 8
GRIGLIA1
 10
-30.9208
 20
-9.2895
 30
1.7632
 70
192
 0
VERTEX
 8
GRIGLIA1
 10
-1.6096
 20
16.5477
 30
0.3187
 70
192
 0
VERTEX
 8
GRIGLIA1
 10
-1.6096
 20
-9.2895
 30
1.7632
 70
192
 0
VERTEX
 8
GRIGLIA1
 10
-1.6096
 20
17.55
 30
0.2626
 70
192
 0
VERTEX
 8
GRIGLIA1
 10
-0.9216
 20
17.55
 30
0.2626
 70
192
 0
VERTEX
 8
GRIGLIA1
 10
-0.9216
 20
16.5477
 30
0.3187
 70
192
 0
VERTEX
 8
GRIGLIA1
 10
-0.9216
 20
-9.2895
 30
1.7632
 70
192
 0
VERTEX
 8
GRIGLIA1
 10
-31.6092
 20
16.5865
 30
1.0157
 70
192
 0
VERTEX
 8
GRIGLIA1
 10
-31.6092
 20
-9.2502
 30
2.4601
 70
192
 0
VERTEX
 8
GRIGLIA1
 10
-30.9212
 20
16.5865
 30
1.0157
 70
192
 0
VERTEX
 8
GRIGLIA1
 10
-30.9212
 20
-9.2502
 30
2.4601
 70
192
 0
VERTEX
 8
GRIGLIA1
 10
-1.6092
 20
16.5865
 30
1.0157
 70
192
 0
VERTEX
 8
GRIGLIA1
 10
-1.6092
 20
-9.2502
 30
2.4601
 70
192
 0
VERTEX
 8
GRIGLIA1
 10
-0.9212
 20
16.5865
 30
1.0157
 70
192
 0
VERTEX
 8
GRIGLIA1
 10
-0.9212
 20
-9.2502
 30
2.4601
 70
192
 0
VERTEX
 8
GRIGLIA1
 10
0
 20
0
 30
0
 70
128
 71
167
 72
9
 73
10
 74
10
 0
VERTEX
 8
GRIGLIA1
 10
0
 20
0
 30
0
 70
128
 71
167
 72
253
 73
252
 74
252
 0
VERTEX
 8
GRIGLIA1
 10
0
 20
0
 30
0
 70
128
 71
275
 72
276
 73
277
 74
274
 0
VERTEX
 8
GRIGLIA1
 10
0
 20
0
 30
0
 70
128
 71
4
 72
168
 73
3
 74
3
 0
VERTEX
 8
GRIGLIA1
 10
0
 20
0
 30
0
 70
128
 71
168
 72
17
 73
18
 74
18
 0
VERTEX
 8
GRIGLIA1
 10
0
 20
0
 30
0
 70
128
 71
168
 72
18
 73
3
 74
3
 0
VERTEX
 8
GRIGLIA1
 10
0
 20
0
 30
0
 70
128
 71
169
 72
230
 73
229
 74
229
 0
VERTEX
 8
GRIGLIA1
 10
0
 20
0
 30
0
 70
128
 71
169
 72
127
 73
128
 74
128
 0
VERTEX
 8
GRIGLIA1
 10
0
 20
0
 30
0
 70
128
 71
285
 72
237
 73
238
 74
286
 0
VERTEX
 8
GRIGLIA1
 10
0
 20
0
 30
0
 70
128
 71
8
 72
170
 73
7
 74
7
 0
VERTEX
 8
GRIGLIA1
 10
0
 20
0
 30
0
 70
128
 71
170
 72
25
 73
26
 74
26
 0
VERTEX
 8
GRIGLIA1
 10
0
 20
0
 30
0
 70
128
 71
170
 72
26
 73
7
 74
7
 0
VERTEX
 8
GRIGLIA1
 10
0
 20
0
 30
0
 70
128
 71
7
 72
26
 73
279
 74
280
 0
VERTEX
 8
GRIGLIA1
 10
0
 20
0
 30
0
 70
128
 71
9
 72
171
 73
10
 74
10
 0
VERTEX
 8
GRIGLIA1
 10
0
 20
0
 30
0
 70
128
 71
171
 72
15
 73
16
 74
16
 0
VERTEX
 8
GRIGLIA1
 10
0
 20
0
 30
0
 70
128
 71
171
 72
16
 73
10
 74
10
 0
VERTEX
 8
GRIGLIA1
 10
0
 20
0
 30
0
 70
128
 71
172
 72
254
 73
257
 74
12
 0
VERTEX
 8
GRIGLIA1
 10
0
 20
0
 30
0
 70
128
 71
172
 72
251
 73
254
 74
254
 0
VERTEX
 8
GRIGLIA1
 10
0
 20
0
 30
0
 70
128
 71
278
 72
8
 73
7
 74
280
 0
VERTEX
 8
GRIGLIA1
 10
0
 20
0
 30
0
 70
128
 71
10
 72
16
 73
24
 74
22
 0
VERTEX
 8
GRIGLIA1
 10
0
 20
0
 30
0
 70
128
 71
13
 72
173
 73
14
 74
14
 0
VERTEX
 8
GRIGLIA1
 10
0
 20
0
 30
0
 70
128
 71
173
 72
11
 73
12
 74
12
 0
VERTEX
 8
GRIGLIA1
 10
0
 20
0
 30
0
 70
128
 71
173
 72
12
 73
14
 74
14
 0
VERTEX
 8
GRIGLIA1
 10
0
 20
0
 30
0
 70
128
 71
15
 72
174
 73
16
 74
16
 0
VERTEX
 8
GRIGLIA1
 10
0
 20
0
 30
0
 70
128
 71
174
 72
39
 73
40
 74
40
 0
VERTEX
 8
GRIGLIA1
 10
0
 20
0
 30
0
 70
128
 71
174
 72
40
 73
16
 74
16
 0
VERTEX
 8
GRIGLIA1
 10
0
 20
0
 30
0
 70
128
 71
16
 72
40
 73
41
 74
24
 0
VERTEX
 8
GRIGLIA1
 10
0
 20
0
 30
0
 70
128
 71
17
 72
175
 73
18
 74
18
 0
VERTEX
 8
GRIGLIA1
 10
0
 20
0
 30
0
 70
128
 71
175
 72
30
 73
31
 74
31
 0
VERTEX
 8
GRIGLIA1
 10
0
 20
0
 30
0
 70
128
 71
175
 72
31
 73
18
 74
18
 0
VERTEX
 8
GRIGLIA1
 10
0
 20
0
 30
0
 70
128
 71
19
 72
176
 73
20
 74
20
 0
VERTEX
 8
GRIGLIA1
 10
0
 20
0
 30
0
 70
128
 71
176
 72
2
 73
1
 74
1
 0
VERTEX
 8
GRIGLIA1
 10
0
 20
0
 30
0
 70
128
 71
176
 72
1
 73
20
 74
20
 0
VERTEX
 8
GRIGLIA1
 10
0
 20
0
 30
0
 70
128
 71
20
 72
1
 73
276
 74
281
 0
VERTEX
 8
GRIGLIA1
 10
0
 20
0
 30
0
 70
128
 71
34
 72
36
 73
35
 74
33
 0
VERTEX
 8
GRIGLIA1
 10
0
 20
0
 30
0
 70
128
 71
18
 72
31
 73
289
 74
290
 0
VERTEX
 8
GRIGLIA1
 10
0
 20
0
 30
0
 70
128
 71
25
 72
177
 73
26
 74
26
 0
VERTEX
 8
GRIGLIA1
 10
0
 20
0
 30
0
 70
128
 71
177
 72
19
 73
20
 74
20
 0
VERTEX
 8
GRIGLIA1
 10
0
 20
0
 30
0
 70
128
 71
177
 72
20
 73
26
 74
26
 0
VERTEX
 8
GRIGLIA1
 10
0
 20
0
 30
0
 70
128
 71
26
 72
20
 73
281
 74
279
 0
VERTEX
 8
GRIGLIA1
 10
0
 20
0
 30
0
 70
128
 71
30
 72
178
 73
31
 74
31
 0
VERTEX
 8
GRIGLIA1
 10
0
 20
0
 30
0
 70
128
 71
178
 72
6
 73
5
 74
5
 0
VERTEX
 8
GRIGLIA1
 10
0
 20
0
 30
0
 70
128
 71
178
 72
5
 73
31
 74
31
 0
VERTEX
 8
GRIGLIA1
 10
0
 20
0
 30
0
 70
128
 71
32
 72
14
 73
12
 74
27
 0
VERTEX
 8
GRIGLIA1
 10
0
 20
0
 30
0
 70
128
 71
31
 72
5
 73
288
 74
289
 0
VERTEX
 8
GRIGLIA1
 10
0
 20
0
 30
0
 70
128
 71
24
 72
34
 73
33
 74
22
 0
VERTEX
 8
GRIGLIA1
 10
0
 20
0
 30
0
 70
128
 71
22
 72
33
 73
35
 74
27
 0
VERTEX
 8
GRIGLIA1
 10
0
 20
0
 30
0
 70
128
 71
27
 72
35
 73
36
 74
32
 0
VERTEX
 8
GRIGLIA1
 10
0
 20
0
 30
0
 70
128
 71
32
 72
36
 73
34
 74
24
 0
VERTEX
 8
GRIGLIA1
 10
0
 20
0
 30
0
 70
128
 71
37
 72
179
 73
38
 74
38
 0
VERTEX
 8
GRIGLIA1
 10
0
 20
0
 30
0
 70
128
 71
179
 72
13
 73
14
 74
14
 0
VERTEX
 8
GRIGLIA1
 10
0
 20
0
 30
0
 70
128
 71
179
 72
14
 73
38
 74
38
 0
VERTEX
 8
GRIGLIA1
 10
0
 20
0
 30
0
 70
128
 71
39
 72
180
 73
40
 74
40
 0
VERTEX
 8
GRIGLIA1
 10
0
 20
0
 30
0
 70
128
 71
180
 72
47
 73
48
 74
48
 0
VERTEX
 8
GRIGLIA1
 10
0
 20
0
 30
0
 70
128
 71
180
 72
48
 73
40
 74
40
 0
VERTEX
 8
GRIGLIA1
 10
0
 20
0
 30
0
 70
128
 71
40
 72
48
 73
46
 74
41
 0
VERTEX
 8
GRIGLIA1
 10
0
 20
0
 30
0
 70
128
 71
42
 72
32
 73
24
 74
41
 0
VERTEX
 8
GRIGLIA1
 10
0
 20
0
 30
0
 70
128
 71
38
 72
14
 73
32
 74
42
 0
VERTEX
 8
GRIGLIA1
 10
0
 20
0
 30
0
 70
128
 71
43
 72
181
 73
44
 74
44
 0
VERTEX
 8
GRIGLIA1
 10
0
 20
0
 30
0
 70
128
 71
181
 72
37
 73
38
 74
38
 0
VERTEX
 8
GRIGLIA1
 10
0
 20
0
 30
0
 70
128
 71
181
 72
38
 73
44
 74
44
 0
VERTEX
 8
GRIGLIA1
 10
0
 20
0
 30
0
 70
128
 71
141
 72
140
 73
139
 74
142
 0
VERTEX
 8
GRIGLIA1
 10
0
 20
0
 30
0
 70
128
 71
44
 72
38
 73
42
 74
45
 0
VERTEX
 8
GRIGLIA1
 10
0
 20
0
 30
0
 70
128
 71
47
 72
182
 73
48
 74
48
 0
VERTEX
 8
GRIGLIA1
 10
0
 20
0
 30
0
 70
128
 71
182
 72
53
 73
54
 74
54
 0
VERTEX
 8
GRIGLIA1
 10
0
 20
0
 30
0
 70
128
 71
182
 72
54
 73
48
 74
48
 0
VERTEX
 8
GRIGLIA1
 10
0
 20
0
 30
0
 70
128
 71
48
 72
54
 73
52
 74
46
 0
VERTEX
 8
GRIGLIA1
 10
0
 20
0
 30
0
 70
128
 71
49
 72
183
 73
50
 74
50
 0
VERTEX
 8
GRIGLIA1
 10
0
 20
0
 30
0
 70
128
 71
183
 72
43
 73
44
 74
44
 0
VERTEX
 8
GRIGLIA1
 10
0
 20
0
 30
0
 70
128
 71
183
 72
44
 73
50
 74
50
 0
VERTEX
 8
GRIGLIA1
 10
0
 20
0
 30
0
 70
128
 71
51
 72
45
 73
46
 74
52
 0
VERTEX
 8
GRIGLIA1
 10
0
 20
0
 30
0
 70
128
 71
50
 72
44
 73
45
 74
51
 0
VERTEX
 8
GRIGLIA1
 10
0
 20
0
 30
0
 70
128
 71
53
 72
184
 73
54
 74
54
 0
VERTEX
 8
GRIGLIA1
 10
0
 20
0
 30
0
 70
128
 71
184
 72
59
 73
60
 74
60
 0
VERTEX
 8
GRIGLIA1
 10
0
 20
0
 30
0
 70
128
 71
184
 72
60
 73
54
 74
54
 0
VERTEX
 8
GRIGLIA1
 10
0
 20
0
 30
0
 70
128
 71
54
 72
60
 73
58
 74
52
 0
VERTEX
 8
GRIGLIA1
 10
0
 20
0
 30
0
 70
128
 71
55
 72
185
 73
56
 74
56
 0
VERTEX
 8
GRIGLIA1
 10
0
 20
0
 30
0
 70
128
 71
185
 72
49
 73
50
 74
50
 0
VERTEX
 8
GRIGLIA1
 10
0
 20
0
 30
0
 70
128
 71
185
 72
50
 73
56
 74
56
 0
VERTEX
 8
GRIGLIA1
 10
0
 20
0
 30
0
 70
128
 71
145
 72
143
 73
144
 74
146
 0
VERTEX
 8
GRIGLIA1
 10
0
 20
0
 30
0
 70
128
 71
56
 72
50
 73
51
 74
57
 0
VERTEX
 8
GRIGLIA1
 10
0
 20
0
 30
0
 70
128
 71
59
 72
186
 73
60
 74
60
 0
VERTEX
 8
GRIGLIA1
 10
0
 20
0
 30
0
 70
128
 71
186
 72
65
 73
66
 74
66
 0
VERTEX
 8
GRIGLIA1
 10
0
 20
0
 30
0
 70
128
 71
186
 72
66
 73
60
 74
60
 0
VERTEX
 8
GRIGLIA1
 10
0
 20
0
 30
0
 70
128
 71
60
 72
66
 73
64
 74
58
 0
VERTEX
 8
GRIGLIA1
 10
0
 20
0
 30
0
 70
128
 71
61
 72
187
 73
62
 74
62
 0
VERTEX
 8
GRIGLIA1
 10
0
 20
0
 30
0
 70
128
 71
187
 72
55
 73
56
 74
56
 0
VERTEX
 8
GRIGLIA1
 10
0
 20
0
 30
0
 70
128
 71
187
 72
56
 73
62
 74
62
 0
VERTEX
 8
GRIGLIA1
 10
0
 20
0
 30
0
 70
128
 71
62
 72
56
 73
57
 74
63
 0
VERTEX
 8
GRIGLIA1
 10
0
 20
0
 30
0
 70
128
 71
65
 72
188
 73
66
 74
66
 0
VERTEX
 8
GRIGLIA1
 10
0
 20
0
 30
0
 70
128
 71
188
 72
71
 73
72
 74
72
 0
VERTEX
 8
GRIGLIA1
 10
0
 20
0
 30
0
 70
128
 71
188
 72
72
 73
66
 74
66
 0
VERTEX
 8
GRIGLIA1
 10
0
 20
0
 30
0
 70
128
 71
66
 72
72
 73
70
 74
64
 0
VERTEX
 8
GRIGLIA1
 10
0
 20
0
 30
0
 70
128
 71
67
 72
189
 73
68
 74
68
 0
VERTEX
 8
GRIGLIA1
 10
0
 20
0
 30
0
 70
128
 71
189
 72
61
 73
62
 74
62
 0
VERTEX
 8
GRIGLIA1
 10
0
 20
0
 30
0
 70
128
 71
189
 72
62
 73
68
 74
68
 0
VERTEX
 8
GRIGLIA1
 10
0
 20
0
 30
0
 70
128
 71
148
 72
147
 73
149
 74
150
 0
VERTEX
 8
GRIGLIA1
 10
0
 20
0
 30
0
 70
128
 71
68
 72
62
 73
63
 74
69
 0
VERTEX
 8
GRIGLIA1
 10
0
 20
0
 30
0
 70
128
 71
71
 72
190
 73
72
 74
72
 0
VERTEX
 8
GRIGLIA1
 10
0
 20
0
 30
0
 70
128
 71
190
 72
77
 73
78
 74
78
 0
VERTEX
 8
GRIGLIA1
 10
0
 20
0
 30
0
 70
128
 71
190
 72
78
 73
72
 74
72
 0
VERTEX
 8
GRIGLIA1
 10
0
 20
0
 30
0
 70
128
 71
72
 72
78
 73
76
 74
70
 0
VERTEX
 8
GRIGLIA1
 10
0
 20
0
 30
0
 70
128
 71
73
 72
191
 73
74
 74
74
 0
VERTEX
 8
GRIGLIA1
 10
0
 20
0
 30
0
 70
128
 71
191
 72
67
 73
68
 74
68
 0
VERTEX
 8
GRIGLIA1
 10
0
 20
0
 30
0
 70
128
 71
191
 72
68
 73
74
 74
74
 0
VERTEX
 8
GRIGLIA1
 10
0
 20
0
 30
0
 70
128
 71
75
 72
69
 73
134
 74
135
 0
VERTEX
 8
GRIGLIA1
 10
0
 20
0
 30
0
 70
128
 71
74
 72
68
 73
69
 74
75
 0
VERTEX
 8
GRIGLIA1
 10
0
 20
0
 30
0
 70
128
 71
77
 72
192
 73
78
 74
78
 0
VERTEX
 8
GRIGLIA1
 10
0
 20
0
 30
0
 70
128
 71
192
 72
81
 73
82
 74
82
 0
VERTEX
 8
GRIGLIA1
 10
0
 20
0
 30
0
 70
128
 71
192
 72
82
 73
78
 74
78
 0
VERTEX
 8
GRIGLIA1
 10
0
 20
0
 30
0
 70
128
 71
78
 72
82
 73
84
 74
76
 0
VERTEX
 8
GRIGLIA1
 10
0
 20
0
 30
0
 70
128
 71
79
 72
193
 73
80
 74
80
 0
VERTEX
 8
GRIGLIA1
 10
0
 20
0
 30
0
 70
128
 71
193
 72
73
 73
74
 74
74
 0
VERTEX
 8
GRIGLIA1
 10
0
 20
0
 30
0
 70
128
 71
193
 72
74
 73
80
 74
80
 0
VERTEX
 8
GRIGLIA1
 10
0
 20
0
 30
0
 70
128
 71
81
 72
194
 73
82
 74
82
 0
VERTEX
 8
GRIGLIA1
 10
0
 20
0
 30
0
 70
128
 71
194
 72
90
 73
89
 74
89
 0
VERTEX
 8
GRIGLIA1
 10
0
 20
0
 30
0
 70
128
 71
194
 72
89
 73
82
 74
82
 0
VERTEX
 8
GRIGLIA1
 10
0
 20
0
 30
0
 70
128
 71
152
 72
151
 73
153
 74
154
 0
VERTEX
 8
GRIGLIA1
 10
0
 20
0
 30
0
 70
128
 71
80
 72
74
 73
75
 74
83
 0
VERTEX
 8
GRIGLIA1
 10
0
 20
0
 30
0
 70
128
 71
82
 72
89
 73
88
 74
84
 0
VERTEX
 8
GRIGLIA1
 10
0
 20
0
 30
0
 70
128
 71
85
 72
195
 73
86
 74
86
 0
VERTEX
 8
GRIGLIA1
 10
0
 20
0
 30
0
 70
128
 71
195
 72
79
 73
80
 74
80
 0
VERTEX
 8
GRIGLIA1
 10
0
 20
0
 30
0
 70
128
 71
195
 72
80
 73
86
 74
86
 0
VERTEX
 8
GRIGLIA1
 10
0
 20
0
 30
0
 70
128
 71
87
 72
83
 73
136
 74
137
 0
VERTEX
 8
GRIGLIA1
 10
0
 20
0
 30
0
 70
128
 71
89
 72
95
 73
94
 74
88
 0
VERTEX
 8
GRIGLIA1
 10
0
 20
0
 30
0
 70
128
 71
86
 72
80
 73
83
 74
87
 0
VERTEX
 8
GRIGLIA1
 10
0
 20
0
 30
0
 70
128
 71
90
 72
196
 73
89
 74
89
 0
VERTEX
 8
GRIGLIA1
 10
0
 20
0
 30
0
 70
128
 71
196
 72
96
 73
95
 74
95
 0
VERTEX
 8
GRIGLIA1
 10
0
 20
0
 30
0
 70
128
 71
196
 72
95
 73
89
 74
89
 0
VERTEX
 8
GRIGLIA1
 10
0
 20
0
 30
0
 70
128
 71
91
 72
197
 73
92
 74
92
 0
VERTEX
 8
GRIGLIA1
 10
0
 20
0
 30
0
 70
128
 71
197
 72
85
 73
86
 74
86
 0
VERTEX
 8
GRIGLIA1
 10
0
 20
0
 30
0
 70
128
 71
197
 72
86
 73
92
 74
92
 0
VERTEX
 8
GRIGLIA1
 10
0
 20
0
 30
0
 70
128
 71
156
 72
155
 73
157
 74
158
 0
VERTEX
 8
GRIGLIA1
 10
0
 20
0
 30
0
 70
128
 71
92
 72
86
 73
87
 74
93
 0
VERTEX
 8
GRIGLIA1
 10
0
 20
0
 30
0
 70
128
 71
95
 72
101
 73
100
 74
94
 0
VERTEX
 8
GRIGLIA1
 10
0
 20
0
 30
0
 70
128
 71
96
 72
198
 73
95
 74
95
 0
VERTEX
 8
GRIGLIA1
 10
0
 20
0
 30
0
 70
128
 71
198
 72
102
 73
101
 74
101
 0
VERTEX
 8
GRIGLIA1
 10
0
 20
0
 30
0
 70
128
 71
198
 72
101
 73
95
 74
95
 0
VERTEX
 8
GRIGLIA1
 10
0
 20
0
 30
0
 70
128
 71
97
 72
199
 73
98
 74
98
 0
VERTEX
 8
GRIGLIA1
 10
0
 20
0
 30
0
 70
128
 71
199
 72
91
 73
92
 74
92
 0
VERTEX
 8
GRIGLIA1
 10
0
 20
0
 30
0
 70
128
 71
199
 72
92
 73
98
 74
98
 0
VERTEX
 8
GRIGLIA1
 10
0
 20
0
 30
0
 70
128
 71
98
 72
92
 73
93
 74
99
 0
VERTEX
 8
GRIGLIA1
 10
0
 20
0
 30
0
 70
128
 71
101
 72
107
 73
106
 74
100
 0
VERTEX
 8
GRIGLIA1
 10
0
 20
0
 30
0
 70
128
 71
102
 72
200
 73
101
 74
101
 0
VERTEX
 8
GRIGLIA1
 10
0
 20
0
 30
0
 70
128
 71
200
 72
108
 73
107
 74
107
 0
VERTEX
 8
GRIGLIA1
 10
0
 20
0
 30
0
 70
128
 71
200
 72
107
 73
101
 74
101
 0
VERTEX
 8
GRIGLIA1
 10
0
 20
0
 30
0
 70
128
 71
100
 72
160
 73
159
 74
99
 0
VERTEX
 8
GRIGLIA1
 10
0
 20
0
 30
0
 70
128
 71
99
 72
159
 73
161
 74
105
 0
VERTEX
 8
GRIGLIA1
 10
0
 20
0
 30
0
 70
128
 71
103
 72
201
 73
104
 74
104
 0
VERTEX
 8
GRIGLIA1
 10
0
 20
0
 30
0
 70
128
 71
201
 72
97
 73
98
 74
98
 0
VERTEX
 8
GRIGLIA1
 10
0
 20
0
 30
0
 70
128
 71
201
 72
98
 73
104
 74
104
 0
VERTEX
 8
GRIGLIA1
 10
0
 20
0
 30
0
 70
128
 71
161
 72
159
 73
160
 74
162
 0
VERTEX
 8
GRIGLIA1
 10
0
 20
0
 30
0
 70
128
 71
104
 72
98
 73
99
 74
105
 0
VERTEX
 8
GRIGLIA1
 10
0
 20
0
 30
0
 70
128
 71
107
 72
113
 73
112
 74
106
 0
VERTEX
 8
GRIGLIA1
 10
0
 20
0
 30
0
 70
128
 71
108
 72
202
 73
107
 74
107
 0
VERTEX
 8
GRIGLIA1
 10
0
 20
0
 30
0
 70
128
 71
202
 72
114
 73
113
 74
113
 0
VERTEX
 8
GRIGLIA1
 10
0
 20
0
 30
0
 70
128
 71
202
 72
113
 73
107
 74
107
 0
VERTEX
 8
GRIGLIA1
 10
0
 20
0
 30
0
 70
128
 71
117
 72
165
 73
166
 74
118
 0
VERTEX
 8
GRIGLIA1
 10
0
 20
0
 30
0
 70
128
 71
118
 72
166
 73
164
 74
112
 0
VERTEX
 8
GRIGLIA1
 10
0
 20
0
 30
0
 70
128
 71
109
 72
203
 73
110
 74
110
 0
VERTEX
 8
GRIGLIA1
 10
0
 20
0
 30
0
 70
128
 71
203
 72
103
 73
104
 74
104
 0
VERTEX
 8
GRIGLIA1
 10
0
 20
0
 30
0
 70
128
 71
203
 72
104
 73
110
 74
110
 0
VERTEX
 8
GRIGLIA1
 10
0
 20
0
 30
0
 70
128
 71
111
 72
105
 73
106
 74
112
 0
VERTEX
 8
GRIGLIA1
 10
0
 20
0
 30
0
 70
128
 71
110
 72
104
 73
105
 74
111
 0
VERTEX
 8
GRIGLIA1
 10
0
 20
0
 30
0
 70
128
 71
113
 72
119
 73
118
 74
112
 0
VERTEX
 8
GRIGLIA1
 10
0
 20
0
 30
0
 70
128
 71
114
 72
204
 73
113
 74
113
 0
VERTEX
 8
GRIGLIA1
 10
0
 20
0
 30
0
 70
128
 71
204
 72
120
 73
119
 74
119
 0
VERTEX
 8
GRIGLIA1
 10
0
 20
0
 30
0
 70
128
 71
204
 72
119
 73
113
 74
113
 0
VERTEX
 8
GRIGLIA1
 10
0
 20
0
 30
0
 70
128
 71
112
 72
164
 73
163
 74
111
 0
VERTEX
 8
GRIGLIA1
 10
0
 20
0
 30
0
 70
128
 71
111
 72
163
 73
165
 74
117
 0
VERTEX
 8
GRIGLIA1
 10
0
 20
0
 30
0
 70
128
 71
115
 72
205
 73
116
 74
116
 0
VERTEX
 8
GRIGLIA1
 10
0
 20
0
 30
0
 70
128
 71
205
 72
109
 73
110
 74
110
 0
VERTEX
 8
GRIGLIA1
 10
0
 20
0
 30
0
 70
128
 71
205
 72
110
 73
116
 74
116
 0
VERTEX
 8
GRIGLIA1
 10
0
 20
0
 30
0
 70
128
 71
165
 72
163
 73
164
 74
166
 0
VERTEX
 8
GRIGLIA1
 10
0
 20
0
 30
0
 70
128
 71
116
 72
110
 73
111
 74
117
 0
VERTEX
 8
GRIGLIA1
 10
0
 20
0
 30
0
 70
128
 71
119
 72
125
 73
124
 74
118
 0
VERTEX
 8
GRIGLIA1
 10
0
 20
0
 30
0
 70
128
 71
120
 72
206
 73
119
 74
119
 0
VERTEX
 8
GRIGLIA1
 10
0
 20
0
 30
0
 70
128
 71
206
 72
126
 73
125
 74
125
 0
VERTEX
 8
GRIGLIA1
 10
0
 20
0
 30
0
 70
128
 71
206
 72
125
 73
119
 74
119
 0
VERTEX
 8
GRIGLIA1
 10
0
 20
0
 30
0
 70
128
 71
129
 72
28
 73
29
 74
130
 0
VERTEX
 8
GRIGLIA1
 10
0
 20
0
 30
0
 70
128
 71
130
 72
29
 73
23
 74
124
 0
VERTEX
 8
GRIGLIA1
 10
0
 20
0
 30
0
 70
128
 71
121
 72
207
 73
122
 74
122
 0
VERTEX
 8
GRIGLIA1
 10
0
 20
0
 30
0
 70
128
 71
207
 72
115
 73
116
 74
116
 0
VERTEX
 8
GRIGLIA1
 10
0
 20
0
 30
0
 70
128
 71
207
 72
116
 73
122
 74
122
 0
VERTEX
 8
GRIGLIA1
 10
0
 20
0
 30
0
 70
128
 71
123
 72
117
 73
118
 74
124
 0
VERTEX
 8
GRIGLIA1
 10
0
 20
0
 30
0
 70
128
 71
122
 72
116
 73
117
 74
123
 0
VERTEX
 8
GRIGLIA1
 10
0
 20
0
 30
0
 70
128
 71
125
 72
131
 73
130
 74
124
 0
VERTEX
 8
GRIGLIA1
 10
0
 20
0
 30
0
 70
128
 71
126
 72
208
 73
125
 74
125
 0
VERTEX
 8
GRIGLIA1
 10
0
 20
0
 30
0
 70
128
 71
208
 72
132
 73
131
 74
131
 0
VERTEX
 8
GRIGLIA1
 10
0
 20
0
 30
0
 70
128
 71
208
 72
131
 73
125
 74
125
 0
VERTEX
 8
GRIGLIA1
 10
0
 20
0
 30
0
 70
128
 71
124
 72
23
 73
21
 74
123
 0
VERTEX
 8
GRIGLIA1
 10
0
 20
0
 30
0
 70
128
 71
123
 72
21
 73
28
 74
129
 0
VERTEX
 8
GRIGLIA1
 10
0
 20
0
 30
0
 70
128
 71
127
 72
209
 73
128
 74
128
 0
VERTEX
 8
GRIGLIA1
 10
0
 20
0
 30
0
 70
128
 71
209
 72
121
 73
122
 74
122
 0
VERTEX
 8
GRIGLIA1
 10
0
 20
0
 30
0
 70
128
 71
209
 72
122
 73
128
 74
128
 0
VERTEX
 8
GRIGLIA1
 10
0
 20
0
 30
0
 70
128
 71
28
 72
21
 73
23
 74
29
 0
VERTEX
 8
GRIGLIA1
 10
0
 20
0
 30
0
 70
128
 71
128
 72
122
 73
123
 74
129
 0
VERTEX
 8
GRIGLIA1
 10
0
 20
0
 30
0
 70
128
 71
131
 72
228
 73
231
 74
130
 0
VERTEX
 8
GRIGLIA1
 10
0
 20
0
 30
0
 70
128
 71
210
 72
227
 73
228
 74
131
 0
VERTEX
 8
GRIGLIA1
 10
0
 20
0
 30
0
 70
128
 71
210
 72
233
 73
227
 74
227
 0
VERTEX
 8
GRIGLIA1
 10
0
 20
0
 30
0
 70
128
 71
267
 72
270
 73
271
 74
269
 0
VERTEX
 8
GRIGLIA1
 10
0
 20
0
 30
0
 70
128
 71
133
 72
64
 73
70
 74
134
 0
VERTEX
 8
GRIGLIA1
 10
0
 20
0
 30
0
 70
128
 71
134
 72
212
 73
135
 74
135
 0
VERTEX
 8
GRIGLIA1
 10
0
 20
0
 30
0
 70
128
 71
70
 72
76
 73
213
 74
213
 0
VERTEX
 8
GRIGLIA1
 10
0
 20
0
 30
0
 70
128
 71
212
 72
134
 73
70
 74
70
 0
VERTEX
 8
GRIGLIA1
 10
0
 20
0
 30
0
 70
128
 71
137
 72
88
 73
94
 74
138
 0
VERTEX
 8
GRIGLIA1
 10
0
 20
0
 30
0
 70
128
 71
45
 72
141
 73
142
 74
46
 0
VERTEX
 8
GRIGLIA1
 10
0
 20
0
 30
0
 70
128
 71
46
 72
142
 73
139
 74
41
 0
VERTEX
 8
GRIGLIA1
 10
0
 20
0
 30
0
 70
128
 71
41
 72
139
 73
140
 74
42
 0
VERTEX
 8
GRIGLIA1
 10
0
 20
0
 30
0
 70
128
 71
42
 72
140
 73
141
 74
45
 0
VERTEX
 8
GRIGLIA1
 10
0
 20
0
 30
0
 70
128
 71
57
 72
145
 73
146
 74
58
 0
VERTEX
 8
GRIGLIA1
 10
0
 20
0
 30
0
 70
128
 71
58
 72
146
 73
144
 74
52
 0
VERTEX
 8
GRIGLIA1
 10
0
 20
0
 30
0
 70
128
 71
52
 72
144
 73
143
 74
51
 0
VERTEX
 8
GRIGLIA1
 10
0
 20
0
 30
0
 70
128
 71
51
 72
143
 73
145
 74
57
 0
VERTEX
 8
GRIGLIA1
 10
0
 20
0
 30
0
 70
128
 71
69
 72
148
 73
150
 74
134
 0
VERTEX
 8
GRIGLIA1
 10
0
 20
0
 30
0
 70
128
 71
134
 72
150
 73
149
 74
133
 0
VERTEX
 8
GRIGLIA1
 10
0
 20
0
 30
0
 70
128
 71
133
 72
149
 73
147
 74
63
 0
VERTEX
 8
GRIGLIA1
 10
0
 20
0
 30
0
 70
128
 71
63
 72
147
 73
148
 74
69
 0
VERTEX
 8
GRIGLIA1
 10
0
 20
0
 30
0
 70
128
 71
83
 72
152
 73
154
 74
136
 0
VERTEX
 8
GRIGLIA1
 10
0
 20
0
 30
0
 70
128
 71
136
 72
154
 73
153
 74
135
 0
VERTEX
 8
GRIGLIA1
 10
0
 20
0
 30
0
 70
128
 71
135
 72
153
 73
151
 74
75
 0
VERTEX
 8
GRIGLIA1
 10
0
 20
0
 30
0
 70
128
 71
75
 72
151
 73
152
 74
83
 0
VERTEX
 8
GRIGLIA1
 10
0
 20
0
 30
0
 70
128
 71
93
 72
156
 73
158
 74
138
 0
VERTEX
 8
GRIGLIA1
 10
0
 20
0
 30
0
 70
128
 71
138
 72
158
 73
157
 74
137
 0
VERTEX
 8
GRIGLIA1
 10
0
 20
0
 30
0
 70
128
 71
137
 72
157
 73
155
 74
87
 0
VERTEX
 8
GRIGLIA1
 10
0
 20
0
 30
0
 70
128
 71
87
 72
155
 73
156
 74
93
 0
VERTEX
 8
GRIGLIA1
 10
0
 20
0
 30
0
 70
128
 71
105
 72
161
 73
162
 74
106
 0
VERTEX
 8
GRIGLIA1
 10
0
 20
0
 30
0
 70
128
 71
106
 72
162
 73
160
 74
100
 0
VERTEX
 8
GRIGLIA1
 10
0
 20
0
 30
0
 70
128
 71
210
 72
131
 73
132
 74
132
 0
VERTEX
 8
GRIGLIA1
 10
0
 20
0
 30
0
 70
128
 71
230
 72
236
 73
239
 74
229
 0
VERTEX
 8
GRIGLIA1
 10
0
 20
0
 30
0
 70
128
 71
265
 72
264
 73
263
 74
266
 0
VERTEX
 8
GRIGLIA1
 10
0
 20
0
 30
0
 70
128
 71
235
 72
232
 73
234
 74
237
 0
VERTEX
 8
GRIGLIA1
 10
0
 20
0
 30
0
 70
128
 71
287
 72
235
 73
237
 74
285
 0
VERTEX
 8
GRIGLIA1
 10
0
 20
0
 30
0
 70
128
 71
236
 72
230
 73
232
 74
235
 0
VERTEX
 8
GRIGLIA1
 10
0
 20
0
 30
0
 70
128
 71
228
 72
242
 73
238
 74
231
 0
VERTEX
 8
GRIGLIA1
 10
0
 20
0
 30
0
 70
128
 71
232
 72
230
 73
169
 74
128
 0
VERTEX
 8
GRIGLIA1
 10
0
 20
0
 30
0
 70
128
 71
227
 72
233
 73
240
 74
241
 0
VERTEX
 8
GRIGLIA1
 10
0
 20
0
 30
0
 70
128
 71
279
 72
282
 73
283
 74
280
 0
VERTEX
 8
GRIGLIA1
 10
0
 20
0
 30
0
 70
128
 71
288
 72
5
 73
6
 74
272
 0
VERTEX
 8
GRIGLIA1
 10
0
 20
0
 30
0
 70
128
 71
269
 72
271
 73
290
 74
286
 0
VERTEX
 8
GRIGLIA1
 10
0
 20
0
 30
0
 70
128
 71
272
 72
268
 73
287
 74
288
 0
VERTEX
 8
GRIGLIA1
 10
0
 20
0
 30
0
 70
128
 71
292
 72
294
 73
293
 74
291
 0
VERTEX
 8
GRIGLIA1
 10
0
 20
0
 30
0
 70
128
 71
269
 72
242
 73
241
 74
241
 0
VERTEX
 8
GRIGLIA1
 10
0
 20
0
 30
0
 70
128
 71
267
 72
269
 73
241
 74
240
 0
VERTEX
 8
GRIGLIA1
 10
0
 20
0
 30
0
 70
128
 71
274
 72
19
 73
243
 74
243
 0
VERTEX
 8
GRIGLIA1
 10
0
 20
0
 30
0
 70
128
 71
277
 72
2
 73
176
 74
176
 0
VERTEX
 8
GRIGLIA1
 10
0
 20
0
 30
0
 70
128
 71
243
 72
19
 73
177
 74
177
 0
VERTEX
 8
GRIGLIA1
 10
0
 20
0
 30
0
 70
128
 71
270
 72
4
 73
3
 74
271
 0
VERTEX
 8
GRIGLIA1
 10
0
 20
0
 30
0
 70
128
 71
177
 72
25
 73
251
 74
251
 0
VERTEX
 8
GRIGLIA1
 10
0
 20
0
 30
0
 70
128
 71
177
 72
172
 73
11
 74
11
 0
VERTEX
 8
GRIGLIA1
 10
0
 20
0
 30
0
 70
128
 71
177
 72
11
 73
173
 74
173
 0
VERTEX
 8
GRIGLIA1
 10
0
 20
0
 30
0
 70
128
 71
177
 72
173
 73
13
 74
13
 0
VERTEX
 8
GRIGLIA1
 10
0
 20
0
 30
0
 70
128
 71
177
 72
13
 73
179
 74
179
 0
VERTEX
 8
GRIGLIA1
 10
0
 20
0
 30
0
 70
128
 71
177
 72
179
 73
37
 74
37
 0
VERTEX
 8
GRIGLIA1
 10
0
 20
0
 30
0
 70
128
 71
282
 72
247
 73
248
 74
283
 0
VERTEX
 8
GRIGLIA1
 10
0
 20
0
 30
0
 70
128
 71
19
 72
274
 73
277
 74
277
 0
VERTEX
 8
GRIGLIA1
 10
0
 20
0
 30
0
 70
128
 71
99
 72
93
 73
138
 74
138
 0
VERTEX
 8
GRIGLIA1
 10
0
 20
0
 30
0
 70
128
 71
138
 72
94
 73
100
 74
100
 0
VERTEX
 8
GRIGLIA1
 10
0
 20
0
 30
0
 70
128
 71
133
 72
63
 73
57
 74
57
 0
VERTEX
 8
GRIGLIA1
 10
0
 20
0
 30
0
 70
128
 71
58
 72
64
 73
133
 74
133
 0
VERTEX
 8
GRIGLIA1
 10
0
 20
0
 30
0
 70
128
 71
99
 72
138
 73
100
 74
100
 0
VERTEX
 8
GRIGLIA1
 10
0
 20
0
 30
0
 70
128
 71
133
 72
57
 73
58
 74
58
 0
VERTEX
 8
GRIGLIA1
 10
0
 20
0
 30
0
 70
128
 71
276
 72
275
 73
284
 74
281
 0
VERTEX
 8
GRIGLIA1
 10
0
 20
0
 30
0
 70
128
 71
177
 72
37
 73
181
 74
181
 0
VERTEX
 8
GRIGLIA1
 10
0
 20
0
 30
0
 70
128
 71
276
 72
1
 73
2
 74
277
 0
VERTEX
 8
GRIGLIA1
 10
0
 20
0
 30
0
 70
128
 71
177
 72
181
 73
43
 74
43
 0
VERTEX
 8
GRIGLIA1
 10
0
 20
0
 30
0
 70
128
 71
177
 72
43
 73
183
 74
183
 0
VERTEX
 8
GRIGLIA1
 10
0
 20
0
 30
0
 70
128
 71
177
 72
183
 73
49
 74
49
 0
VERTEX
 8
GRIGLIA1
 10
0
 20
0
 30
0
 70
128
 71
177
 72
49
 73
185
 74
185
 0
VERTEX
 8
GRIGLIA1
 10
0
 20
0
 30
0
 70
128
 71
177
 72
185
 73
55
 74
55
 0
VERTEX
 8
GRIGLIA1
 10
0
 20
0
 30
0
 70
128
 71
177
 72
55
 73
187
 74
187
 0
VERTEX
 8
GRIGLIA1
 10
0
 20
0
 30
0
 70
128
 71
177
 72
187
 73
61
 74
61
 0
VERTEX
 8
GRIGLIA1
 10
0
 20
0
 30
0
 70
128
 71
177
 72
61
 73
189
 74
189
 0
VERTEX
 8
GRIGLIA1
 10
0
 20
0
 30
0
 70
128
 71
213
 72
84
 73
214
 74
214
 0
VERTEX
 8
GRIGLIA1
 10
0
 20
0
 30
0
 70
128
 71
136
 72
135
 73
212
 74
212
 0
VERTEX
 8
GRIGLIA1
 10
0
 20
0
 30
0
 70
128
 71
88
 72
137
 73
211
 74
211
 0
VERTEX
 8
GRIGLIA1
 10
0
 20
0
 30
0
 70
128
 71
137
 72
136
 73
211
 74
211
 0
VERTEX
 8
GRIGLIA1
 10
0
 20
0
 30
0
 70
128
 71
213
 72
76
 73
84
 74
84
 0
VERTEX
 8
GRIGLIA1
 10
0
 20
0
 30
0
 70
128
 71
84
 72
88
 73
214
 74
214
 0
VERTEX
 8
GRIGLIA1
 10
0
 20
0
 30
0
 70
128
 71
224
 72
225
 73
226
 74
223
 0
VERTEX
 8
GRIGLIA1
 10
0
 20
0
 30
0
 70
128
 71
212
 72
216
 73
215
 74
211
 0
VERTEX
 8
GRIGLIA1
 10
0
 20
0
 30
0
 70
128
 71
211
 72
215
 73
218
 74
214
 0
VERTEX
 8
GRIGLIA1
 10
0
 20
0
 30
0
 70
128
 71
214
 72
218
 73
217
 74
213
 0
VERTEX
 8
GRIGLIA1
 10
0
 20
0
 30
0
 70
128
 71
213
 72
217
 73
216
 74
212
 0
VERTEX
 8
GRIGLIA1
 10
0
 20
0
 30
0
 70
128
 71
216
 72
220
 73
219
 74
215
 0
VERTEX
 8
GRIGLIA1
 10
0
 20
0
 30
0
 70
128
 71
215
 72
219
 73
222
 74
218
 0
VERTEX
 8
GRIGLIA1
 10
0
 20
0
 30
0
 70
128
 71
218
 72
222
 73
221
 74
217
 0
VERTEX
 8
GRIGLIA1
 10
0
 20
0
 30
0
 70
128
 71
217
 72
221
 73
220
 74
216
 0
VERTEX
 8
GRIGLIA1
 10
0
 20
0
 30
0
 70
128
 71
220
 72
224
 73
223
 74
219
 0
VERTEX
 8
GRIGLIA1
 10
0
 20
0
 30
0
 70
128
 71
219
 72
223
 73
226
 74
222
 0
VERTEX
 8
GRIGLIA1
 10
0
 20
0
 30
0
 70
128
 71
222
 72
226
 73
225
 74
221
 0
VERTEX
 8
GRIGLIA1
 10
0
 20
0
 30
0
 70
128
 71
221
 72
225
 73
224
 74
220
 0
VERTEX
 8
GRIGLIA1
 10
0
 20
0
 30
0
 70
128
 71
212
 72
70
 73
213
 74
213
 0
VERTEX
 8
GRIGLIA1
 10
0
 20
0
 30
0
 70
128
 71
136
 72
212
 73
211
 74
211
 0
VERTEX
 8
GRIGLIA1
 10
0
 20
0
 30
0
 70
128
 71
88
 72
211
 73
214
 74
214
 0
VERTEX
 8
GRIGLIA1
 10
0
 20
0
 30
0
 70
128
 71
177
 72
188
 73
65
 74
65
 0
VERTEX
 8
GRIGLIA1
 10
0
 20
0
 30
0
 70
128
 71
177
 72
65
 73
186
 74
186
 0
VERTEX
 8
GRIGLIA1
 10
0
 20
0
 30
0
 70
128
 71
177
 72
186
 73
59
 74
59
 0
VERTEX
 8
GRIGLIA1
 10
0
 20
0
 30
0
 70
128
 71
177
 72
59
 73
184
 74
184
 0
VERTEX
 8
GRIGLIA1
 10
0
 20
0
 30
0
 70
128
 71
177
 72
184
 73
53
 74
53
 0
VERTEX
 8
GRIGLIA1
 10
0
 20
0
 30
0
 70
128
 71
253
 72
244
 73
243
 74
252
 0
VERTEX
 8
GRIGLIA1
 10
0
 20
0
 30
0
 70
128
 71
247
 72
256
 73
257
 74
248
 0
VERTEX
 8
GRIGLIA1
 10
0
 20
0
 30
0
 70
128
 71
280
 72
283
 73
273
 74
278
 0
VERTEX
 8
GRIGLIA1
 10
0
 20
0
 30
0
 70
128
 71
249
 72
248
 73
257
 74
254
 0
VERTEX
 8
GRIGLIA1
 10
0
 20
0
 30
0
 70
128
 71
246
 72
255
 73
258
 74
250
 0
VERTEX
 8
GRIGLIA1
 10
0
 20
0
 30
0
 70
128
 71
260
 72
262
 73
261
 74
259
 0
VERTEX
 8
GRIGLIA1
 10
0
 20
0
 30
0
 70
128
 71
232
 72
128
 73
129
 74
234
 0
VERTEX
 8
GRIGLIA1
 10
0
 20
0
 30
0
 70
128
 71
177
 72
53
 73
182
 74
182
 0
VERTEX
 8
GRIGLIA1
 10
0
 20
0
 30
0
 70
128
 71
241
 72
242
 73
228
 74
227
 0
VERTEX
 8
GRIGLIA1
 10
0
 20
0
 30
0
 70
128
 71
297
 72
295
 73
296
 74
298
 0
VERTEX
 8
GRIGLIA1
 10
0
 20
0
 30
0
 70
128
 71
242
 72
269
 73
286
 74
238
 0
VERTEX
 8
GRIGLIA1
 10
0
 20
0
 30
0
 70
128
 71
177
 72
182
 73
47
 74
47
 0
VERTEX
 8
GRIGLIA1
 10
0
 20
0
 30
0
 70
128
 71
234
 72
129
 73
130
 74
231
 0
VERTEX
 8
GRIGLIA1
 10
0
 20
0
 30
0
 70
128
 71
177
 72
47
 73
180
 74
180
 0
VERTEX
 8
GRIGLIA1
 10
0
 20
0
 30
0
 70
128
 71
244
 72
253
 73
255
 74
246
 0
VERTEX
 8
GRIGLIA1
 10
0
 20
0
 30
0
 70
128
 71
254
 72
251
 73
245
 74
249
 0
VERTEX
 8
GRIGLIA1
 10
0
 20
0
 30
0
 70
128
 71
167
 72
10
 73
255
 74
253
 0
VERTEX
 8
GRIGLIA1
 10
0
 20
0
 30
0
 70
128
 71
256
 72
27
 73
12
 74
257
 0
VERTEX
 8
GRIGLIA1
 10
0
 20
0
 30
0
 70
128
 71
172
 72
12
 73
11
 74
11
 0
VERTEX
 8
GRIGLIA1
 10
0
 20
0
 30
0
 70
128
 71
255
 72
10
 73
22
 74
258
 0
VERTEX
 8
GRIGLIA1
 10
0
 20
0
 30
0
 70
128
 71
258
 72
22
 73
27
 74
256
 0
VERTEX
 8
GRIGLIA1
 10
0
 20
0
 30
0
 70
128
 71
250
 72
260
 73
259
 74
247
 0
VERTEX
 8
GRIGLIA1
 10
0
 20
0
 30
0
 70
128
 71
247
 72
259
 73
261
 74
256
 0
VERTEX
 8
GRIGLIA1
 10
0
 20
0
 30
0
 70
128
 71
256
 72
261
 73
262
 74
258
 0
VERTEX
 8
GRIGLIA1
 10
0
 20
0
 30
0
 70
128
 71
258
 72
262
 73
260
 74
250
 0
VERTEX
 8
GRIGLIA1
 10
0
 20
0
 30
0
 70
128
 71
237
 72
265
 73
266
 74
238
 0
VERTEX
 8
GRIGLIA1
 10
0
 20
0
 30
0
 70
128
 71
238
 72
266
 73
263
 74
231
 0
VERTEX
 8
GRIGLIA1
 10
0
 20
0
 30
0
 70
128
 71
231
 72
263
 73
264
 74
234
 0
VERTEX
 8
GRIGLIA1
 10
0
 20
0
 30
0
 70
128
 71
234
 72
264
 73
265
 74
237
 0
VERTEX
 8
GRIGLIA1
 10
0
 20
0
 30
0
 70
128
 71
177
 72
180
 73
39
 74
39
 0
VERTEX
 8
GRIGLIA1
 10
0
 20
0
 30
0
 70
128
 71
177
 72
39
 73
174
 74
174
 0
VERTEX
 8
GRIGLIA1
 10
0
 20
0
 30
0
 70
128
 71
177
 72
174
 73
15
 74
15
 0
VERTEX
 8
GRIGLIA1
 10
0
 20
0
 30
0
 70
128
 71
177
 72
15
 73
171
 74
171
 0
VERTEX
 8
GRIGLIA1
 10
0
 20
0
 30
0
 70
128
 71
177
 72
171
 73
9
 74
9
 0
VERTEX
 8
GRIGLIA1
 10
0
 20
0
 30
0
 70
128
 71
177
 72
9
 73
167
 74
167
 0
VERTEX
 8
GRIGLIA1
 10
0
 20
0
 30
0
 70
128
 71
177
 72
167
 73
252
 74
252
 0
VERTEX
 8
GRIGLIA1
 10
0
 20
0
 30
0
 70
128
 71
25
 72
170
 73
278
 74
278
 0
VERTEX
 8
GRIGLIA1
 10
0
 20
0
 30
0
 70
128
 71
25
 72
273
 73
245
 74
245
 0
VERTEX
 8
GRIGLIA1
 10
0
 20
0
 30
0
 70
128
 71
25
 72
245
 73
251
 74
251
 0
VERTEX
 8
GRIGLIA1
 10
0
 20
0
 30
0
 70
128
 71
170
 72
8
 73
278
 74
278
 0
VERTEX
 8
GRIGLIA1
 10
0
 20
0
 30
0
 70
128
 71
189
 72
67
 73
71
 74
71
 0
VERTEX
 8
GRIGLIA1
 10
0
 20
0
 30
0
 70
128
 71
71
 72
67
 73
191
 74
191
 0
VERTEX
 8
GRIGLIA1
 10
0
 20
0
 30
0
 70
128
 71
191
 72
73
 73
77
 74
77
 0
VERTEX
 8
GRIGLIA1
 10
0
 20
0
 30
0
 70
128
 71
73
 72
193
 73
192
 74
192
 0
VERTEX
 8
GRIGLIA1
 10
0
 20
0
 30
0
 70
128
 71
192
 72
193
 73
79
 74
79
 0
VERTEX
 8
GRIGLIA1
 10
0
 20
0
 30
0
 70
128
 71
79
 72
195
 73
194
 74
194
 0
VERTEX
 8
GRIGLIA1
 10
0
 20
0
 30
0
 70
128
 71
194
 72
195
 73
85
 74
85
 0
VERTEX
 8
GRIGLIA1
 10
0
 20
0
 30
0
 70
128
 71
90
 72
85
 73
197
 74
197
 0
VERTEX
 8
GRIGLIA1
 10
0
 20
0
 30
0
 70
128
 71
197
 72
91
 73
175
 74
175
 0
VERTEX
 8
GRIGLIA1
 10
0
 20
0
 30
0
 70
128
 71
91
 72
199
 73
175
 74
175
 0
VERTEX
 8
GRIGLIA1
 10
0
 20
0
 30
0
 70
128
 71
274
 72
243
 73
244
 74
275
 0
VERTEX
 8
GRIGLIA1
 10
0
 20
0
 30
0
 70
128
 71
244
 72
246
 73
275
 74
275
 0
VERTEX
 8
GRIGLIA1
 10
0
 20
0
 30
0
 70
128
 71
199
 72
97
 73
175
 74
175
 0
VERTEX
 8
GRIGLIA1
 10
0
 20
0
 30
0
 70
128
 71
97
 72
201
 73
175
 74
175
 0
VERTEX
 8
GRIGLIA1
 10
0
 20
0
 30
0
 70
128
 71
201
 72
103
 73
175
 74
175
 0
VERTEX
 8
GRIGLIA1
 10
0
 20
0
 30
0
 70
128
 71
103
 72
203
 73
175
 74
175
 0
VERTEX
 8
GRIGLIA1
 10
0
 20
0
 30
0
 70
128
 71
203
 72
109
 73
175
 74
175
 0
VERTEX
 8
GRIGLIA1
 10
0
 20
0
 30
0
 70
128
 71
109
 72
205
 73
175
 74
175
 0
VERTEX
 8
GRIGLIA1
 10
0
 20
0
 30
0
 70
128
 71
205
 72
115
 73
175
 74
175
 0
VERTEX
 8
GRIGLIA1
 10
0
 20
0
 30
0
 70
128
 71
115
 72
207
 73
175
 74
175
 0
VERTEX
 8
GRIGLIA1
 10
0
 20
0
 30
0
 70
128
 71
284
 72
250
 73
247
 74
282
 0
VERTEX
 8
GRIGLIA1
 10
0
 20
0
 30
0
 70
128
 71
275
 72
246
 73
250
 74
284
 0
VERTEX
 8
GRIGLIA1
 10
0
 20
0
 30
0
 70
128
 71
283
 72
248
 73
249
 74
249
 0
VERTEX
 8
GRIGLIA1
 10
0
 20
0
 30
0
 70
128
 71
273
 72
283
 73
249
 74
245
 0
VERTEX
 8
GRIGLIA1
 10
0
 20
0
 30
0
 70
128
 71
236
 72
235
 73
287
 74
287
 0
VERTEX
 8
GRIGLIA1
 10
0
 20
0
 30
0
 70
128
 71
268
 72
239
 73
236
 74
287
 0
VERTEX
 8
GRIGLIA1
 10
0
 20
0
 30
0
 70
128
 71
288
 72
287
 73
285
 74
289
 0
VERTEX
 8
GRIGLIA1
 10
0
 20
0
 30
0
 70
128
 71
271
 72
3
 73
18
 74
290
 0
VERTEX
 8
GRIGLIA1
 10
0
 20
0
 30
0
 70
128
 71
281
 72
292
 73
291
 74
279
 0
VERTEX
 8
GRIGLIA1
 10
0
 20
0
 30
0
 70
128
 71
279
 72
291
 73
293
 74
282
 0
VERTEX
 8
GRIGLIA1
 10
0
 20
0
 30
0
 70
128
 71
282
 72
293
 73
294
 74
284
 0
VERTEX
 8
GRIGLIA1
 10
0
 20
0
 30
0
 70
128
 71
284
 72
294
 73
292
 74
281
 0
VERTEX
 8
GRIGLIA1
 10
0
 20
0
 30
0
 70
128
 71
289
 72
297
 73
298
 74
290
 0
VERTEX
 8
GRIGLIA1
 10
0
 20
0
 30
0
 70
128
 71
290
 72
298
 73
296
 74
286
 0
VERTEX
 8
GRIGLIA1
 10
0
 20
0
 30
0
 70
128
 71
286
 72
296
 73
295
 74
285
 0
VERTEX
 8
GRIGLIA1
 10
0
 20
0
 30
0
 70
128
 71
285
 72
295
 73
297
 74
289
 0
VERTEX
 8
GRIGLIA1
 10
0
 20
0
 30
0
 70
128
 71
207
 72
121
 73
175
 74
175
 0
VERTEX
 8
GRIGLIA1
 10
0
 20
0
 30
0
 70
128
 71
121
 72
209
 73
175
 74
175
 0
VERTEX
 8
GRIGLIA1
 10
0
 20
0
 30
0
 70
128
 71
209
 72
127
 73
175
 74
175
 0
VERTEX
 8
GRIGLIA1
 10
0
 20
0
 30
0
 70
128
 71
127
 72
169
 73
175
 74
175
 0
VERTEX
 8
GRIGLIA1
 10
0
 20
0
 30
0
 70
128
 71
175
 72
169
 73
229
 74
229
 0
VERTEX
 8
GRIGLIA1
 10
0
 20
0
 30
0
 70
128
 71
229
 72
239
 73
30
 74
30
 0
VERTEX
 8
GRIGLIA1
 10
0
 20
0
 30
0
 70
128
 71
239
 72
268
 73
30
 74
30
 0
VERTEX
 8
GRIGLIA1
 10
0
 20
0
 30
0
 70
128
 71
30
 72
268
 73
272
 74
272
 0
VERTEX
 8
GRIGLIA1
 10
0
 20
0
 30
0
 70
128
 71
272
 72
6
 73
178
 74
178
 0
VERTEX
 8
GRIGLIA1
 10
0
 20
0
 30
0
 70
128
 71
175
 72
17
 73
240
 74
240
 0
VERTEX
 8
GRIGLIA1
 10
0
 20
0
 30
0
 70
128
 71
175
 72
233
 73
210
 74
210
 0
VERTEX
 8
GRIGLIA1
 10
0
 20
0
 30
0
 70
128
 71
175
 72
210
 73
132
 74
132
 0
VERTEX
 8
GRIGLIA1
 10
0
 20
0
 30
0
 70
128
 71
175
 72
132
 73
208
 74
208
 0
VERTEX
 8
GRIGLIA1
 10
0
 20
0
 30
0
 70
128
 71
175
 72
208
 73
126
 74
126
 0
VERTEX
 8
GRIGLIA1
 10
0
 20
0
 30
0
 70
128
 71
175
 72
126
 73
206
 74
206
 0
VERTEX
 8
GRIGLIA1
 10
0
 20
0
 30
0
 70
128
 71
175
 72
206
 73
120
 74
120
 0
VERTEX
 8
GRIGLIA1
 10
0
 20
0
 30
0
 70
128
 71
175
 72
120
 73
204
 74
204
 0
VERTEX
 8
GRIGLIA1
 10
0
 20
0
 30
0
 70
128
 71
175
 72
204
 73
114
 74
114
 0
VERTEX
 8
GRIGLIA1
 10
0
 20
0
 30
0
 70
128
 71
175
 72
114
 73
202
 74
202
 0
VERTEX
 8
GRIGLIA1
 10
0
 20
0
 30
0
 70
128
 71
175
 72
202
 73
108
 74
108
 0
VERTEX
 8
GRIGLIA1
 10
0
 20
0
 30
0
 70
128
 71
175
 72
108
 73
200
 74
200
 0
VERTEX
 8
GRIGLIA1
 10
0
 20
0
 30
0
 70
128
 71
175
 72
200
 73
102
 74
102
 0
VERTEX
 8
GRIGLIA1
 10
0
 20
0
 30
0
 70
128
 71
175
 72
102
 73
198
 74
198
 0
VERTEX
 8
GRIGLIA1
 10
0
 20
0
 30
0
 70
128
 71
175
 72
198
 73
96
 74
96
 0
VERTEX
 8
GRIGLIA1
 10
0
 20
0
 30
0
 70
128
 71
175
 72
96
 73
196
 74
196
 0
VERTEX
 8
GRIGLIA1
 10
0
 20
0
 30
0
 70
128
 71
17
 72
168
 73
270
 74
270
 0
VERTEX
 8
GRIGLIA1
 10
0
 20
0
 30
0
 70
128
 71
17
 72
267
 73
240
 74
240
 0
VERTEX
 8
GRIGLIA1
 10
0
 20
0
 30
0
 70
128
 71
168
 72
4
 73
270
 74
270
 0
VERTEX
 8
GRIGLIA1
 10
0
 20
0
 30
0
 70
128
 71
243
 72
177
 73
252
 74
252
 0
VERTEX
 8
GRIGLIA1
 10
0
 20
0
 30
0
 70
128
 71
177
 72
251
 73
172
 74
172
 0
VERTEX
 8
GRIGLIA1
 10
0
 20
0
 30
0
 70
128
 71
19
 72
277
 73
176
 74
176
 0
VERTEX
 8
GRIGLIA1
 10
0
 20
0
 30
0
 70
128
 71
177
 72
189
 73
188
 74
188
 0
VERTEX
 8
GRIGLIA1
 10
0
 20
0
 30
0
 70
128
 71
25
 72
278
 73
273
 74
273
 0
VERTEX
 8
GRIGLIA1
 10
0
 20
0
 30
0
 70
128
 71
189
 72
71
 73
188
 74
188
 0
VERTEX
 8
GRIGLIA1
 10
0
 20
0
 30
0
 70
128
 71
71
 72
191
 73
190
 74
190
 0
VERTEX
 8
GRIGLIA1
 10
0
 20
0
 30
0
 70
128
 71
191
 72
77
 73
190
 74
190
 0
VERTEX
 8
GRIGLIA1
 10
0
 20
0
 30
0
 70
128
 71
73
 72
192
 73
77
 74
77
 0
VERTEX
 8
GRIGLIA1
 10
0
 20
0
 30
0
 70
128
 71
192
 72
79
 73
81
 74
81
 0
VERTEX
 8
GRIGLIA1
 10
0
 20
0
 30
0
 70
128
 71
79
 72
194
 73
81
 74
81
 0
VERTEX
 8
GRIGLIA1
 10
0
 20
0
 30
0
 70
128
 71
194
 72
85
 73
90
 74
90
 0
VERTEX
 8
GRIGLIA1
 10
0
 20
0
 30
0
 70
128
 71
90
 72
197
 73
196
 74
196
 0
VERTEX
 8
GRIGLIA1
 10
0
 20
0
 30
0
 70
128
 71
197
 72
175
 73
196
 74
196
 0
VERTEX
 8
GRIGLIA1
 10
0
 20
0
 30
0
 70
128
 71
175
 72
229
 73
30
 74
30
 0
VERTEX
 8
GRIGLIA1
 10
0
 20
0
 30
0
 70
128
 71
30
 72
272
 73
178
 74
178
 0
VERTEX
 8
GRIGLIA1
 10
0
 20
0
 30
0
 70
128
 71
175
 72
240
 73
233
 74
233
 0
VERTEX
 8
GRIGLIA1
 10
0
 20
0
 30
0
 70
128
 71
17
 72
270
 73
267
 74
267
 0
SEQEND
 0
POLYLINE
 8
CUBO_2
 66
1
 10
0.0
 20
0.0
 30
0.0
 70
64
 71
8
 72
6
 0
VERTEX
 8
CUBO_2
 10
-32.6002
 20
-17.5781
 30
0.2184
 70
192
 0
VERTEX
 8
CUBO_2
 10
-32.6002
 20
-17.7551
 30
1.1493
 70
192
 0
VERTEX
 8
CUBO_2
 10
32.5937
 20
-17.5781
 30
0.2184
 70
192
 0
VERTEX
 8
CUBO_2
 10
32.5937
 20
-17.7551
 30
1.1493
 70
192
 0
VERTEX
 8
CUBO_2
 10
32.5937
 20
-10.2512
 30
1.6111
 70
192
 0
VERTEX
 8
CUBO_2
 10
32.5937
 20
-10.4282
 30
2.542
 70
192
 0
VERTEX
 8
CUBO_2
 10
-32.6002
 20
-10.2512
 30
1.6111
 70
192
 0
VERTEX
 8
CUBO_2
 10
-32.6002
 20
-10.4282
 30
2.542
 70
192
 0
VERTEX
 8
CUBO_2
 10
0
 20
0
 30
0
 70
128
 71
1
 72
2
 73
4
 74
3
 0
VERTEX
 8
CUBO_2
 10
0
 20
0
 30
0
 70
128
 71
3
 72
4
 73
6
 74
5
 0
VERTEX
 8
CUBO_2
 10
0
 20
0
 30
0
 70
128
 71
5
 72
6
 73
8
 74
7
 0
VERTEX
 8
CUBO_2
 10
0
 20
0
 30
0
 70
128
 71
7
 72
8
 73
2
 74
1
 0
VERTEX
 8
CUBO_2
 10
0
 20
0
 30
0
 70
128
 71
2
 72
8
 73
6
 74
4
 0
VERTEX
 8
CUBO_2
 10
0
 20
0
 30
0
 70
128
 71
7
 72
1
 73
3
 74
5
 0
SEQEND
 0
POLYLINE
 8
FARETTO1_1
 66
1
 10
0.0
 20
0.0
 30
0.0
 70
64
 71
32
 72
30
 0
VERTEX
 8
FARETTO1_1
 10
18.3541
 20
-15.2023
 30
0.6364
 70
192
 0
VERTEX
 8
FARETTO1_1
 10
18.3541
 20
-15.2089
 30
0.671
 70
192
 0
VERTEX
 8
FARETTO1_1
 10
18.561
 20
-15.2023
 30
0.6364
 70
192
 0
VERTEX
 8
FARETTO1_1
 10
18.561
 20
-15.2089
 30
0.671
 70
192
 0
VERTEX
 8
FARETTO1_1
 10
22.9472
 20
-15.2023
 30
0.6364
 70
192
 0
VERTEX
 8
FARETTO1_1
 10
22.9472
 20
-15.2089
 30
0.671
 70
192
 0
VERTEX
 8
FARETTO1_1
 10
23.1541
 20
-15.2023
 30
0.6364
 70
192
 0
VERTEX
 8
FARETTO1_1
 10
23.1541
 20
-15.2089
 30
0.671
 70
192
 0
VERTEX
 8
FARETTO1_1
 10
23.1541
 20
-14.9946
 30
0.6759
 70
192
 0
VERTEX
 8
FARETTO1_1
 10
23.1541
 20
-15.0011
 30
0.7105
 70
192
 0
VERTEX
 8
FARETTO1_1
 10
23.1541
 20
-12.9541
 30
1.0638
 70
192
 0
VERTEX
 8
FARETTO1_1
 10
23.1541
 20
-12.9607
 30
1.0984
 70
192
 0
VERTEX
 8
FARETTO1_1
 10
23.1541
 20
-12.7463
 30
1.1033
 70
192
 0
VERTEX
 8
FARETTO1_1
 10
23.1541
 20
-12.7529
 30
1.1379
 70
192
 0
VERTEX
 8
FARETTO1_1
 10
22.9472
 20
-12.7463
 30
1.1033
 70
192
 0
VERTEX
 8
FARETTO1_1
 10
22.9472
 20
-12.7529
 30
1.1379
 70
192
 0
VERTEX
 8
FARETTO1_1
 10
18.561
 20
-12.7463
 30
1.1033
 70
192
 0
VERTEX
 8
FARETTO1_1
 10
18.561
 20
-12.7529
 30
1.1379
 70
192
 0
VERTEX
 8
FARETTO1_1
 10
18.3541
 20
-12.7463
 30
1.1033
 70
192
 0
VERTEX
 8
FARETTO1_1
 10
18.3541
 20
-12.7529
 30
1.1379
 70
192
 0
VERTEX
 8
FARETTO1_1
 10
18.3541
 20
-12.9541
 30
1.0638
 70
192
 0
VERTEX
 8
FARETTO1_1
 10
18.3541
 20
-12.9607
 30
1.0984
 70
192
 0
VERTEX
 8
FARETTO1_1
 10
18.3541
 20
-14.9946
 30
0.6759
 70
192
 0
VERTEX
 8
FARETTO1_1
 10
18.3541
 20
-15.0011
 30
0.7105
 70
192
 0
VERTEX
 8
FARETTO1_1
 10
18.561
 20
-15.0011
 30
0.7105
 70
192
 0
VERTEX
 8
FARETTO1_1
 10
18.561
 20
-12.9607
 30
1.0984
 70
192
 0
VERTEX
 8
FARETTO1_1
 10
22.9472
 20
-15.0011
 30
0.7105
 70
192
 0
VERTEX
 8
FARETTO1_1
 10
22.9472
 20
-12.9607
 30
1.0984
 70
192
 0
VERTEX
 8
FARETTO1_1
 10
18.561
 20
-12.9438
 30
1.01
 70
192
 0
VERTEX
 8
FARETTO1_1
 10
18.561
 20
-14.9843
 30
0.6221
 70
192
 0
VERTEX
 8
FARETTO1_1
 10
22.9472
 20
-12.9438
 30
1.01
 70
192
 0
VERTEX
 8
FARETTO1_1
 10
22.9472
 20
-14.9843
 30
0.6221
 70
192
 0
VERTEX
 8
FARETTO1_1
 10
0
 20
0
 30
0
 70
128
 71
1
 72
2
 73
4
 74
3
 0
VERTEX
 8
FARETTO1_1
 10
0
 20
0
 30
0
 70
128
 71
3
 72
4
 73
6
 74
5
 0
VERTEX
 8
FARETTO1_1
 10
0
 20
0
 30
0
 70
128
 71
5
 72
6
 73
8
 74
7
 0
VERTEX
 8
FARETTO1_1
 10
0
 20
0
 30
0
 70
128
 71
7
 72
8
 73
10
 74
9
 0
VERTEX
 8
FARETTO1_1
 10
0
 20
0
 30
0
 70
128
 71
9
 72
10
 73
12
 74
11
 0
VERTEX
 8
FARETTO1_1
 10
0
 20
0
 30
0
 70
128
 71
11
 72
12
 73
14
 74
13
 0
VERTEX
 8
FARETTO1_1
 10
0
 20
0
 30
0
 70
128
 71
13
 72
14
 73
16
 74
15
 0
VERTEX
 8
FARETTO1_1
 10
0
 20
0
 30
0
 70
128
 71
15
 72
16
 73
18
 74
17
 0
VERTEX
 8
FARETTO1_1
 10
0
 20
0
 30
0
 70
128
 71
17
 72
18
 73
20
 74
19
 0
VERTEX
 8
FARETTO1_1
 10
0
 20
0
 30
0
 70
128
 71
19
 72
20
 73
22
 74
21
 0
VERTEX
 8
FARETTO1_1
 10
0
 20
0
 30
0
 70
128
 71
21
 72
22
 73
24
 74
23
 0
VERTEX
 8
FARETTO1_1
 10
0
 20
0
 30
0
 70
128
 71
23
 72
24
 73
2
 74
1
 0
VERTEX
 8
FARETTO1_1
 10
0
 20
0
 30
0
 70
128
 71
2
 72
24
 73
25
 74
4
 0
VERTEX
 8
FARETTO1_1
 10
0
 20
0
 30
0
 70
128
 71
4
 72
25
 73
27
 74
6
 0
VERTEX
 8
FARETTO1_1
 10
0
 20
0
 30
0
 70
128
 71
6
 72
27
 73
10
 74
8
 0
VERTEX
 8
FARETTO1_1
 10
0
 20
0
 30
0
 70
128
 71
24
 72
22
 73
26
 74
25
 0
VERTEX
 8
FARETTO1_1
 10
0
 20
0
 30
0
 70
128
 71
25
 72
26
 73
28
 74
27
 0
VERTEX
 8
FARETTO1_1
 10
0
 20
0
 30
0
 70
128
 71
27
 72
28
 73
12
 74
10
 0
VERTEX
 8
FARETTO1_1
 10
0
 20
0
 30
0
 70
128
 71
22
 72
20
 73
18
 74
26
 0
VERTEX
 8
FARETTO1_1
 10
0
 20
0
 30
0
 70
128
 71
26
 72
18
 73
16
 74
28
 0
VERTEX
 8
FARETTO1_1
 10
0
 20
0
 30
0
 70
128
 71
28
 72
16
 73
14
 74
12
 0
VERTEX
 8
FARETTO1_1
 10
0
 20
0
 30
0
 70
128
 71
19
 72
21
 73
29
 74
17
 0
VERTEX
 8
FARETTO1_1
 10
0
 20
0
 30
0
 70
128
 71
17
 72
29
 73
31
 74
15
 0
VERTEX
 8
FARETTO1_1
 10
0
 20
0
 30
0
 70
128
 71
15
 72
31
 73
11
 74
13
 0
VERTEX
 8
FARETTO1_1
 10
0
 20
0
 30
0
 70
128
 71
21
 72
23
 73
30
 74
29
 0
VERTEX
 8
FARETTO1_1
 10
0
 20
0
 30
0
 70
128
 71
29
 72
30
 73
32
 74
31
 0
VERTEX
 8
FARETTO1_1
 10
0
 20
0
 30
0
 70
128
 71
31
 72
32
 73
9
 74
11
 0
VERTEX
 8
FARETTO1_1
 10
0
 20
0
 30
0
 70
128
 71
23
 72
1
 73
3
 74
30
 0
VERTEX
 8
FARETTO1_1
 10
0
 20
0
 30
0
 70
128
 71
30
 72
3
 73
5
 74
32
 0
VERTEX
 8
FARETTO1_1
 10
0
 20
0
 30
0
 70
128
 71
32
 72
5
 73
7
 74
9
 0
SEQEND
 0
POLYLINE
 8
LUCE1_1
 66
1
 10
0.0
 20
0.0
 30
0.0
 70
64
 71
8
 72
6
 0
VERTEX
 8
LUCE1_1
 10
18.6866
 20
-14.856
 30
0.6146
 70
192
 0
VERTEX
 8
LUCE1_1
 10
18.6866
 20
-14.8728
 30
0.703
 70
192
 0
VERTEX
 8
LUCE1_1
 10
22.8217
 20
-14.856
 30
0.6146
 70
192
 0
VERTEX
 8
LUCE1_1
 10
22.8217
 20
-14.8728
 30
0.703
 70
192
 0
VERTEX
 8
LUCE1_1
 10
22.8217
 20
-13.0605
 30
0.9559
 70
192
 0
VERTEX
 8
LUCE1_1
 10
22.8217
 20
-13.0773
 30
1.0443
 70
192
 0
VERTEX
 8
LUCE1_1
 10
18.6866
 20
-13.0605
 30
0.9559
 70
192
 0
VERTEX
 8
LUCE1_1
 10
18.6866
 20
-13.0773
 30
1.0443
 70
192
 0
VERTEX
 8
LUCE1_1
 10
0
 20
0
 30
0
 70
128
 71
1
 72
2
 73
4
 74
3
 0
VERTEX
 8
LUCE1_1
 10
0
 20
0
 30
0
 70
128
 71
3
 72
4
 73
6
 74
5
 0
VERTEX
 8
LUCE1_1
 10
0
 20
0
 30
0
 70
128
 71
5
 72
6
 73
8
 74
7
 0
VERTEX
 8
LUCE1_1
 10
0
 20
0
 30
0
 70
128
 71
7
 72
8
 73
2
 74
1
 0
VERTEX
 8
LUCE1_1
 10
0
 20
0
 30
0
 70
128
 71
2
 72
8
 73
6
 74
4
 0
VERTEX
 8
LUCE1_1
 10
0
 20
0
 30
0
 70
128
 71
7
 72
1
 73
3
 74
5
 0
SEQEND
 0
POLYLINE
 8
FARETTO1
 66
1
 10
0.0
 20
0.0
 30
0.0
 70
64
 71
32
 72
30
 0
VERTEX
 8
FARETTO1
 10
-23.1506
 20
-15.2023
 30
0.6364
 70
192
 0
VERTEX
 8
FARETTO1
 10
-23.1506
 20
-15.2089
 30
0.671
 70
192
 0
VERTEX
 8
FARETTO1
 10
-22.9437
 20
-15.2023
 30
0.6364
 70
192
 0
VERTEX
 8
FARETTO1
 10
-22.9437
 20
-15.2089
 30
0.671
 70
192
 0
VERTEX
 8
FARETTO1
 10
-18.5575
 20
-15.2023
 30
0.6364
 70
192
 0
VERTEX
 8
FARETTO1
 10
-18.5575
 20
-15.2089
 30
0.671
 70
192
 0
VERTEX
 8
FARETTO1
 10
-18.3506
 20
-15.2023
 30
0.6364
 70
192
 0
VERTEX
 8
FARETTO1
 10
-18.3506
 20
-15.2089
 30
0.671
 70
192
 0
VERTEX
 8
FARETTO1
 10
-18.3506
 20
-14.9946
 30
0.6759
 70
192
 0
VERTEX
 8
FARETTO1
 10
-18.3506
 20
-15.0011
 30
0.7105
 70
192
 0
VERTEX
 8
FARETTO1
 10
-18.3506
 20
-12.9541
 30
1.0638
 70
192
 0
VERTEX
 8
FARETTO1
 10
-18.3506
 20
-12.9607
 30
1.0984
 70
192
 0
VERTEX
 8
FARETTO1
 10
-18.3506
 20
-12.7463
 30
1.1033
 70
192
 0
VERTEX
 8
FARETTO1
 10
-18.3506
 20
-12.7529
 30
1.1379
 70
192
 0
VERTEX
 8
FARETTO1
 10
-18.5575
 20
-12.7463
 30
1.1033
 70
192
 0
VERTEX
 8
FARETTO1
 10
-18.5575
 20
-12.7529
 30
1.1379
 70
192
 0
VERTEX
 8
FARETTO1
 10
-22.9437
 20
-12.7463
 30
1.1033
 70
192
 0
VERTEX
 8
FARETTO1
 10
-22.9437
 20
-12.7529
 30
1.1379
 70
192
 0
VERTEX
 8
FARETTO1
 10
-23.1506
 20
-12.7463
 30
1.1033
 70
192
 0
VERTEX
 8
FARETTO1
 10
-23.1506
 20
-12.7529
 30
1.1379
 70
192
 0
VERTEX
 8
FARETTO1
 10
-23.1506
 20
-12.9541
 30
1.0638
 70
192
 0
VERTEX
 8
FARETTO1
 10
-23.1506
 20
-12.9607
 30
1.0984
 70
192
 0
VERTEX
 8
FARETTO1
 10
-23.1506
 20
-14.9946
 30
0.6759
 70
192
 0
VERTEX
 8
FARETTO1
 10
-23.1506
 20
-15.0011
 30
0.7105
 70
192
 0
VERTEX
 8
FARETTO1
 10
-22.9437
 20
-15.0011
 30
0.7105
 70
192
 0
VERTEX
 8
FARETTO1
 10
-22.9437
 20
-12.9607
 30
1.0984
 70
192
 0
VERTEX
 8
FARETTO1
 10
-18.5575
 20
-15.0011
 30
0.7105
 70
192
 0
VERTEX
 8
FARETTO1
 10
-18.5575
 20
-12.9607
 30
1.0984
 70
192
 0
VERTEX
 8
FARETTO1
 10
-22.9437
 20
-12.9438
 30
1.01
 70
192
 0
VERTEX
 8
FARETTO1
 10
-22.9437
 20
-14.9843
 30
0.6221
 70
192
 0
VERTEX
 8
FARETTO1
 10
-18.5575
 20
-12.9438
 30
1.01
 70
192
 0
VERTEX
 8
FARETTO1
 10
-18.5575
 20
-14.9843
 30
0.6221
 70
192
 0
VERTEX
 8
FARETTO1
 10
0
 20
0
 30
0
 70
128
 71
1
 72
2
 73
4
 74
3
 0
VERTEX
 8
FARETTO1
 10
0
 20
0
 30
0
 70
128
 71
3
 72
4
 73
6
 74
5
 0
VERTEX
 8
FARETTO1
 10
0
 20
0
 30
0
 70
128
 71
5
 72
6
 73
8
 74
7
 0
VERTEX
 8
FARETTO1
 10
0
 20
0
 30
0
 70
128
 71
7
 72
8
 73
10
 74
9
 0
VERTEX
 8
FARETTO1
 10
0
 20
0
 30
0
 70
128
 71
9
 72
10
 73
12
 74
11
 0
VERTEX
 8
FARETTO1
 10
0
 20
0
 30
0
 70
128
 71
11
 72
12
 73
14
 74
13
 0
VERTEX
 8
FARETTO1
 10
0
 20
0
 30
0
 70
128
 71
13
 72
14
 73
16
 74
15
 0
VERTEX
 8
FARETTO1
 10
0
 20
0
 30
0
 70
128
 71
15
 72
16
 73
18
 74
17
 0
VERTEX
 8
FARETTO1
 10
0
 20
0
 30
0
 70
128
 71
17
 72
18
 73
20
 74
19
 0
VERTEX
 8
FARETTO1
 10
0
 20
0
 30
0
 70
128
 71
19
 72
20
 73
22
 74
21
 0
VERTEX
 8
FARETTO1
 10
0
 20
0
 30
0
 70
128
 71
21
 72
22
 73
24
 74
23
 0
VERTEX
 8
FARETTO1
 10
0
 20
0
 30
0
 70
128
 71
23
 72
24
 73
2
 74
1
 0
VERTEX
 8
FARETTO1
 10
0
 20
0
 30
0
 70
128
 71
2
 72
24
 73
25
 74
4
 0
VERTEX
 8
FARETTO1
 10
0
 20
0
 30
0
 70
128
 71
4
 72
25
 73
27
 74
6
 0
VERTEX
 8
FARETTO1
 10
0
 20
0
 30
0
 70
128
 71
6
 72
27
 73
10
 74
8
 0
VERTEX
 8
FARETTO1
 10
0
 20
0
 30
0
 70
128
 71
24
 72
22
 73
26
 74
25
 0
VERTEX
 8
FARETTO1
 10
0
 20
0
 30
0
 70
128
 71
25
 72
26
 73
28
 74
27
 0
VERTEX
 8
FARETTO1
 10
0
 20
0
 30
0
 70
128
 71
27
 72
28
 73
12
 74
10
 0
VERTEX
 8
FARETTO1
 10
0
 20
0
 30
0
 70
128
 71
22
 72
20
 73
18
 74
26
 0
VERTEX
 8
FARETTO1
 10
0
 20
0
 30
0
 70
128
 71
26
 72
18
 73
16
 74
28
 0
VERTEX
 8
FARETTO1
 10
0
 20
0
 30
0
 70
128
 71
28
 72
16
 73
14
 74
12
 0
VERTEX
 8
FARETTO1
 10
0
 20
0
 30
0
 70
128
 71
19
 72
21
 73
29
 74
17
 0
VERTEX
 8
FARETTO1
 10
0
 20
0
 30
0
 70
128
 71
17
 72
29
 73
31
 74
15
 0
VERTEX
 8
FARETTO1
 10
0
 20
0
 30
0
 70
128
 71
15
 72
31
 73
11
 74
13
 0
VERTEX
 8
FARETTO1
 10
0
 20
0
 30
0
 70
128
 71
21
 72
23
 73
30
 74
29
 0
VERTEX
 8
FARETTO1
 10
0
 20
0
 30
0
 70
128
 71
29
 72
30
 73
32
 74
31
 0
VERTEX
 8
FARETTO1
 10
0
 20
0
 30
0
 70
128
 71
31
 72
32
 73
9
 74
11
 0
VERTEX
 8
FARETTO1
 10
0
 20
0
 30
0
 70
128
 71
23
 72
1
 73
3
 74
30
 0
VERTEX
 8
FARETTO1
 10
0
 20
0
 30
0
 70
128
 71
30
 72
3
 73
5
 74
32
 0
VERTEX
 8
FARETTO1
 10
0
 20
0
 30
0
 70
128
 71
32
 72
5
 73
7
 74
9
 0
SEQEND
 0
POLYLINE
 8
LUCE1
 66
1
 10
0.0
 20
0.0
 30
0.0
 70
64
 71
8
 72
6
 0
VERTEX
 8
LUCE1
 10
-22.8182
 20
-14.856
 30
0.6146
 70
192
 0
VERTEX
 8
LUCE1
 10
-22.8182
 20
-14.8728
 30
0.703
 70
192
 0
VERTEX
 8
LUCE1
 10
-18.6831
 20
-14.856
 30
0.6146
 70
192
 0
VERTEX
 8
LUCE1
 10
-18.6831
 20
-14.8728
 30
0.703
 70
192
 0
VERTEX
 8
LUCE1
 10
-18.6831
 20
-13.0605
 30
0.9559
 70
192
 0
VERTEX
 8
LUCE1
 10
-18.6831
 20
-13.0773
 30
1.0443
 70
192
 0
VERTEX
 8
LUCE1
 10
-22.8182
 20
-13.0605
 30
0.9559
 70
192
 0
VERTEX
 8
LUCE1
 10
-22.8182
 20
-13.0773
 30
1.0443
 70
192
 0
VERTEX
 8
LUCE1
 10
0
 20
0
 30
0
 70
128
 71
1
 72
2
 73
4
 74
3
 0
VERTEX
 8
LUCE1
 10
0
 20
0
 30
0
 70
128
 71
3
 72
4
 73
6
 74
5
 0
VERTEX
 8
LUCE1
 10
0
 20
0
 30
0
 70
128
 71
5
 72
6
 73
8
 74
7
 0
VERTEX
 8
LUCE1
 10
0
 20
0
 30
0
 70
128
 71
7
 72
8
 73
2
 74
1
 0
VERTEX
 8
LUCE1
 10
0
 20
0
 30
0
 70
128
 71
2
 72
8
 73
6
 74
4
 0
VERTEX
 8
LUCE1
 10
0
 20
0
 30
0
 70
128
 71
7
 72
1
 73
3
 74
5
 0
SEQEND
 0
POLYLINE
 8
CASSA
 66
1
 10
0.0
 20
0.0
 30
0.0
 70
64
 71
52
 72
53
 0
VERTEX
 8
CASSA
 10
-36.0003
 20
-20.0008
 30
0.0019
 70
192
 0
VERTEX
 8
CASSA
 10
36
 20
17.8221
 30
0.0019
 70
192
 0
VERTEX
 8
CASSA
 10
36
 20
-20.0008
 30
0.0019
 70
192
 0
VERTEX
 8
CASSA
 10
36
 20
17.8929
 30
1.0025
 70
192
 0
VERTEX
 8
CASSA
 10
36
 20
19.9993
 30
0.0019
 70
192
 0
VERTEX
 8
CASSA
 10
23.8897
 20
17.8929
 30
26.4001
 70
192
 0
VERTEX
 8
CASSA
 10
-36.0003
 20
19.9993
 30
0.0019
 70
192
 0
VERTEX
 8
CASSA
 10
-32.6891
 20
17.8929
 30
9.3507
 70
192
 0
VERTEX
 8
CASSA
 10
-36.0003
 20
-20.0008
 30
1.0025
 70
192
 0
VERTEX
 8
CASSA
 10
36
 20
-20.0008
 30
1.0025
 70
192
 0
VERTEX
 8
CASSA
 10
36
 20
19.9993
 30
1.0025
 70
192
 0
VERTEX
 8
CASSA
 10
-36.0003
 20
19.9993
 30
1.0025
 70
192
 0
VERTEX
 8
CASSA
 10
32.6898
 20
17.8929
 30
9.3507
 70
192
 0
VERTEX
 8
CASSA
 10
-23.8625
 20
17.8929
 30
26.4001
 70
192
 0
VERTEX
 8
CASSA
 10
-32.6891
 20
-20.0008
 30
1.0025
 70
192
 0
VERTEX
 8
CASSA
 10
-32.6891
 20
19.9993
 30
1.0025
 70
192
 0
VERTEX
 8
CASSA
 10
32.6898
 20
19.9993
 30
1.0025
 70
192
 0
VERTEX
 8
CASSA
 10
32.6898
 20
17.8929
 30
1.0025
 70
192
 0
VERTEX
 8
CASSA
 10
32.6898
 20
-20.0008
 30
1.0025
 70
192
 0
VERTEX
 8
CASSA
 10
-32.6891
 20
17.8929
 30
1.0025
 70
192
 0
VERTEX
 8
CASSA
 10
36
 20
-17.8906
 30
1.0025
 70
192
 0
VERTEX
 8
CASSA
 10
36
 20
-17.8204
 30
0.0019
 70
192
 0
VERTEX
 8
CASSA
 10
-36.0003
 20
-17.8906
 30
1.0025
 70
192
 0
VERTEX
 8
CASSA
 10
-36.0003
 20
-17.8204
 30
0.0019
 70
192
 0
VERTEX
 8
CASSA
 10
23.8897
 20
-8.4512
 30
26.4001
 70
192
 0
VERTEX
 8
CASSA
 10
-23.8625
 20
-8.4512
 30
26.4001
 70
192
 0
VERTEX
 8
CASSA
 10
-32.6891
 20
-17.8906
 30
9.3507
 70
192
 0
VERTEX
 8
CASSA
 10
-32.6891
 20
-17.8906
 30
1.0025
 70
192
 0
VERTEX
 8
CASSA
 10
32.6898
 20
-17.8906
 30
9.3507
 70
192
 0
VERTEX
 8
CASSA
 10
32.6898
 20
-17.8906
 30
1.0025
 70
192
 0
VERTEX
 8
CASSA
 10
-36.0003
 20
17.8929
 30
1.0025
 70
192
 0
VERTEX
 8
CASSA
 10
-36.0003
 20
17.8221
 30
0.0019
 70
192
 0
VERTEX
 8
CASSA
 10
-32.6211
 20
17.822
 30
8.4836
 70
192
 0
VERTEX
 8
CASSA
 10
32.6201
 20
17.822
 30
8.4836
 70
192
 0
VERTEX
 8
CASSA
 10
32.6201
 20
17.8221
 30
0.0019
 70
192
 0
VERTEX
 8
CASSA
 10
32.6201
 20
-20.0008
 30
0.0019
 70
192
 0
VERTEX
 8
CASSA
 10
-32.6211
 20
-17.8202
 30
8.4836
 70
192
 0
VERTEX
 8
CASSA
 10
32.6201
 20
-17.8204
 30
0.0019
 70
192
 0
VERTEX
 8
CASSA
 10
-32.6211
 20
-20.0008
 30
0.0019
 70
192
 0
VERTEX
 8
CASSA
 10
-32.6211
 20
-17.8204
 30
0.0019
 70
192
 0
VERTEX
 8
CASSA
 10
32.6201
 20
19.9993
 30
0.0019
 70
192
 0
VERTEX
 8
CASSA
 10
-32.6891
 20
17.8929
 30
1.0025
 70
192
 0
VERTEX
 8
CASSA
 10
-32.6891
 20
19.9993
 30
1.0025
 70
192
 0
VERTEX
 8
CASSA
 10
32.6201
 20
-17.8202
 30
8.4836
 70
192
 0
VERTEX
 8
CASSA
 10
-32.6891
 20
-20.0008
 30
1.0025
 70
192
 0
VERTEX
 8
CASSA
 10
-32.6891
 20
-17.8906
 30
1.0025
 70
192
 0
VERTEX
 8
CASSA
 10
-32.6211
 20
17.8221
 30
0.0019
 70
192
 0
VERTEX
 8
CASSA
 10
-32.6211
 20
19.9993
 30
0.0019
 70
192
 0
VERTEX
 8
CASSA
 10
32.6898
 20
-20.0008
 30
1.0025
 70
192
 0
VERTEX
 8
CASSA
 10
32.6898
 20
-17.8906
 30
1.0025
 70
192
 0
VERTEX
 8
CASSA
 10
32.6898
 20
19.9993
 30
1.0025
 70
192
 0
VERTEX
 8
CASSA
 10
32.6898
 20
17.8929
 30
1.0025
 70
192
 0
VERTEX
 8
CASSA
 10
0
 20
0
 30
0
 70
128
 71
27
 72
8
 73
14
 74
26
 0
VERTEX
 8
CASSA
 10
0
 20
0
 30
0
 70
128
 71
35
 72
34
 73
44
 74
38
 0
VERTEX
 8
CASSA
 10
0
 20
0
 30
0
 70
128
 71
42
 72
31
 73
12
 74
43
 0
VERTEX
 8
CASSA
 10
0
 20
0
 30
0
 70
128
 71
45
 72
15
 73
28
 74
46
 0
VERTEX
 8
CASSA
 10
0
 20
0
 30
0
 70
128
 71
2
 72
5
 73
41
 74
35
 0
VERTEX
 8
CASSA
 10
0
 20
0
 30
0
 70
128
 71
47
 72
32
 73
24
 74
40
 0
VERTEX
 8
CASSA
 10
0
 20
0
 30
0
 70
128
 71
7
 72
48
 73
16
 74
16
 0
VERTEX
 8
CASSA
 10
0
 20
0
 30
0
 70
128
 71
16
 72
43
 73
7
 74
7
 0
VERTEX
 8
CASSA
 10
0
 20
0
 30
0
 70
128
 71
17
 72
51
 73
48
 74
48
 0
VERTEX
 8
CASSA
 10
0
 20
0
 30
0
 70
128
 71
43
 72
12
 73
7
 74
7
 0
VERTEX
 8
CASSA
 10
0
 20
0
 30
0
 70
128
 71
51
 72
17
 73
18
 74
52
 0
VERTEX
 8
CASSA
 10
0
 20
0
 30
0
 70
128
 71
16
 72
20
 73
42
 74
43
 0
VERTEX
 8
CASSA
 10
0
 20
0
 30
0
 70
128
 71
18
 72
13
 73
52
 74
52
 0
VERTEX
 8
CASSA
 10
0
 20
0
 30
0
 70
128
 71
27
 72
26
 73
25
 74
29
 0
VERTEX
 8
CASSA
 10
0
 20
0
 30
0
 70
128
 71
8
 72
20
 73
52
 74
13
 0
VERTEX
 8
CASSA
 10
0
 20
0
 30
0
 70
128
 71
34
 72
35
 73
47
 74
33
 0
VERTEX
 8
CASSA
 10
0
 20
0
 30
0
 70
128
 71
19
 72
10
 73
3
 74
36
 0
VERTEX
 8
CASSA
 10
0
 20
0
 30
0
 70
128
 71
3
 72
10
 73
21
 74
22
 0
VERTEX
 8
CASSA
 10
0
 20
0
 30
0
 70
128
 71
23
 72
9
 73
1
 74
24
 0
VERTEX
 8
CASSA
 10
0
 20
0
 30
0
 70
128
 71
26
 72
14
 73
6
 74
25
 0
VERTEX
 8
CASSA
 10
0
 20
0
 30
0
 70
128
 71
50
 72
30
 73
19
 74
19
 0
VERTEX
 8
CASSA
 10
0
 20
0
 30
0
 70
128
 71
48
 72
7
 73
32
 74
47
 0
VERTEX
 8
CASSA
 10
0
 20
0
 30
0
 70
128
 71
5
 72
11
 73
17
 74
41
 0
VERTEX
 8
CASSA
 10
0
 20
0
 30
0
 70
128
 71
36
 72
3
 73
22
 74
38
 0
VERTEX
 8
CASSA
 10
0
 20
0
 30
0
 70
128
 71
52
 72
20
 73
16
 74
51
 0
VERTEX
 8
CASSA
 10
0
 20
0
 30
0
 70
128
 71
7
 72
12
 73
31
 74
32
 0
VERTEX
 8
CASSA
 10
0
 20
0
 30
0
 70
128
 71
51
 72
16
 73
48
 74
48
 0
VERTEX
 8
CASSA
 10
0
 20
0
 30
0
 70
128
 71
28
 72
23
 73
31
 74
42
 0
VERTEX
 8
CASSA
 10
0
 20
0
 30
0
 70
128
 71
28
 72
15
 73
9
 74
23
 0
VERTEX
 8
CASSA
 10
0
 20
0
 30
0
 70
128
 71
40
 72
37
 73
33
 74
47
 0
VERTEX
 8
CASSA
 10
0
 20
0
 30
0
 70
128
 71
50
 72
19
 73
49
 74
49
 0
VERTEX
 8
CASSA
 10
0
 20
0
 30
0
 70
128
 71
24
 72
1
 73
39
 74
40
 0
VERTEX
 8
CASSA
 10
0
 20
0
 30
0
 70
128
 71
39
 72
36
 73
38
 74
40
 0
VERTEX
 8
CASSA
 10
0
 20
0
 30
0
 70
128
 71
23
 72
24
 73
32
 74
31
 0
VERTEX
 8
CASSA
 10
0
 20
0
 30
0
 70
128
 71
41
 72
48
 73
47
 74
35
 0
VERTEX
 8
CASSA
 10
0
 20
0
 30
0
 70
128
 71
4
 72
11
 73
5
 74
2
 0
VERTEX
 8
CASSA
 10
0
 20
0
 30
0
 70
128
 71
38
 72
44
 73
37
 74
40
 0
VERTEX
 8
CASSA
 10
0
 20
0
 30
0
 70
128
 71
22
 72
2
 73
35
 74
38
 0
VERTEX
 8
CASSA
 10
0
 20
0
 30
0
 70
128
 71
19
 72
30
 73
21
 74
10
 0
VERTEX
 8
CASSA
 10
0
 20
0
 30
0
 70
128
 71
27
 72
29
 73
50
 74
46
 0
VERTEX
 8
CASSA
 10
0
 20
0
 30
0
 70
128
 71
18
 72
17
 73
11
 74
4
 0
VERTEX
 8
CASSA
 10
0
 20
0
 30
0
 70
128
 71
49
 72
19
 73
36
 74
36
 0
VERTEX
 8
CASSA
 10
0
 20
0
 30
0
 70
128
 71
49
 72
45
 73
46
 74
50
 0
VERTEX
 8
CASSA
 10
0
 20
0
 30
0
 70
128
 71
36
 72
39
 73
45
 74
49
 0
VERTEX
 8
CASSA
 10
0
 20
0
 30
0
 70
128
 71
25
 72
6
 73
13
 74
29
 0
VERTEX
 8
CASSA
 10
0
 20
0
 30
0
 70
128
 71
28
 72
20
 73
8
 74
27
 0
VERTEX
 8
CASSA
 10
0
 20
0
 30
0
 70
128
 71
14
 72
8
 73
13
 74
6
 0
VERTEX
 8
CASSA
 10
0
 20
0
 30
0
 70
128
 71
1
 72
9
 73
15
 74
39
 0
VERTEX
 8
CASSA
 10
0
 20
0
 30
0
 70
128
 71
29
 72
13
 73
18
 74
30
 0
VERTEX
 8
CASSA
 10
0
 20
0
 30
0
 70
128
 71
48
 72
41
 73
17
 74
17
 0
VERTEX
 8
CASSA
 10
0
 20
0
 30
0
 70
128
 71
21
 72
4
 73
2
 74
22
 0
VERTEX
 8
CASSA
 10
0
 20
0
 30
0
 70
128
 71
15
 72
45
 73
39
 74
39
 0
VERTEX
 8
CASSA
 10
0
 20
0
 30
0
 70
128
 71
30
 72
18
 73
4
 74
21
 0
SEQEND
 0
ENDSEC
 0
EOF
