 0
SECTION
 2
HEADER
 9
$ACADVER
 1
AC1009
 0
ENDSEC
 0
SECTION
 2
TABLES
 0
TABLE
 2
LTYPE
 70
1
 0
LTYPE
 2
CONTINUOUS
 70
64
 3
solid line
 72
65
 73
0
 40
0.0
 0
ENDTAB
 0
TABLE
 2
LAYER
 70
6
 0
LAYER
 2
0
 70
0
 62
7
 6
CONTINUOUS
 0
LAYER
 2
F7DP30S1_-_30_TOUCH_CONTROL_DO
 70
64
 62
7
 6
CONTINUOUS
 0
LAYER
 2
FORNO_INFERIORE
 70
64
 62
7
 6
CONTINUOUS
 0
LAYER
 2
MANIGLIA_1
 70
64
 62
254
 6
CONTINUOUS
 0
LAYER
 2
ANTA_CORNICE
 70
64
 62
39
 6
CONTINUOUS
 0
LAYER
 2
ANTA_FINESTRA
 70
64
 62
37
 6
CONTINUOUS
 0
LAYER
 2
ANTA_INFERIORE
 70
64
 62
39
 6
CONTINUOUS
 0
LAYER
 2
DIETRO
 70
64
 62
39
 6
CONTINUOUS
 0
LAYER
 2
FORNO_SUPERIORE
 70
64
 62
7
 6
CONTINUOUS
 0
LAYER
 2
CUBO
 70
64
 62
39
 6
CONTINUOUS
 0
LAYER
 2
ANTA
 70
64
 62
39
 6
CONTINUOUS
 0
LAYER
 2
MANIGLIA
 70
64
 62
253
 6
CONTINUOUS
 0
LAYER
 2
CRUSCOTTO
 70
64
 62
39
 6
CONTINUOUS
 0
LAYER
 2
TRAVERSINO
 70
64
 62
39
 6
CONTINUOUS
 0
LAYER
 2
ANTA_CORNICE_1
 70
64
 62
39
 6
CONTINUOUS
 0
LAYER
 2
ANTA_FINESTRA_1
 70
64
 62
37
 6
CONTINUOUS
 0
ENDTAB
 0
ENDSEC
 0
SECTION
 2
BLOCKS
 0
ENDSEC
 0
SECTION
 2
ENTITIES
 0
POLYLINE
 8
MANIGLIA_1
 66
1
 10
0.0
 20
0.0
 30
0.0
 70
64
 71
306
 72
329
 0
VERTEX
 8
MANIGLIA_1
 10
32.3549
 20
-7.8212
 30
52.0832
 70
192
 0
VERTEX
 8
MANIGLIA_1
 10
-32.355
 20
-7.7976
 30
51.9768
 70
192
 0
VERTEX
 8
MANIGLIA_1
 10
-28.355
 20
-7.7976
 30
51.9768
 70
192
 0
VERTEX
 8
MANIGLIA_1
 10
28.3549
 20
-7.7976
 30
51.9768
 70
192
 0
VERTEX
 8
MANIGLIA_1
 10
32.3549
 20
-7.7976
 30
51.9768
 70
192
 0
VERTEX
 8
MANIGLIA_1
 10
-32.355
 20
-7.7648
 30
51.8728
 70
192
 0
VERTEX
 8
MANIGLIA_1
 10
-28.355
 20
-7.7648
 30
51.8728
 70
192
 0
VERTEX
 8
MANIGLIA_1
 10
28.3549
 20
-7.7648
 30
51.8728
 70
192
 0
VERTEX
 8
MANIGLIA_1
 10
32.3549
 20
-7.7648
 30
51.8728
 70
192
 0
VERTEX
 8
MANIGLIA_1
 10
-32.355
 20
-7.723
 30
51.772
 70
192
 0
VERTEX
 8
MANIGLIA_1
 10
-28.355
 20
-7.723
 30
51.772
 70
192
 0
VERTEX
 8
MANIGLIA_1
 10
28.3549
 20
-7.723
 30
51.772
 70
192
 0
VERTEX
 8
MANIGLIA_1
 10
32.3549
 20
-7.723
 30
51.772
 70
192
 0
VERTEX
 8
MANIGLIA_1
 10
-32.355
 20
-7.6727
 30
51.6753
 70
192
 0
VERTEX
 8
MANIGLIA_1
 10
-28.355
 20
-7.6727
 30
51.6753
 70
192
 0
VERTEX
 8
MANIGLIA_1
 10
28.3549
 20
-7.6727
 30
51.6753
 70
192
 0
VERTEX
 8
MANIGLIA_1
 10
32.3549
 20
-7.6727
 30
51.6753
 70
192
 0
VERTEX
 8
MANIGLIA_1
 10
-32.355
 20
-7.6141
 30
51.5833
 70
192
 0
VERTEX
 8
MANIGLIA_1
 10
-28.355
 20
-7.6141
 30
51.5833
 70
192
 0
VERTEX
 8
MANIGLIA_1
 10
28.3549
 20
-7.6141
 30
51.5833
 70
192
 0
VERTEX
 8
MANIGLIA_1
 10
32.3549
 20
-7.6141
 30
51.5833
 70
192
 0
VERTEX
 8
MANIGLIA_1
 10
-32.355
 20
-7.5477
 30
51.4968
 70
192
 0
VERTEX
 8
MANIGLIA_1
 10
-28.355
 20
-7.5477
 30
51.4968
 70
192
 0
VERTEX
 8
MANIGLIA_1
 10
28.3549
 20
-7.5477
 30
51.4968
 70
192
 0
VERTEX
 8
MANIGLIA_1
 10
32.3549
 20
-7.5477
 30
51.4968
 70
192
 0
VERTEX
 8
MANIGLIA_1
 10
-32.355
 20
-7.474
 30
51.4164
 70
192
 0
VERTEX
 8
MANIGLIA_1
 10
-28.355
 20
-7.474
 30
51.4164
 70
192
 0
VERTEX
 8
MANIGLIA_1
 10
28.3549
 20
-7.474
 30
51.4164
 70
192
 0
VERTEX
 8
MANIGLIA_1
 10
32.3549
 20
-7.474
 30
51.4164
 70
192
 0
VERTEX
 8
MANIGLIA_1
 10
-32.355
 20
-7.3936
 30
51.3427
 70
192
 0
VERTEX
 8
MANIGLIA_1
 10
-28.355
 20
-7.3936
 30
51.3427
 70
192
 0
VERTEX
 8
MANIGLIA_1
 10
28.3549
 20
-7.3936
 30
51.3427
 70
192
 0
VERTEX
 8
MANIGLIA_1
 10
32.3549
 20
-7.3936
 30
51.3427
 70
192
 0
VERTEX
 8
MANIGLIA_1
 10
-32.355
 20
-7.3071
 30
51.2763
 70
192
 0
VERTEX
 8
MANIGLIA_1
 10
-28.355
 20
-7.3071
 30
51.2763
 70
192
 0
VERTEX
 8
MANIGLIA_1
 10
28.3549
 20
-7.3071
 30
51.2763
 70
192
 0
VERTEX
 8
MANIGLIA_1
 10
32.3549
 20
-7.3071
 30
51.2763
 70
192
 0
VERTEX
 8
MANIGLIA_1
 10
-32.355
 20
-7.2152
 30
51.2178
 70
192
 0
VERTEX
 8
MANIGLIA_1
 10
-28.355
 20
-7.2152
 30
51.2178
 70
192
 0
VERTEX
 8
MANIGLIA_1
 10
28.3549
 20
-7.2152
 30
51.2178
 70
192
 0
VERTEX
 8
MANIGLIA_1
 10
32.3549
 20
-7.2152
 30
51.2178
 70
192
 0
VERTEX
 8
MANIGLIA_1
 10
-32.355
 20
-7.1184
 30
51.1674
 70
192
 0
VERTEX
 8
MANIGLIA_1
 10
-28.355
 20
-7.1184
 30
51.1674
 70
192
 0
VERTEX
 8
MANIGLIA_1
 10
28.3549
 20
-7.1184
 30
51.1674
 70
192
 0
VERTEX
 8
MANIGLIA_1
 10
32.3549
 20
-7.1184
 30
51.1674
 70
192
 0
VERTEX
 8
MANIGLIA_1
 10
-32.355
 20
-7.0177
 30
51.1257
 70
192
 0
VERTEX
 8
MANIGLIA_1
 10
-28.355
 20
-7.0177
 30
51.1257
 70
192
 0
VERTEX
 8
MANIGLIA_1
 10
28.3549
 20
-7.0177
 30
51.1257
 70
192
 0
VERTEX
 8
MANIGLIA_1
 10
32.3549
 20
-7.0177
 30
51.1257
 70
192
 0
VERTEX
 8
MANIGLIA_1
 10
-32.355
 20
-6.9137
 30
51.0929
 70
192
 0
VERTEX
 8
MANIGLIA_1
 10
-28.355
 20
-6.9137
 30
51.0929
 70
192
 0
VERTEX
 8
MANIGLIA_1
 10
28.3549
 20
-6.9137
 30
51.0929
 70
192
 0
VERTEX
 8
MANIGLIA_1
 10
32.3549
 20
-6.9137
 30
51.0929
 70
192
 0
VERTEX
 8
MANIGLIA_1
 10
-32.355
 20
-6.8072
 30
51.0693
 70
192
 0
VERTEX
 8
MANIGLIA_1
 10
-28.355
 20
-6.8072
 30
51.0693
 70
192
 0
VERTEX
 8
MANIGLIA_1
 10
28.3549
 20
-6.8072
 30
51.0693
 70
192
 0
VERTEX
 8
MANIGLIA_1
 10
32.3549
 20
-6.8072
 30
51.0693
 70
192
 0
VERTEX
 8
MANIGLIA_1
 10
-32.355
 20
-6.6991
 30
51.055
 70
192
 0
VERTEX
 8
MANIGLIA_1
 10
-28.355
 20
-6.6991
 30
51.055
 70
192
 0
VERTEX
 8
MANIGLIA_1
 10
28.3549
 20
-6.6991
 30
51.055
 70
192
 0
VERTEX
 8
MANIGLIA_1
 10
32.3549
 20
-6.6991
 30
51.055
 70
192
 0
VERTEX
 8
MANIGLIA_1
 10
-28.355
 20
-7.1184
 30
53.4332
 70
192
 0
VERTEX
 8
MANIGLIA_1
 10
28.3549
 20
-7.1184
 30
53.4332
 70
192
 0
VERTEX
 8
MANIGLIA_1
 10
32.3549
 20
-7.1184
 30
53.4332
 70
192
 0
VERTEX
 8
MANIGLIA_1
 10
-32.355
 20
-7.2152
 30
53.3828
 70
192
 0
VERTEX
 8
MANIGLIA_1
 10
-28.355
 20
-7.2152
 30
53.3828
 70
192
 0
VERTEX
 8
MANIGLIA_1
 10
28.3549
 20
-7.2152
 30
53.3828
 70
192
 0
VERTEX
 8
MANIGLIA_1
 10
32.3549
 20
-7.2152
 30
53.3828
 70
192
 0
VERTEX
 8
MANIGLIA_1
 10
-32.355
 20
-7.3071
 30
53.3242
 70
192
 0
VERTEX
 8
MANIGLIA_1
 10
-28.355
 20
-7.3071
 30
53.3242
 70
192
 0
VERTEX
 8
MANIGLIA_1
 10
28.3549
 20
-7.3071
 30
53.3242
 70
192
 0
VERTEX
 8
MANIGLIA_1
 10
32.3549
 20
-7.3071
 30
53.3242
 70
192
 0
VERTEX
 8
MANIGLIA_1
 10
-32.355
 20
-7.3936
 30
53.2578
 70
192
 0
VERTEX
 8
MANIGLIA_1
 10
-28.355
 20
-7.3936
 30
53.2578
 70
192
 0
VERTEX
 8
MANIGLIA_1
 10
28.3549
 20
-7.3936
 30
53.2578
 70
192
 0
VERTEX
 8
MANIGLIA_1
 10
32.3549
 20
-7.3936
 30
53.2578
 70
192
 0
VERTEX
 8
MANIGLIA_1
 10
-32.355
 20
-7.474
 30
53.1842
 70
192
 0
VERTEX
 8
MANIGLIA_1
 10
-28.355
 20
-7.474
 30
53.1842
 70
192
 0
VERTEX
 8
MANIGLIA_1
 10
28.3549
 20
-7.474
 30
53.1842
 70
192
 0
VERTEX
 8
MANIGLIA_1
 10
32.3549
 20
-7.474
 30
53.1842
 70
192
 0
VERTEX
 8
MANIGLIA_1
 10
-32.355
 20
-7.5477
 30
53.1038
 70
192
 0
VERTEX
 8
MANIGLIA_1
 10
-28.355
 20
-7.5477
 30
53.1038
 70
192
 0
VERTEX
 8
MANIGLIA_1
 10
28.3549
 20
-7.5477
 30
53.1038
 70
192
 0
VERTEX
 8
MANIGLIA_1
 10
32.3549
 20
-7.5477
 30
53.1038
 70
192
 0
VERTEX
 8
MANIGLIA_1
 10
-32.355
 20
-7.6141
 30
53.0173
 70
192
 0
VERTEX
 8
MANIGLIA_1
 10
-28.355
 20
-7.6141
 30
53.0173
 70
192
 0
VERTEX
 8
MANIGLIA_1
 10
28.3549
 20
-7.6141
 30
53.0173
 70
192
 0
VERTEX
 8
MANIGLIA_1
 10
32.3549
 20
-7.6141
 30
53.0173
 70
192
 0
VERTEX
 8
MANIGLIA_1
 10
-32.355
 20
-7.6727
 30
52.9253
 70
192
 0
VERTEX
 8
MANIGLIA_1
 10
-28.355
 20
-7.6727
 30
52.9253
 70
192
 0
VERTEX
 8
MANIGLIA_1
 10
28.3549
 20
-7.6727
 30
52.9253
 70
192
 0
VERTEX
 8
MANIGLIA_1
 10
32.3549
 20
-7.6727
 30
52.9253
 70
192
 0
VERTEX
 8
MANIGLIA_1
 10
-32.355
 20
-7.723
 30
52.8286
 70
192
 0
VERTEX
 8
MANIGLIA_1
 10
-28.355
 20
-7.723
 30
52.8286
 70
192
 0
VERTEX
 8
MANIGLIA_1
 10
28.3549
 20
-7.723
 30
52.8286
 70
192
 0
VERTEX
 8
MANIGLIA_1
 10
32.3549
 20
-7.723
 30
52.8286
 70
192
 0
VERTEX
 8
MANIGLIA_1
 10
-32.355
 20
-7.7648
 30
52.7278
 70
192
 0
VERTEX
 8
MANIGLIA_1
 10
-28.355
 20
-7.7648
 30
52.7278
 70
192
 0
VERTEX
 8
MANIGLIA_1
 10
28.3549
 20
-7.7648
 30
52.7278
 70
192
 0
VERTEX
 8
MANIGLIA_1
 10
32.3549
 20
-7.7648
 30
52.7278
 70
192
 0
VERTEX
 8
MANIGLIA_1
 10
-32.355
 20
-7.7976
 30
52.6238
 70
192
 0
VERTEX
 8
MANIGLIA_1
 10
-28.355
 20
-7.7976
 30
52.6238
 70
192
 0
VERTEX
 8
MANIGLIA_1
 10
28.3549
 20
-7.7976
 30
52.6238
 70
192
 0
VERTEX
 8
MANIGLIA_1
 10
32.3549
 20
-7.7976
 30
52.6238
 70
192
 0
VERTEX
 8
MANIGLIA_1
 10
-32.355
 20
-7.8212
 30
52.5173
 70
192
 0
VERTEX
 8
MANIGLIA_1
 10
-28.355
 20
-7.8212
 30
52.5173
 70
192
 0
VERTEX
 8
MANIGLIA_1
 10
28.3549
 20
-7.8212
 30
52.5173
 70
192
 0
VERTEX
 8
MANIGLIA_1
 10
32.3549
 20
-7.8212
 30
52.5173
 70
192
 0
VERTEX
 8
MANIGLIA_1
 10
-32.355
 20
-7.8354
 30
52.4092
 70
192
 0
VERTEX
 8
MANIGLIA_1
 10
-28.355
 20
-7.8354
 30
52.4092
 70
192
 0
VERTEX
 8
MANIGLIA_1
 10
28.3549
 20
-7.8354
 30
52.4092
 70
192
 0
VERTEX
 8
MANIGLIA_1
 10
32.3549
 20
-7.8354
 30
52.4092
 70
192
 0
VERTEX
 8
MANIGLIA_1
 10
-32.355
 20
-7.8402
 30
52.3003
 70
192
 0
VERTEX
 8
MANIGLIA_1
 10
-28.355
 20
-7.8402
 30
52.3003
 70
192
 0
VERTEX
 8
MANIGLIA_1
 10
28.3549
 20
-7.8402
 30
52.3003
 70
192
 0
VERTEX
 8
MANIGLIA_1
 10
32.3549
 20
-7.8402
 30
52.3003
 70
192
 0
VERTEX
 8
MANIGLIA_1
 10
-32.355
 20
-7.8354
 30
52.1913
 70
192
 0
VERTEX
 8
MANIGLIA_1
 10
-28.355
 20
-7.8354
 30
52.1913
 70
192
 0
VERTEX
 8
MANIGLIA_1
 10
28.3549
 20
-7.8354
 30
52.1913
 70
192
 0
VERTEX
 8
MANIGLIA_1
 10
32.3549
 20
-7.8354
 30
52.1913
 70
192
 0
VERTEX
 8
MANIGLIA_1
 10
-32.355
 20
-7.8212
 30
52.0832
 70
192
 0
VERTEX
 8
MANIGLIA_1
 10
-28.355
 20
-7.8212
 30
52.0832
 70
192
 0
VERTEX
 8
MANIGLIA_1
 10
28.3549
 20
-7.8212
 30
52.0832
 70
192
 0
VERTEX
 8
MANIGLIA_1
 10
-32.355
 20
-6.5902
 30
52.3003
 70
192
 0
VERTEX
 8
MANIGLIA_1
 10
-32.355
 20
-6.5902
 30
51.0503
 70
192
 0
VERTEX
 8
MANIGLIA_1
 10
-28.355
 20
-6.5902
 30
51.0503
 70
192
 0
VERTEX
 8
MANIGLIA_1
 10
28.3549
 20
-6.5902
 30
51.0503
 70
192
 0
VERTEX
 8
MANIGLIA_1
 10
32.3549
 20
-6.5902
 30
51.0503
 70
192
 0
VERTEX
 8
MANIGLIA_1
 10
-32.355
 20
-6.4812
 30
51.055
 70
192
 0
VERTEX
 8
MANIGLIA_1
 10
-28.355
 20
-6.4812
 30
51.055
 70
192
 0
VERTEX
 8
MANIGLIA_1
 10
28.3549
 20
-6.4812
 30
51.055
 70
192
 0
VERTEX
 8
MANIGLIA_1
 10
32.3549
 20
-6.4812
 30
51.055
 70
192
 0
VERTEX
 8
MANIGLIA_1
 10
-32.355
 20
-6.3731
 30
51.0693
 70
192
 0
VERTEX
 8
MANIGLIA_1
 10
-28.355
 20
-6.3731
 30
51.0693
 70
192
 0
VERTEX
 8
MANIGLIA_1
 10
28.3549
 20
-6.3731
 30
51.0693
 70
192
 0
VERTEX
 8
MANIGLIA_1
 10
32.3549
 20
-6.3731
 30
51.0693
 70
192
 0
VERTEX
 8
MANIGLIA_1
 10
-32.355
 20
-6.2666
 30
51.0929
 70
192
 0
VERTEX
 8
MANIGLIA_1
 10
-28.355
 20
-6.2666
 30
51.0929
 70
192
 0
VERTEX
 8
MANIGLIA_1
 10
28.3549
 20
-6.2666
 30
51.0929
 70
192
 0
VERTEX
 8
MANIGLIA_1
 10
32.3549
 20
-6.2666
 30
51.0929
 70
192
 0
VERTEX
 8
MANIGLIA_1
 10
-32.355
 20
-6.1626
 30
51.1257
 70
192
 0
VERTEX
 8
MANIGLIA_1
 10
-28.355
 20
-6.1626
 30
51.1257
 70
192
 0
VERTEX
 8
MANIGLIA_1
 10
28.3549
 20
-6.1626
 30
51.1257
 70
192
 0
VERTEX
 8
MANIGLIA_1
 10
32.3549
 20
-6.1626
 30
51.1257
 70
192
 0
VERTEX
 8
MANIGLIA_1
 10
-32.355
 20
-6.0619
 30
51.1674
 70
192
 0
VERTEX
 8
MANIGLIA_1
 10
-28.355
 20
-6.0619
 30
51.1674
 70
192
 0
VERTEX
 8
MANIGLIA_1
 10
28.3549
 20
-6.0619
 30
51.1674
 70
192
 0
VERTEX
 8
MANIGLIA_1
 10
32.3549
 20
-6.0619
 30
51.1674
 70
192
 0
VERTEX
 8
MANIGLIA_1
 10
-32.355
 20
-5.9044
 30
51.2504
 70
192
 0
VERTEX
 8
MANIGLIA_1
 10
-28.355
 20
-5.9044
 30
51.2504
 70
192
 0
VERTEX
 8
MANIGLIA_1
 10
28.3549
 20
-5.9044
 30
51.2504
 70
192
 0
VERTEX
 8
MANIGLIA_1
 10
32.3549
 20
-5.9044
 30
51.2504
 70
192
 0
VERTEX
 8
MANIGLIA_1
 10
-32.355
 20
-5.8732
 30
51.2763
 70
192
 0
VERTEX
 8
MANIGLIA_1
 10
-28.355
 20
-5.8732
 30
51.2763
 70
192
 0
VERTEX
 8
MANIGLIA_1
 10
28.3549
 20
-5.8732
 30
51.2763
 70
192
 0
VERTEX
 8
MANIGLIA_1
 10
32.3549
 20
-5.8732
 30
51.2763
 70
192
 0
VERTEX
 8
MANIGLIA_1
 10
-32.355
 20
-5.7867
 30
51.3427
 70
192
 0
VERTEX
 8
MANIGLIA_1
 10
-28.355
 20
-5.7867
 30
51.3427
 70
192
 0
VERTEX
 8
MANIGLIA_1
 10
28.3549
 20
-5.7867
 30
51.3427
 70
192
 0
VERTEX
 8
MANIGLIA_1
 10
32.3549
 20
-5.7867
 30
51.3427
 70
192
 0
VERTEX
 8
MANIGLIA_1
 10
-32.355
 20
-5.7063
 30
51.4164
 70
192
 0
VERTEX
 8
MANIGLIA_1
 10
-28.355
 20
-5.7063
 30
51.4164
 70
192
 0
VERTEX
 8
MANIGLIA_1
 10
28.3549
 20
-5.7063
 30
51.4164
 70
192
 0
VERTEX
 8
MANIGLIA_1
 10
32.3549
 20
-5.7063
 30
51.4164
 70
192
 0
VERTEX
 8
MANIGLIA_1
 10
-32.355
 20
-5.6326
 30
51.4968
 70
192
 0
VERTEX
 8
MANIGLIA_1
 10
-28.355
 20
-5.6326
 30
51.4968
 70
192
 0
VERTEX
 8
MANIGLIA_1
 10
28.3549
 20
-5.6326
 30
51.4968
 70
192
 0
VERTEX
 8
MANIGLIA_1
 10
32.3549
 20
-5.6326
 30
51.4968
 70
192
 0
VERTEX
 8
MANIGLIA_1
 10
-32.355
 20
-5.5662
 30
51.5833
 70
192
 0
VERTEX
 8
MANIGLIA_1
 10
-28.355
 20
-5.5662
 30
51.5833
 70
192
 0
VERTEX
 8
MANIGLIA_1
 10
28.3549
 20
-5.5662
 30
51.5833
 70
192
 0
VERTEX
 8
MANIGLIA_1
 10
32.3549
 20
-5.5662
 30
51.5833
 70
192
 0
VERTEX
 8
MANIGLIA_1
 10
-32.355
 20
-5.5076
 30
51.6753
 70
192
 0
VERTEX
 8
MANIGLIA_1
 10
-28.355
 20
-5.5076
 30
51.6753
 70
192
 0
VERTEX
 8
MANIGLIA_1
 10
28.3549
 20
-5.5076
 30
51.6753
 70
192
 0
VERTEX
 8
MANIGLIA_1
 10
32.3549
 20
-5.5076
 30
51.6753
 70
192
 0
VERTEX
 8
MANIGLIA_1
 10
-32.355
 20
-5.4573
 30
51.772
 70
192
 0
VERTEX
 8
MANIGLIA_1
 10
-28.355
 20
-5.4573
 30
51.772
 70
192
 0
VERTEX
 8
MANIGLIA_1
 10
28.3549
 20
-5.4573
 30
51.772
 70
192
 0
VERTEX
 8
MANIGLIA_1
 10
32.3549
 20
-5.4573
 30
51.772
 70
192
 0
VERTEX
 8
MANIGLIA_1
 10
-32.355
 20
-5.4155
 30
51.8728
 70
192
 0
VERTEX
 8
MANIGLIA_1
 10
-28.355
 20
-5.4155
 30
51.8728
 70
192
 0
VERTEX
 8
MANIGLIA_1
 10
28.3549
 20
-5.4155
 30
51.8728
 70
192
 0
VERTEX
 8
MANIGLIA_1
 10
32.3549
 20
-5.4155
 30
51.8728
 70
192
 0
VERTEX
 8
MANIGLIA_1
 10
-32.355
 20
-5.3827
 30
51.9768
 70
192
 0
VERTEX
 8
MANIGLIA_1
 10
-28.355
 20
-5.3827
 30
51.9768
 70
192
 0
VERTEX
 8
MANIGLIA_1
 10
28.3549
 20
-5.3827
 30
51.9768
 70
192
 0
VERTEX
 8
MANIGLIA_1
 10
32.3549
 20
-5.3827
 30
51.9768
 70
192
 0
VERTEX
 8
MANIGLIA_1
 10
-32.355
 20
-5.3591
 30
52.0832
 70
192
 0
VERTEX
 8
MANIGLIA_1
 10
-28.355
 20
-5.3591
 30
52.0832
 70
192
 0
VERTEX
 8
MANIGLIA_1
 10
28.3549
 20
-5.3591
 30
52.0832
 70
192
 0
VERTEX
 8
MANIGLIA_1
 10
32.3549
 20
-5.3591
 30
52.0832
 70
192
 0
VERTEX
 8
MANIGLIA_1
 10
-32.355
 20
-5.3449
 30
52.1913
 70
192
 0
VERTEX
 8
MANIGLIA_1
 10
-28.355
 20
-5.3449
 30
52.1913
 70
192
 0
VERTEX
 8
MANIGLIA_1
 10
28.3549
 20
-5.3449
 30
52.1913
 70
192
 0
VERTEX
 8
MANIGLIA_1
 10
32.3549
 20
-5.3449
 30
52.1913
 70
192
 0
VERTEX
 8
MANIGLIA_1
 10
-32.355
 20
-5.3402
 30
52.3003
 70
192
 0
VERTEX
 8
MANIGLIA_1
 10
-28.355
 20
-5.3402
 30
52.3003
 70
192
 0
VERTEX
 8
MANIGLIA_1
 10
28.3549
 20
-5.3402
 30
52.3003
 70
192
 0
VERTEX
 8
MANIGLIA_1
 10
32.3549
 20
-5.3402
 30
52.3003
 70
192
 0
VERTEX
 8
MANIGLIA_1
 10
-32.355
 20
-5.3449
 30
52.4092
 70
192
 0
VERTEX
 8
MANIGLIA_1
 10
-28.355
 20
-5.3449
 30
52.4092
 70
192
 0
VERTEX
 8
MANIGLIA_1
 10
28.3549
 20
-5.3449
 30
52.4092
 70
192
 0
VERTEX
 8
MANIGLIA_1
 10
32.3549
 20
-5.3449
 30
52.4092
 70
192
 0
VERTEX
 8
MANIGLIA_1
 10
-32.355
 20
-5.3591
 30
52.5173
 70
192
 0
VERTEX
 8
MANIGLIA_1
 10
-28.355
 20
-5.3591
 30
52.5173
 70
192
 0
VERTEX
 8
MANIGLIA_1
 10
28.3549
 20
-5.3591
 30
52.5173
 70
192
 0
VERTEX
 8
MANIGLIA_1
 10
32.3549
 20
-5.3591
 30
52.5173
 70
192
 0
VERTEX
 8
MANIGLIA_1
 10
-32.355
 20
-5.3827
 30
52.6238
 70
192
 0
VERTEX
 8
MANIGLIA_1
 10
-28.355
 20
-5.3827
 30
52.6238
 70
192
 0
VERTEX
 8
MANIGLIA_1
 10
28.3549
 20
-5.3827
 30
52.6238
 70
192
 0
VERTEX
 8
MANIGLIA_1
 10
32.3549
 20
-5.3827
 30
52.6238
 70
192
 0
VERTEX
 8
MANIGLIA_1
 10
-32.355
 20
-5.4155
 30
52.7278
 70
192
 0
VERTEX
 8
MANIGLIA_1
 10
-28.355
 20
-5.4155
 30
52.7278
 70
192
 0
VERTEX
 8
MANIGLIA_1
 10
28.3549
 20
-5.4155
 30
52.7278
 70
192
 0
VERTEX
 8
MANIGLIA_1
 10
32.3549
 20
-5.4155
 30
52.7278
 70
192
 0
VERTEX
 8
MANIGLIA_1
 10
-32.355
 20
-5.4573
 30
52.8286
 70
192
 0
VERTEX
 8
MANIGLIA_1
 10
-28.355
 20
-5.4573
 30
52.8286
 70
192
 0
VERTEX
 8
MANIGLIA_1
 10
28.3549
 20
-5.4573
 30
52.8286
 70
192
 0
VERTEX
 8
MANIGLIA_1
 10
32.3549
 20
-5.4573
 30
52.8286
 70
192
 0
VERTEX
 8
MANIGLIA_1
 10
-32.355
 20
-5.5076
 30
52.9253
 70
192
 0
VERTEX
 8
MANIGLIA_1
 10
-28.355
 20
-5.5076
 30
52.9253
 70
192
 0
VERTEX
 8
MANIGLIA_1
 10
28.3549
 20
-5.5076
 30
52.9253
 70
192
 0
VERTEX
 8
MANIGLIA_1
 10
32.3549
 20
-5.5076
 30
52.9253
 70
192
 0
VERTEX
 8
MANIGLIA_1
 10
-32.355
 20
-5.5662
 30
53.0173
 70
192
 0
VERTEX
 8
MANIGLIA_1
 10
-28.355
 20
-5.5662
 30
53.0173
 70
192
 0
VERTEX
 8
MANIGLIA_1
 10
28.3549
 20
-5.5662
 30
53.0173
 70
192
 0
VERTEX
 8
MANIGLIA_1
 10
32.3549
 20
-5.5662
 30
53.0173
 70
192
 0
VERTEX
 8
MANIGLIA_1
 10
-32.355
 20
-5.6326
 30
53.1038
 70
192
 0
VERTEX
 8
MANIGLIA_1
 10
-28.355
 20
-5.6326
 30
53.1038
 70
192
 0
VERTEX
 8
MANIGLIA_1
 10
28.3549
 20
-5.6326
 30
53.1038
 70
192
 0
VERTEX
 8
MANIGLIA_1
 10
32.3549
 20
-5.6326
 30
53.1038
 70
192
 0
VERTEX
 8
MANIGLIA_1
 10
-32.355
 20
-5.7063
 30
53.1842
 70
192
 0
VERTEX
 8
MANIGLIA_1
 10
-28.355
 20
-5.7063
 30
53.1842
 70
192
 0
VERTEX
 8
MANIGLIA_1
 10
28.3549
 20
-5.7063
 30
53.1842
 70
192
 0
VERTEX
 8
MANIGLIA_1
 10
32.3549
 20
-5.7063
 30
53.1842
 70
192
 0
VERTEX
 8
MANIGLIA_1
 10
-32.355
 20
-5.7867
 30
53.2578
 70
192
 0
VERTEX
 8
MANIGLIA_1
 10
-28.355
 20
-5.7867
 30
53.2578
 70
192
 0
VERTEX
 8
MANIGLIA_1
 10
28.3549
 20
-5.7867
 30
53.2578
 70
192
 0
VERTEX
 8
MANIGLIA_1
 10
32.3549
 20
-5.7867
 30
53.2578
 70
192
 0
VERTEX
 8
MANIGLIA_1
 10
-32.355
 20
-5.8732
 30
53.3242
 70
192
 0
VERTEX
 8
MANIGLIA_1
 10
-28.355
 20
-5.8732
 30
53.3242
 70
192
 0
VERTEX
 8
MANIGLIA_1
 10
28.3549
 20
-5.8732
 30
53.3242
 70
192
 0
VERTEX
 8
MANIGLIA_1
 10
32.3549
 20
-5.8732
 30
53.3242
 70
192
 0
VERTEX
 8
MANIGLIA_1
 10
-32.355
 20
-5.9126
 30
53.3512
 70
192
 0
VERTEX
 8
MANIGLIA_1
 10
-28.355
 20
-5.9126
 30
53.3512
 70
192
 0
VERTEX
 8
MANIGLIA_1
 10
28.3549
 20
-5.9126
 30
53.3512
 70
192
 0
VERTEX
 8
MANIGLIA_1
 10
32.3549
 20
-5.9126
 30
53.3512
 70
192
 0
VERTEX
 8
MANIGLIA_1
 10
-32.355
 20
-6.0619
 30
53.4332
 70
192
 0
VERTEX
 8
MANIGLIA_1
 10
-28.355
 20
-6.0619
 30
53.4332
 70
192
 0
VERTEX
 8
MANIGLIA_1
 10
28.3549
 20
-6.0619
 30
53.4332
 70
192
 0
VERTEX
 8
MANIGLIA_1
 10
32.3549
 20
-6.0619
 30
53.4332
 70
192
 0
VERTEX
 8
MANIGLIA_1
 10
-32.355
 20
-6.1626
 30
53.4749
 70
192
 0
VERTEX
 8
MANIGLIA_1
 10
-28.355
 20
-6.1626
 30
53.4749
 70
192
 0
VERTEX
 8
MANIGLIA_1
 10
28.3549
 20
-6.1626
 30
53.4749
 70
192
 0
VERTEX
 8
MANIGLIA_1
 10
32.3549
 20
-6.1626
 30
53.4749
 70
192
 0
VERTEX
 8
MANIGLIA_1
 10
-32.355
 20
-6.2666
 30
53.5077
 70
192
 0
VERTEX
 8
MANIGLIA_1
 10
-28.355
 20
-6.2666
 30
53.5077
 70
192
 0
VERTEX
 8
MANIGLIA_1
 10
28.3549
 20
-6.2666
 30
53.5077
 70
192
 0
VERTEX
 8
MANIGLIA_1
 10
32.3549
 20
-6.2666
 30
53.5077
 70
192
 0
VERTEX
 8
MANIGLIA_1
 10
-32.355
 20
-6.3731
 30
53.5313
 70
192
 0
VERTEX
 8
MANIGLIA_1
 10
-28.355
 20
-6.3731
 30
53.5313
 70
192
 0
VERTEX
 8
MANIGLIA_1
 10
28.3549
 20
-6.3731
 30
53.5313
 70
192
 0
VERTEX
 8
MANIGLIA_1
 10
32.3549
 20
-6.3731
 30
53.5313
 70
192
 0
VERTEX
 8
MANIGLIA_1
 10
-32.355
 20
-6.4812
 30
53.5455
 70
192
 0
VERTEX
 8
MANIGLIA_1
 10
-28.355
 20
-6.4812
 30
53.5455
 70
192
 0
VERTEX
 8
MANIGLIA_1
 10
28.3549
 20
-6.4812
 30
53.5455
 70
192
 0
VERTEX
 8
MANIGLIA_1
 10
32.3549
 20
-6.4812
 30
53.5455
 70
192
 0
VERTEX
 8
MANIGLIA_1
 10
-32.355
 20
-6.5902
 30
53.5503
 70
192
 0
VERTEX
 8
MANIGLIA_1
 10
-28.355
 20
-6.5902
 30
53.5503
 70
192
 0
VERTEX
 8
MANIGLIA_1
 10
28.3549
 20
-6.5902
 30
53.5503
 70
192
 0
VERTEX
 8
MANIGLIA_1
 10
32.3549
 20
-6.5902
 30
53.5503
 70
192
 0
VERTEX
 8
MANIGLIA_1
 10
-32.355
 20
-6.6991
 30
53.5455
 70
192
 0
VERTEX
 8
MANIGLIA_1
 10
-28.355
 20
-6.6991
 30
53.5455
 70
192
 0
VERTEX
 8
MANIGLIA_1
 10
28.3549
 20
-6.6991
 30
53.5455
 70
192
 0
VERTEX
 8
MANIGLIA_1
 10
32.3549
 20
-6.6991
 30
53.5455
 70
192
 0
VERTEX
 8
MANIGLIA_1
 10
-32.355
 20
-6.8072
 30
53.5313
 70
192
 0
VERTEX
 8
MANIGLIA_1
 10
-28.355
 20
-6.8072
 30
53.5313
 70
192
 0
VERTEX
 8
MANIGLIA_1
 10
28.3549
 20
-6.8072
 30
53.5313
 70
192
 0
VERTEX
 8
MANIGLIA_1
 10
32.3549
 20
-6.8072
 30
53.5313
 70
192
 0
VERTEX
 8
MANIGLIA_1
 10
-32.355
 20
-6.9137
 30
53.5077
 70
192
 0
VERTEX
 8
MANIGLIA_1
 10
-28.355
 20
-6.9137
 30
53.5077
 70
192
 0
VERTEX
 8
MANIGLIA_1
 10
28.3549
 20
-6.9137
 30
53.5077
 70
192
 0
VERTEX
 8
MANIGLIA_1
 10
32.3549
 20
-6.9137
 30
53.5077
 70
192
 0
VERTEX
 8
MANIGLIA_1
 10
-32.355
 20
-7.0177
 30
53.4749
 70
192
 0
VERTEX
 8
MANIGLIA_1
 10
-28.355
 20
-7.0177
 30
53.4749
 70
192
 0
VERTEX
 8
MANIGLIA_1
 10
28.3549
 20
-7.0177
 30
53.4749
 70
192
 0
VERTEX
 8
MANIGLIA_1
 10
32.3549
 20
-7.0177
 30
53.4749
 70
192
 0
VERTEX
 8
MANIGLIA_1
 10
-32.355
 20
-7.1184
 30
53.4332
 70
192
 0
VERTEX
 8
MANIGLIA_1
 10
28.3563
 20
-4.3398
 30
51.2505
 70
192
 0
VERTEX
 8
MANIGLIA_1
 10
-28.356
 20
-2.3398
 30
53.3515
 70
192
 0
VERTEX
 8
MANIGLIA_1
 10
-32.356
 20
-2.3398
 30
51.2505
 70
192
 0
VERTEX
 8
MANIGLIA_1
 10
28.3563
 20
-4.3398
 30
53.3515
 70
192
 0
VERTEX
 8
MANIGLIA_1
 10
32.3563
 20
-4.3398
 30
51.2505
 70
192
 0
VERTEX
 8
MANIGLIA_1
 10
-32.356
 20
-4.3398
 30
53.3515
 70
192
 0
VERTEX
 8
MANIGLIA_1
 10
-28.356
 20
-4.3398
 30
53.3515
 70
192
 0
VERTEX
 8
MANIGLIA_1
 10
-28.356
 20
-2.3398
 30
51.2505
 70
192
 0
VERTEX
 8
MANIGLIA_1
 10
-28.356
 20
-4.3398
 30
51.2505
 70
192
 0
VERTEX
 8
MANIGLIA_1
 10
32.3563
 20
-2.3398
 30
53.3515
 70
192
 0
VERTEX
 8
MANIGLIA_1
 10
28.3563
 20
-2.3398
 30
51.2505
 70
192
 0
VERTEX
 8
MANIGLIA_1
 10
28.3563
 20
-2.3398
 30
53.3515
 70
192
 0
VERTEX
 8
MANIGLIA_1
 10
-32.356
 20
-4.3398
 30
51.2505
 70
192
 0
VERTEX
 8
MANIGLIA_1
 10
-32.356
 20
-2.3398
 30
53.3515
 70
192
 0
VERTEX
 8
MANIGLIA_1
 10
32.3563
 20
-4.3398
 30
53.3515
 70
192
 0
VERTEX
 8
MANIGLIA_1
 10
32.3563
 20
-2.3398
 30
51.2505
 70
192
 0
VERTEX
 8
MANIGLIA_1
 10
32.3549
 20
-6.5902
 30
52.3003
 70
192
 0
VERTEX
 8
MANIGLIA_1
 10
0
 20
0
 30
0
 70
128
 71
227
 72
223
 73
293
 74
293
 0
VERTEX
 8
MANIGLIA_1
 10
0
 20
0
 30
0
 70
128
 71
242
 72
243
 73
247
 74
246
 0
VERTEX
 8
MANIGLIA_1
 10
0
 20
0
 30
0
 70
128
 71
93
 72
94
 73
98
 74
97
 0
VERTEX
 8
MANIGLIA_1
 10
0
 20
0
 30
0
 70
128
 71
94
 72
95
 73
99
 74
98
 0
VERTEX
 8
MANIGLIA_1
 10
0
 20
0
 30
0
 70
128
 71
95
 72
96
 73
100
 74
99
 0
VERTEX
 8
MANIGLIA_1
 10
0
 20
0
 30
0
 70
128
 71
223
 72
219
 73
293
 74
293
 0
VERTEX
 8
MANIGLIA_1
 10
0
 20
0
 30
0
 70
128
 71
219
 72
215
 73
293
 74
293
 0
VERTEX
 8
MANIGLIA_1
 10
0
 20
0
 30
0
 70
128
 71
97
 72
98
 73
102
 74
101
 0
VERTEX
 8
MANIGLIA_1
 10
0
 20
0
 30
0
 70
128
 71
98
 72
99
 73
103
 74
102
 0
VERTEX
 8
MANIGLIA_1
 10
0
 20
0
 30
0
 70
128
 71
99
 72
100
 73
104
 74
103
 0
VERTEX
 8
MANIGLIA_1
 10
0
 20
0
 30
0
 70
128
 71
245
 72
246
 73
250
 74
249
 0
VERTEX
 8
MANIGLIA_1
 10
0
 20
0
 30
0
 70
128
 71
246
 72
247
 73
251
 74
250
 0
VERTEX
 8
MANIGLIA_1
 10
0
 20
0
 30
0
 70
128
 71
101
 72
102
 73
106
 74
105
 0
VERTEX
 8
MANIGLIA_1
 10
0
 20
0
 30
0
 70
128
 71
102
 72
103
 73
107
 74
106
 0
VERTEX
 8
MANIGLIA_1
 10
0
 20
0
 30
0
 70
128
 71
103
 72
104
 73
108
 74
107
 0
VERTEX
 8
MANIGLIA_1
 10
0
 20
0
 30
0
 70
128
 71
247
 72
248
 73
252
 74
251
 0
VERTEX
 8
MANIGLIA_1
 10
0
 20
0
 30
0
 70
128
 71
215
 72
211
 73
293
 74
293
 0
VERTEX
 8
MANIGLIA_1
 10
0
 20
0
 30
0
 70
128
 71
105
 72
106
 73
110
 74
109
 0
VERTEX
 8
MANIGLIA_1
 10
0
 20
0
 30
0
 70
128
 71
106
 72
107
 73
111
 74
110
 0
VERTEX
 8
MANIGLIA_1
 10
0
 20
0
 30
0
 70
128
 71
107
 72
108
 73
112
 74
111
 0
VERTEX
 8
MANIGLIA_1
 10
0
 20
0
 30
0
 70
128
 71
249
 72
250
 73
254
 74
253
 0
VERTEX
 8
MANIGLIA_1
 10
0
 20
0
 30
0
 70
128
 71
250
 72
251
 73
255
 74
254
 0
VERTEX
 8
MANIGLIA_1
 10
0
 20
0
 30
0
 70
128
 71
109
 72
110
 73
114
 74
113
 0
VERTEX
 8
MANIGLIA_1
 10
0
 20
0
 30
0
 70
128
 71
110
 72
111
 73
115
 74
114
 0
VERTEX
 8
MANIGLIA_1
 10
0
 20
0
 30
0
 70
128
 71
111
 72
112
 73
116
 74
115
 0
VERTEX
 8
MANIGLIA_1
 10
0
 20
0
 30
0
 70
128
 71
247
 72
243
 73
293
 74
293
 0
VERTEX
 8
MANIGLIA_1
 10
0
 20
0
 30
0
 70
128
 71
251
 72
252
 73
256
 74
255
 0
VERTEX
 8
MANIGLIA_1
 10
0
 20
0
 30
0
 70
128
 71
113
 72
114
 73
118
 74
117
 0
VERTEX
 8
MANIGLIA_1
 10
0
 20
0
 30
0
 70
128
 71
114
 72
115
 73
119
 74
118
 0
VERTEX
 8
MANIGLIA_1
 10
0
 20
0
 30
0
 70
128
 71
115
 72
116
 73
120
 74
119
 0
VERTEX
 8
MANIGLIA_1
 10
0
 20
0
 30
0
 70
128
 71
243
 72
239
 73
293
 74
293
 0
VERTEX
 8
MANIGLIA_1
 10
0
 20
0
 30
0
 70
128
 71
211
 72
207
 73
293
 74
293
 0
VERTEX
 8
MANIGLIA_1
 10
0
 20
0
 30
0
 70
128
 71
117
 72
118
 73
122
 74
121
 0
VERTEX
 8
MANIGLIA_1
 10
0
 20
0
 30
0
 70
128
 71
118
 72
119
 73
123
 74
122
 0
VERTEX
 8
MANIGLIA_1
 10
0
 20
0
 30
0
 70
128
 71
119
 72
120
 73
1
 74
123
 0
VERTEX
 8
MANIGLIA_1
 10
0
 20
0
 30
0
 70
128
 71
239
 72
235
 73
293
 74
293
 0
VERTEX
 8
MANIGLIA_1
 10
0
 20
0
 30
0
 70
128
 71
253
 72
254
 73
258
 74
257
 0
VERTEX
 8
MANIGLIA_1
 10
0
 20
0
 30
0
 70
128
 71
121
 72
122
 73
3
 74
2
 0
VERTEX
 8
MANIGLIA_1
 10
0
 20
0
 30
0
 70
128
 71
122
 72
123
 73
4
 74
3
 0
VERTEX
 8
MANIGLIA_1
 10
0
 20
0
 30
0
 70
128
 71
123
 72
1
 73
5
 74
4
 0
VERTEX
 8
MANIGLIA_1
 10
0
 20
0
 30
0
 70
128
 71
242
 72
246
 73
296
 74
296
 0
VERTEX
 8
MANIGLIA_1
 10
0
 20
0
 30
0
 70
128
 71
254
 72
255
 73
259
 74
258
 0
VERTEX
 8
MANIGLIA_1
 10
0
 20
0
 30
0
 70
128
 71
2
 72
3
 73
7
 74
6
 0
VERTEX
 8
MANIGLIA_1
 10
0
 20
0
 30
0
 70
128
 71
3
 72
4
 73
8
 74
7
 0
VERTEX
 8
MANIGLIA_1
 10
0
 20
0
 30
0
 70
128
 71
4
 72
5
 73
9
 74
8
 0
VERTEX
 8
MANIGLIA_1
 10
0
 20
0
 30
0
 70
128
 71
296
 72
206
 73
210
 74
210
 0
VERTEX
 8
MANIGLIA_1
 10
0
 20
0
 30
0
 70
128
 71
255
 72
256
 73
260
 74
259
 0
VERTEX
 8
MANIGLIA_1
 10
0
 20
0
 30
0
 70
128
 71
6
 72
7
 73
11
 74
10
 0
VERTEX
 8
MANIGLIA_1
 10
0
 20
0
 30
0
 70
128
 71
7
 72
8
 73
12
 74
11
 0
VERTEX
 8
MANIGLIA_1
 10
0
 20
0
 30
0
 70
128
 71
8
 72
9
 73
13
 74
12
 0
VERTEX
 8
MANIGLIA_1
 10
0
 20
0
 30
0
 70
128
 71
298
 72
194
 73
198
 74
198
 0
VERTEX
 8
MANIGLIA_1
 10
0
 20
0
 30
0
 70
128
 71
207
 72
203
 73
293
 74
293
 0
VERTEX
 8
MANIGLIA_1
 10
0
 20
0
 30
0
 70
128
 71
10
 72
11
 73
15
 74
14
 0
VERTEX
 8
MANIGLIA_1
 10
0
 20
0
 30
0
 70
128
 71
11
 72
12
 73
16
 74
15
 0
VERTEX
 8
MANIGLIA_1
 10
0
 20
0
 30
0
 70
128
 71
12
 72
13
 73
17
 74
16
 0
VERTEX
 8
MANIGLIA_1
 10
0
 20
0
 30
0
 70
128
 71
296
 72
210
 73
214
 74
214
 0
VERTEX
 8
MANIGLIA_1
 10
0
 20
0
 30
0
 70
128
 71
257
 72
258
 73
262
 74
261
 0
VERTEX
 8
MANIGLIA_1
 10
0
 20
0
 30
0
 70
128
 71
14
 72
15
 73
19
 74
18
 0
VERTEX
 8
MANIGLIA_1
 10
0
 20
0
 30
0
 70
128
 71
15
 72
16
 73
20
 74
19
 0
VERTEX
 8
MANIGLIA_1
 10
0
 20
0
 30
0
 70
128
 71
16
 72
17
 73
21
 74
20
 0
VERTEX
 8
MANIGLIA_1
 10
0
 20
0
 30
0
 70
128
 71
296
 72
214
 73
218
 74
218
 0
VERTEX
 8
MANIGLIA_1
 10
0
 20
0
 30
0
 70
128
 71
258
 72
259
 73
263
 74
262
 0
VERTEX
 8
MANIGLIA_1
 10
0
 20
0
 30
0
 70
128
 71
18
 72
19
 73
23
 74
22
 0
VERTEX
 8
MANIGLIA_1
 10
0
 20
0
 30
0
 70
128
 71
19
 72
20
 73
24
 74
23
 0
VERTEX
 8
MANIGLIA_1
 10
0
 20
0
 30
0
 70
128
 71
20
 72
21
 73
25
 74
24
 0
VERTEX
 8
MANIGLIA_1
 10
0
 20
0
 30
0
 70
128
 71
305
 72
299
 73
301
 74
300
 0
VERTEX
 8
MANIGLIA_1
 10
0
 20
0
 30
0
 70
128
 71
259
 72
260
 73
264
 74
263
 0
VERTEX
 8
MANIGLIA_1
 10
0
 20
0
 30
0
 70
128
 71
22
 72
23
 73
27
 74
26
 0
VERTEX
 8
MANIGLIA_1
 10
0
 20
0
 30
0
 70
128
 71
265
 72
266
 73
270
 74
269
 0
VERTEX
 8
MANIGLIA_1
 10
0
 20
0
 30
0
 70
128
 71
266
 72
267
 73
271
 74
270
 0
VERTEX
 8
MANIGLIA_1
 10
0
 20
0
 30
0
 70
128
 71
267
 72
268
 73
272
 74
271
 0
VERTEX
 8
MANIGLIA_1
 10
0
 20
0
 30
0
 70
128
 71
242
 72
296
 73
238
 74
238
 0
VERTEX
 8
MANIGLIA_1
 10
0
 20
0
 30
0
 70
128
 71
261
 72
262
 73
266
 74
265
 0
VERTEX
 8
MANIGLIA_1
 10
0
 20
0
 30
0
 70
128
 71
269
 72
270
 73
274
 74
273
 0
VERTEX
 8
MANIGLIA_1
 10
0
 20
0
 30
0
 70
128
 71
270
 72
271
 73
275
 74
274
 0
VERTEX
 8
MANIGLIA_1
 10
0
 20
0
 30
0
 70
128
 71
271
 72
272
 73
276
 74
275
 0
VERTEX
 8
MANIGLIA_1
 10
0
 20
0
 30
0
 70
128
 71
298
 72
158
 73
162
 74
162
 0
VERTEX
 8
MANIGLIA_1
 10
0
 20
0
 30
0
 70
128
 71
262
 72
263
 73
267
 74
266
 0
VERTEX
 8
MANIGLIA_1
 10
0
 20
0
 30
0
 70
128
 71
273
 72
274
 73
278
 74
277
 0
VERTEX
 8
MANIGLIA_1
 10
0
 20
0
 30
0
 70
128
 71
274
 72
275
 73
279
 74
278
 0
VERTEX
 8
MANIGLIA_1
 10
0
 20
0
 30
0
 70
128
 71
275
 72
276
 73
280
 74
279
 0
VERTEX
 8
MANIGLIA_1
 10
0
 20
0
 30
0
 70
128
 71
298
 72
162
 73
166
 74
166
 0
VERTEX
 8
MANIGLIA_1
 10
0
 20
0
 30
0
 70
128
 71
263
 72
264
 73
268
 74
267
 0
VERTEX
 8
MANIGLIA_1
 10
0
 20
0
 30
0
 70
128
 71
277
 72
278
 73
282
 74
281
 0
VERTEX
 8
MANIGLIA_1
 10
0
 20
0
 30
0
 70
128
 71
278
 72
279
 73
283
 74
282
 0
VERTEX
 8
MANIGLIA_1
 10
0
 20
0
 30
0
 70
128
 71
279
 72
280
 73
284
 74
283
 0
VERTEX
 8
MANIGLIA_1
 10
0
 20
0
 30
0
 70
128
 71
298
 72
166
 73
170
 74
170
 0
VERTEX
 8
MANIGLIA_1
 10
0
 20
0
 30
0
 70
128
 71
301
 72
293
 73
290
 74
300
 0
VERTEX
 8
MANIGLIA_1
 10
0
 20
0
 30
0
 70
128
 71
281
 72
282
 73
286
 74
285
 0
VERTEX
 8
MANIGLIA_1
 10
0
 20
0
 30
0
 70
128
 71
282
 72
283
 73
287
 74
286
 0
VERTEX
 8
MANIGLIA_1
 10
0
 20
0
 30
0
 70
128
 71
283
 72
284
 73
288
 74
287
 0
VERTEX
 8
MANIGLIA_1
 10
0
 20
0
 30
0
 70
128
 71
298
 72
170
 73
174
 74
174
 0
VERTEX
 8
MANIGLIA_1
 10
0
 20
0
 30
0
 70
128
 71
304
 72
294
 73
152
 74
152
 0
VERTEX
 8
MANIGLIA_1
 10
0
 20
0
 30
0
 70
128
 71
285
 72
286
 73
62
 74
289
 0
VERTEX
 8
MANIGLIA_1
 10
0
 20
0
 30
0
 70
128
 71
286
 72
287
 73
63
 74
62
 0
VERTEX
 8
MANIGLIA_1
 10
0
 20
0
 30
0
 70
128
 71
287
 72
288
 73
64
 74
63
 0
VERTEX
 8
MANIGLIA_1
 10
0
 20
0
 30
0
 70
128
 71
298
 72
174
 73
178
 74
178
 0
VERTEX
 8
MANIGLIA_1
 10
0
 20
0
 30
0
 70
128
 71
152
 72
148
 73
248
 74
248
 0
VERTEX
 8
MANIGLIA_1
 10
0
 20
0
 30
0
 70
128
 71
289
 72
62
 73
66
 74
65
 0
VERTEX
 8
MANIGLIA_1
 10
0
 20
0
 30
0
 70
128
 71
62
 72
63
 73
67
 74
66
 0
VERTEX
 8
MANIGLIA_1
 10
0
 20
0
 30
0
 70
128
 71
63
 72
64
 73
68
 74
67
 0
VERTEX
 8
MANIGLIA_1
 10
0
 20
0
 30
0
 70
128
 71
298
 72
178
 73
182
 74
182
 0
VERTEX
 8
MANIGLIA_1
 10
0
 20
0
 30
0
 70
128
 71
45
 72
41
 73
148
 74
148
 0
VERTEX
 8
MANIGLIA_1
 10
0
 20
0
 30
0
 70
128
 71
65
 72
66
 73
70
 74
69
 0
VERTEX
 8
MANIGLIA_1
 10
0
 20
0
 30
0
 70
128
 71
66
 72
67
 73
71
 74
70
 0
VERTEX
 8
MANIGLIA_1
 10
0
 20
0
 30
0
 70
128
 71
67
 72
68
 73
72
 74
71
 0
VERTEX
 8
MANIGLIA_1
 10
0
 20
0
 30
0
 70
128
 71
298
 72
182
 73
186
 74
186
 0
VERTEX
 8
MANIGLIA_1
 10
0
 20
0
 30
0
 70
128
 71
148
 72
41
 73
37
 74
37
 0
VERTEX
 8
MANIGLIA_1
 10
0
 20
0
 30
0
 70
128
 71
69
 72
70
 73
74
 74
73
 0
VERTEX
 8
MANIGLIA_1
 10
0
 20
0
 30
0
 70
128
 71
70
 72
71
 73
75
 74
74
 0
VERTEX
 8
MANIGLIA_1
 10
0
 20
0
 30
0
 70
128
 71
71
 72
72
 73
76
 74
75
 0
VERTEX
 8
MANIGLIA_1
 10
0
 20
0
 30
0
 70
128
 71
298
 72
186
 73
190
 74
190
 0
VERTEX
 8
MANIGLIA_1
 10
0
 20
0
 30
0
 70
128
 71
148
 72
37
 73
33
 74
33
 0
VERTEX
 8
MANIGLIA_1
 10
0
 20
0
 30
0
 70
128
 71
73
 72
74
 73
78
 74
77
 0
VERTEX
 8
MANIGLIA_1
 10
0
 20
0
 30
0
 70
128
 71
74
 72
75
 73
79
 74
78
 0
VERTEX
 8
MANIGLIA_1
 10
0
 20
0
 30
0
 70
128
 71
75
 72
76
 73
80
 74
79
 0
VERTEX
 8
MANIGLIA_1
 10
0
 20
0
 30
0
 70
128
 71
298
 72
190
 73
194
 74
194
 0
VERTEX
 8
MANIGLIA_1
 10
0
 20
0
 30
0
 70
128
 71
148
 72
33
 73
29
 74
29
 0
VERTEX
 8
MANIGLIA_1
 10
0
 20
0
 30
0
 70
128
 71
77
 72
78
 73
82
 74
81
 0
VERTEX
 8
MANIGLIA_1
 10
0
 20
0
 30
0
 70
128
 71
78
 72
79
 73
83
 74
82
 0
VERTEX
 8
MANIGLIA_1
 10
0
 20
0
 30
0
 70
128
 71
79
 72
80
 73
84
 74
83
 0
VERTEX
 8
MANIGLIA_1
 10
0
 20
0
 30
0
 70
128
 71
296
 72
218
 73
222
 74
222
 0
VERTEX
 8
MANIGLIA_1
 10
0
 20
0
 30
0
 70
128
 71
148
 72
29
 73
25
 74
25
 0
VERTEX
 8
MANIGLIA_1
 10
0
 20
0
 30
0
 70
128
 71
81
 72
82
 73
86
 74
85
 0
VERTEX
 8
MANIGLIA_1
 10
0
 20
0
 30
0
 70
128
 71
82
 72
83
 73
87
 74
86
 0
VERTEX
 8
MANIGLIA_1
 10
0
 20
0
 30
0
 70
128
 71
83
 72
84
 73
88
 74
87
 0
VERTEX
 8
MANIGLIA_1
 10
0
 20
0
 30
0
 70
128
 71
296
 72
222
 73
226
 74
226
 0
VERTEX
 8
MANIGLIA_1
 10
0
 20
0
 30
0
 70
128
 71
148
 72
25
 73
21
 74
21
 0
VERTEX
 8
MANIGLIA_1
 10
0
 20
0
 30
0
 70
128
 71
85
 72
86
 73
90
 74
89
 0
VERTEX
 8
MANIGLIA_1
 10
0
 20
0
 30
0
 70
128
 71
86
 72
87
 73
91
 74
90
 0
VERTEX
 8
MANIGLIA_1
 10
0
 20
0
 30
0
 70
128
 71
87
 72
88
 73
92
 74
91
 0
VERTEX
 8
MANIGLIA_1
 10
0
 20
0
 30
0
 70
128
 71
296
 72
226
 73
230
 74
230
 0
VERTEX
 8
MANIGLIA_1
 10
0
 20
0
 30
0
 70
128
 71
148
 72
21
 73
17
 74
17
 0
VERTEX
 8
MANIGLIA_1
 10
0
 20
0
 30
0
 70
128
 71
89
 72
90
 73
94
 74
93
 0
VERTEX
 8
MANIGLIA_1
 10
0
 20
0
 30
0
 70
128
 71
90
 72
91
 73
95
 74
94
 0
VERTEX
 8
MANIGLIA_1
 10
0
 20
0
 30
0
 70
128
 71
91
 72
92
 73
96
 74
95
 0
VERTEX
 8
MANIGLIA_1
 10
0
 20
0
 30
0
 70
128
 71
148
 72
17
 73
13
 74
13
 0
VERTEX
 8
MANIGLIA_1
 10
0
 20
0
 30
0
 70
128
 71
125
 72
126
 73
130
 74
129
 0
VERTEX
 8
MANIGLIA_1
 10
0
 20
0
 30
0
 70
128
 71
126
 72
127
 73
131
 74
130
 0
VERTEX
 8
MANIGLIA_1
 10
0
 20
0
 30
0
 70
128
 71
127
 72
128
 73
132
 74
131
 0
VERTEX
 8
MANIGLIA_1
 10
0
 20
0
 30
0
 70
128
 71
296
 72
230
 73
234
 74
234
 0
VERTEX
 8
MANIGLIA_1
 10
0
 20
0
 30
0
 70
128
 71
148
 72
13
 73
9
 74
9
 0
VERTEX
 8
MANIGLIA_1
 10
0
 20
0
 30
0
 70
128
 71
129
 72
130
 73
134
 74
133
 0
VERTEX
 8
MANIGLIA_1
 10
0
 20
0
 30
0
 70
128
 71
130
 72
131
 73
135
 74
134
 0
VERTEX
 8
MANIGLIA_1
 10
0
 20
0
 30
0
 70
128
 71
131
 72
132
 73
136
 74
135
 0
VERTEX
 8
MANIGLIA_1
 10
0
 20
0
 30
0
 70
128
 71
148
 72
9
 73
5
 74
5
 0
VERTEX
 8
MANIGLIA_1
 10
0
 20
0
 30
0
 70
128
 71
148
 72
5
 73
1
 74
1
 0
VERTEX
 8
MANIGLIA_1
 10
0
 20
0
 30
0
 70
128
 71
133
 72
134
 73
138
 74
137
 0
VERTEX
 8
MANIGLIA_1
 10
0
 20
0
 30
0
 70
128
 71
134
 72
135
 73
139
 74
138
 0
VERTEX
 8
MANIGLIA_1
 10
0
 20
0
 30
0
 70
128
 71
135
 72
136
 73
140
 74
139
 0
VERTEX
 8
MANIGLIA_1
 10
0
 20
0
 30
0
 70
128
 71
246
 72
245
 73
295
 74
296
 0
VERTEX
 8
MANIGLIA_1
 10
0
 20
0
 30
0
 70
128
 71
148
 72
1
 73
120
 74
120
 0
VERTEX
 8
MANIGLIA_1
 10
0
 20
0
 30
0
 70
128
 71
137
 72
138
 73
142
 74
141
 0
VERTEX
 8
MANIGLIA_1
 10
0
 20
0
 30
0
 70
128
 71
138
 72
139
 73
143
 74
142
 0
VERTEX
 8
MANIGLIA_1
 10
0
 20
0
 30
0
 70
128
 71
139
 72
140
 73
144
 74
143
 0
VERTEX
 8
MANIGLIA_1
 10
0
 20
0
 30
0
 70
128
 71
292
 72
303
 73
295
 74
302
 0
VERTEX
 8
MANIGLIA_1
 10
0
 20
0
 30
0
 70
128
 71
148
 72
120
 73
116
 74
116
 0
VERTEX
 8
MANIGLIA_1
 10
0
 20
0
 30
0
 70
128
 71
141
 72
142
 73
146
 74
145
 0
VERTEX
 8
MANIGLIA_1
 10
0
 20
0
 30
0
 70
128
 71
142
 72
143
 73
147
 74
146
 0
VERTEX
 8
MANIGLIA_1
 10
0
 20
0
 30
0
 70
128
 71
143
 72
144
 73
148
 74
147
 0
VERTEX
 8
MANIGLIA_1
 10
0
 20
0
 30
0
 70
128
 71
148
 72
116
 73
252
 74
252
 0
VERTEX
 8
MANIGLIA_1
 10
0
 20
0
 30
0
 70
128
 71
49
 72
148
 73
144
 74
144
 0
VERTEX
 8
MANIGLIA_1
 10
0
 20
0
 30
0
 70
128
 71
145
 72
146
 73
150
 74
149
 0
VERTEX
 8
MANIGLIA_1
 10
0
 20
0
 30
0
 70
128
 71
146
 72
147
 73
151
 74
150
 0
VERTEX
 8
MANIGLIA_1
 10
0
 20
0
 30
0
 70
128
 71
147
 72
148
 73
152
 74
151
 0
VERTEX
 8
MANIGLIA_1
 10
0
 20
0
 30
0
 70
128
 71
53
 72
144
 73
140
 74
140
 0
VERTEX
 8
MANIGLIA_1
 10
0
 20
0
 30
0
 70
128
 71
57
 72
140
 73
136
 74
136
 0
VERTEX
 8
MANIGLIA_1
 10
0
 20
0
 30
0
 70
128
 71
23
 72
24
 73
28
 74
27
 0
VERTEX
 8
MANIGLIA_1
 10
0
 20
0
 30
0
 70
128
 71
150
 72
151
 73
155
 74
154
 0
VERTEX
 8
MANIGLIA_1
 10
0
 20
0
 30
0
 70
128
 71
60
 72
61
 73
128
 74
127
 0
VERTEX
 8
MANIGLIA_1
 10
0
 20
0
 30
0
 70
128
 71
297
 72
291
 73
303
 74
292
 0
VERTEX
 8
MANIGLIA_1
 10
0
 20
0
 30
0
 70
128
 71
61
 72
136
 73
132
 74
132
 0
VERTEX
 8
MANIGLIA_1
 10
0
 20
0
 30
0
 70
128
 71
24
 72
25
 73
29
 74
28
 0
VERTEX
 8
MANIGLIA_1
 10
0
 20
0
 30
0
 70
128
 71
154
 72
155
 73
159
 74
158
 0
VERTEX
 8
MANIGLIA_1
 10
0
 20
0
 30
0
 70
128
 71
42
 72
43
 73
47
 74
46
 0
VERTEX
 8
MANIGLIA_1
 10
0
 20
0
 30
0
 70
128
 71
296
 72
202
 73
206
 74
206
 0
VERTEX
 8
MANIGLIA_1
 10
0
 20
0
 30
0
 70
128
 71
116
 72
112
 73
252
 74
252
 0
VERTEX
 8
MANIGLIA_1
 10
0
 20
0
 30
0
 70
128
 71
149
 72
150
 73
298
 74
302
 0
VERTEX
 8
MANIGLIA_1
 10
0
 20
0
 30
0
 70
128
 71
158
 72
159
 73
163
 74
162
 0
VERTEX
 8
MANIGLIA_1
 10
0
 20
0
 30
0
 70
128
 71
43
 72
44
 73
48
 74
47
 0
VERTEX
 8
MANIGLIA_1
 10
0
 20
0
 30
0
 70
128
 71
235
 72
231
 73
293
 74
293
 0
VERTEX
 8
MANIGLIA_1
 10
0
 20
0
 30
0
 70
128
 71
112
 72
108
 73
252
 74
252
 0
VERTEX
 8
MANIGLIA_1
 10
0
 20
0
 30
0
 70
128
 71
108
 72
104
 73
252
 74
252
 0
VERTEX
 8
MANIGLIA_1
 10
0
 20
0
 30
0
 70
128
 71
162
 72
163
 73
167
 74
166
 0
VERTEX
 8
MANIGLIA_1
 10
0
 20
0
 30
0
 70
128
 71
44
 72
45
 73
49
 74
48
 0
VERTEX
 8
MANIGLIA_1
 10
0
 20
0
 30
0
 70
128
 71
293
 72
301
 73
299
 74
304
 0
VERTEX
 8
MANIGLIA_1
 10
0
 20
0
 30
0
 70
128
 71
104
 72
100
 73
252
 74
252
 0
VERTEX
 8
MANIGLIA_1
 10
0
 20
0
 30
0
 70
128
 71
26
 72
27
 73
31
 74
30
 0
VERTEX
 8
MANIGLIA_1
 10
0
 20
0
 30
0
 70
128
 71
166
 72
167
 73
171
 74
170
 0
VERTEX
 8
MANIGLIA_1
 10
0
 20
0
 30
0
 70
128
 71
300
 72
290
 73
294
 74
305
 0
VERTEX
 8
MANIGLIA_1
 10
0
 20
0
 30
0
 70
128
 71
294
 72
304
 73
299
 74
305
 0
VERTEX
 8
MANIGLIA_1
 10
0
 20
0
 30
0
 70
128
 71
100
 72
96
 73
252
 74
252
 0
VERTEX
 8
MANIGLIA_1
 10
0
 20
0
 30
0
 70
128
 71
27
 72
28
 73
32
 74
31
 0
VERTEX
 8
MANIGLIA_1
 10
0
 20
0
 30
0
 70
128
 71
170
 72
171
 73
175
 74
174
 0
VERTEX
 8
MANIGLIA_1
 10
0
 20
0
 30
0
 70
128
 71
96
 72
92
 73
252
 74
252
 0
VERTEX
 8
MANIGLIA_1
 10
0
 20
0
 30
0
 70
128
 71
293
 72
203
 73
199
 74
290
 0
VERTEX
 8
MANIGLIA_1
 10
0
 20
0
 30
0
 70
128
 71
92
 72
88
 73
252
 74
252
 0
VERTEX
 8
MANIGLIA_1
 10
0
 20
0
 30
0
 70
128
 71
28
 72
29
 73
33
 74
32
 0
VERTEX
 8
MANIGLIA_1
 10
0
 20
0
 30
0
 70
128
 71
174
 72
175
 73
179
 74
178
 0
VERTEX
 8
MANIGLIA_1
 10
0
 20
0
 30
0
 70
128
 71
46
 72
47
 73
51
 74
50
 0
VERTEX
 8
MANIGLIA_1
 10
0
 20
0
 30
0
 70
128
 71
199
 72
195
 73
290
 74
290
 0
VERTEX
 8
MANIGLIA_1
 10
0
 20
0
 30
0
 70
128
 71
88
 72
84
 73
252
 74
252
 0
VERTEX
 8
MANIGLIA_1
 10
0
 20
0
 30
0
 70
128
 71
296
 72
198
 73
202
 74
202
 0
VERTEX
 8
MANIGLIA_1
 10
0
 20
0
 30
0
 70
128
 71
178
 72
179
 73
183
 74
182
 0
VERTEX
 8
MANIGLIA_1
 10
0
 20
0
 30
0
 70
128
 71
47
 72
48
 73
52
 74
51
 0
VERTEX
 8
MANIGLIA_1
 10
0
 20
0
 30
0
 70
128
 71
195
 72
191
 73
290
 74
290
 0
VERTEX
 8
MANIGLIA_1
 10
0
 20
0
 30
0
 70
128
 71
84
 72
80
 73
252
 74
252
 0
VERTEX
 8
MANIGLIA_1
 10
0
 20
0
 30
0
 70
128
 71
80
 72
76
 73
252
 74
252
 0
VERTEX
 8
MANIGLIA_1
 10
0
 20
0
 30
0
 70
128
 71
182
 72
183
 73
187
 74
186
 0
VERTEX
 8
MANIGLIA_1
 10
0
 20
0
 30
0
 70
128
 71
48
 72
49
 73
53
 74
52
 0
VERTEX
 8
MANIGLIA_1
 10
0
 20
0
 30
0
 70
128
 71
191
 72
187
 73
290
 74
290
 0
VERTEX
 8
MANIGLIA_1
 10
0
 20
0
 30
0
 70
128
 71
76
 72
72
 73
252
 74
252
 0
VERTEX
 8
MANIGLIA_1
 10
0
 20
0
 30
0
 70
128
 71
30
 72
31
 73
35
 74
34
 0
VERTEX
 8
MANIGLIA_1
 10
0
 20
0
 30
0
 70
128
 71
186
 72
187
 73
191
 74
190
 0
VERTEX
 8
MANIGLIA_1
 10
0
 20
0
 30
0
 70
128
 71
187
 72
183
 73
290
 74
290
 0
VERTEX
 8
MANIGLIA_1
 10
0
 20
0
 30
0
 70
128
 71
296
 72
234
 73
238
 74
238
 0
VERTEX
 8
MANIGLIA_1
 10
0
 20
0
 30
0
 70
128
 71
72
 72
68
 73
252
 74
252
 0
VERTEX
 8
MANIGLIA_1
 10
0
 20
0
 30
0
 70
128
 71
31
 72
32
 73
36
 74
35
 0
VERTEX
 8
MANIGLIA_1
 10
0
 20
0
 30
0
 70
128
 71
190
 72
191
 73
195
 74
194
 0
VERTEX
 8
MANIGLIA_1
 10
0
 20
0
 30
0
 70
128
 71
252
 72
68
 73
64
 74
64
 0
VERTEX
 8
MANIGLIA_1
 10
0
 20
0
 30
0
 70
128
 71
298
 72
150
 73
154
 74
154
 0
VERTEX
 8
MANIGLIA_1
 10
0
 20
0
 30
0
 70
128
 71
256
 72
64
 73
288
 74
288
 0
VERTEX
 8
MANIGLIA_1
 10
0
 20
0
 30
0
 70
128
 71
32
 72
33
 73
37
 74
36
 0
VERTEX
 8
MANIGLIA_1
 10
0
 20
0
 30
0
 70
128
 71
194
 72
195
 73
199
 74
198
 0
VERTEX
 8
MANIGLIA_1
 10
0
 20
0
 30
0
 70
128
 71
50
 72
51
 73
55
 74
54
 0
VERTEX
 8
MANIGLIA_1
 10
0
 20
0
 30
0
 70
128
 71
298
 72
154
 73
158
 74
158
 0
VERTEX
 8
MANIGLIA_1
 10
0
 20
0
 30
0
 70
128
 71
260
 72
288
 73
284
 74
284
 0
VERTEX
 8
MANIGLIA_1
 10
0
 20
0
 30
0
 70
128
 71
296
 72
298
 73
198
 74
198
 0
VERTEX
 8
MANIGLIA_1
 10
0
 20
0
 30
0
 70
128
 71
198
 72
199
 73
203
 74
202
 0
VERTEX
 8
MANIGLIA_1
 10
0
 20
0
 30
0
 70
128
 71
51
 72
52
 73
56
 74
55
 0
VERTEX
 8
MANIGLIA_1
 10
0
 20
0
 30
0
 70
128
 71
183
 72
179
 73
290
 74
290
 0
VERTEX
 8
MANIGLIA_1
 10
0
 20
0
 30
0
 70
128
 71
264
 72
284
 73
280
 74
280
 0
VERTEX
 8
MANIGLIA_1
 10
0
 20
0
 30
0
 70
128
 71
268
 72
280
 73
276
 74
276
 0
VERTEX
 8
MANIGLIA_1
 10
0
 20
0
 30
0
 70
128
 71
202
 72
203
 73
207
 74
206
 0
VERTEX
 8
MANIGLIA_1
 10
0
 20
0
 30
0
 70
128
 71
52
 72
53
 73
57
 74
56
 0
VERTEX
 8
MANIGLIA_1
 10
0
 20
0
 30
0
 70
128
 71
179
 72
175
 73
290
 74
290
 0
VERTEX
 8
MANIGLIA_1
 10
0
 20
0
 30
0
 70
128
 71
304
 72
152
 73
248
 74
248
 0
VERTEX
 8
MANIGLIA_1
 10
0
 20
0
 30
0
 70
128
 71
34
 72
35
 73
39
 74
38
 0
VERTEX
 8
MANIGLIA_1
 10
0
 20
0
 30
0
 70
128
 71
206
 72
207
 73
211
 74
210
 0
VERTEX
 8
MANIGLIA_1
 10
0
 20
0
 30
0
 70
128
 71
295
 72
303
 73
291
 74
296
 0
VERTEX
 8
MANIGLIA_1
 10
0
 20
0
 30
0
 70
128
 71
292
 72
302
 73
298
 74
297
 0
VERTEX
 8
MANIGLIA_1
 10
0
 20
0
 30
0
 70
128
 71
45
 72
148
 73
49
 74
49
 0
VERTEX
 8
MANIGLIA_1
 10
0
 20
0
 30
0
 70
128
 71
35
 72
36
 73
40
 74
39
 0
VERTEX
 8
MANIGLIA_1
 10
0
 20
0
 30
0
 70
128
 71
210
 72
211
 73
215
 74
214
 0
VERTEX
 8
MANIGLIA_1
 10
0
 20
0
 30
0
 70
128
 71
148
 72
252
 73
248
 74
248
 0
VERTEX
 8
MANIGLIA_1
 10
0
 20
0
 30
0
 70
128
 71
298
 72
296
 73
291
 74
297
 0
VERTEX
 8
MANIGLIA_1
 10
0
 20
0
 30
0
 70
128
 71
49
 72
144
 73
53
 74
53
 0
VERTEX
 8
MANIGLIA_1
 10
0
 20
0
 30
0
 70
128
 71
36
 72
37
 73
41
 74
40
 0
VERTEX
 8
MANIGLIA_1
 10
0
 20
0
 30
0
 70
128
 71
214
 72
215
 73
219
 74
218
 0
VERTEX
 8
MANIGLIA_1
 10
0
 20
0
 30
0
 70
128
 71
54
 72
55
 73
59
 74
58
 0
VERTEX
 8
MANIGLIA_1
 10
0
 20
0
 30
0
 70
128
 71
175
 72
171
 73
290
 74
290
 0
VERTEX
 8
MANIGLIA_1
 10
0
 20
0
 30
0
 70
128
 71
53
 72
140
 73
57
 74
57
 0
VERTEX
 8
MANIGLIA_1
 10
0
 20
0
 30
0
 70
128
 71
171
 72
167
 73
290
 74
290
 0
VERTEX
 8
MANIGLIA_1
 10
0
 20
0
 30
0
 70
128
 71
218
 72
219
 73
223
 74
222
 0
VERTEX
 8
MANIGLIA_1
 10
0
 20
0
 30
0
 70
128
 71
55
 72
56
 73
60
 74
59
 0
VERTEX
 8
MANIGLIA_1
 10
0
 20
0
 30
0
 70
128
 71
167
 72
163
 73
290
 74
290
 0
VERTEX
 8
MANIGLIA_1
 10
0
 20
0
 30
0
 70
128
 71
57
 72
136
 73
61
 74
61
 0
VERTEX
 8
MANIGLIA_1
 10
0
 20
0
 30
0
 70
128
 71
61
 72
132
 73
128
 74
128
 0
VERTEX
 8
MANIGLIA_1
 10
0
 20
0
 30
0
 70
128
 71
222
 72
223
 73
227
 74
226
 0
VERTEX
 8
MANIGLIA_1
 10
0
 20
0
 30
0
 70
128
 71
56
 72
57
 73
61
 74
60
 0
VERTEX
 8
MANIGLIA_1
 10
0
 20
0
 30
0
 70
128
 71
163
 72
159
 73
290
 74
290
 0
VERTEX
 8
MANIGLIA_1
 10
0
 20
0
 30
0
 70
128
 71
252
 72
64
 73
256
 74
256
 0
VERTEX
 8
MANIGLIA_1
 10
0
 20
0
 30
0
 70
128
 71
38
 72
39
 73
43
 74
42
 0
VERTEX
 8
MANIGLIA_1
 10
0
 20
0
 30
0
 70
128
 71
226
 72
227
 73
231
 74
230
 0
VERTEX
 8
MANIGLIA_1
 10
0
 20
0
 30
0
 70
128
 71
159
 72
155
 73
290
 74
290
 0
VERTEX
 8
MANIGLIA_1
 10
0
 20
0
 30
0
 70
128
 71
155
 72
151
 73
290
 74
290
 0
VERTEX
 8
MANIGLIA_1
 10
0
 20
0
 30
0
 70
128
 71
256
 72
288
 73
260
 74
260
 0
VERTEX
 8
MANIGLIA_1
 10
0
 20
0
 30
0
 70
128
 71
39
 72
40
 73
44
 74
43
 0
VERTEX
 8
MANIGLIA_1
 10
0
 20
0
 30
0
 70
128
 71
230
 72
231
 73
235
 74
234
 0
VERTEX
 8
MANIGLIA_1
 10
0
 20
0
 30
0
 70
128
 71
260
 72
284
 73
264
 74
264
 0
VERTEX
 8
MANIGLIA_1
 10
0
 20
0
 30
0
 70
128
 71
151
 72
152
 73
294
 74
290
 0
VERTEX
 8
MANIGLIA_1
 10
0
 20
0
 30
0
 70
128
 71
264
 72
280
 73
268
 74
268
 0
VERTEX
 8
MANIGLIA_1
 10
0
 20
0
 30
0
 70
128
 71
40
 72
41
 73
45
 74
44
 0
VERTEX
 8
MANIGLIA_1
 10
0
 20
0
 30
0
 70
128
 71
234
 72
235
 73
239
 74
238
 0
VERTEX
 8
MANIGLIA_1
 10
0
 20
0
 30
0
 70
128
 71
58
 72
59
 73
126
 74
125
 0
VERTEX
 8
MANIGLIA_1
 10
0
 20
0
 30
0
 70
128
 71
248
 72
247
 73
293
 74
304
 0
VERTEX
 8
MANIGLIA_1
 10
0
 20
0
 30
0
 70
128
 71
268
 72
276
 73
272
 74
272
 0
VERTEX
 8
MANIGLIA_1
 10
0
 20
0
 30
0
 70
128
 71
231
 72
227
 73
293
 74
293
 0
VERTEX
 8
MANIGLIA_1
 10
0
 20
0
 30
0
 70
128
 71
238
 72
239
 73
243
 74
242
 0
VERTEX
 8
MANIGLIA_1
 10
0
 20
0
 30
0
 70
128
 71
59
 72
60
 73
127
 74
126
 0
VERTEX
 8
MANIGLIA_1
 10
0
 20
0
 30
0
 70
128
 71
145
 72
245
 73
249
 74
249
 0
VERTEX
 8
MANIGLIA_1
 10
0
 20
0
 30
0
 70
128
 71
245
 72
145
 73
149
 74
149
 0
VERTEX
 8
MANIGLIA_1
 10
0
 20
0
 30
0
 70
128
 71
295
 72
245
 73
149
 74
149
 0
VERTEX
 8
MANIGLIA_1
 10
0
 20
0
 30
0
 70
128
 71
249
 72
253
 73
289
 74
289
 0
VERTEX
 8
MANIGLIA_1
 10
0
 20
0
 30
0
 70
128
 71
249
 72
65
 73
69
 74
69
 0
VERTEX
 8
MANIGLIA_1
 10
0
 20
0
 30
0
 70
128
 71
249
 72
69
 73
73
 74
73
 0
VERTEX
 8
MANIGLIA_1
 10
0
 20
0
 30
0
 70
128
 71
249
 72
73
 73
77
 74
77
 0
VERTEX
 8
MANIGLIA_1
 10
0
 20
0
 30
0
 70
128
 71
249
 72
77
 73
81
 74
81
 0
VERTEX
 8
MANIGLIA_1
 10
0
 20
0
 30
0
 70
128
 71
249
 72
81
 73
85
 74
85
 0
VERTEX
 8
MANIGLIA_1
 10
0
 20
0
 30
0
 70
128
 71
249
 72
85
 73
89
 74
89
 0
VERTEX
 8
MANIGLIA_1
 10
0
 20
0
 30
0
 70
128
 71
249
 72
89
 73
93
 74
93
 0
VERTEX
 8
MANIGLIA_1
 10
0
 20
0
 30
0
 70
128
 71
249
 72
93
 73
97
 74
97
 0
VERTEX
 8
MANIGLIA_1
 10
0
 20
0
 30
0
 70
128
 71
249
 72
97
 73
101
 74
101
 0
VERTEX
 8
MANIGLIA_1
 10
0
 20
0
 30
0
 70
128
 71
249
 72
101
 73
105
 74
105
 0
VERTEX
 8
MANIGLIA_1
 10
0
 20
0
 30
0
 70
128
 71
249
 72
105
 73
109
 74
109
 0
VERTEX
 8
MANIGLIA_1
 10
0
 20
0
 30
0
 70
128
 71
249
 72
109
 73
113
 74
113
 0
VERTEX
 8
MANIGLIA_1
 10
0
 20
0
 30
0
 70
128
 71
253
 72
257
 73
285
 74
285
 0
VERTEX
 8
MANIGLIA_1
 10
0
 20
0
 30
0
 70
128
 71
257
 72
261
 73
281
 74
281
 0
VERTEX
 8
MANIGLIA_1
 10
0
 20
0
 30
0
 70
128
 71
261
 72
265
 73
277
 74
277
 0
VERTEX
 8
MANIGLIA_1
 10
0
 20
0
 30
0
 70
128
 71
265
 72
269
 73
273
 74
273
 0
VERTEX
 8
MANIGLIA_1
 10
0
 20
0
 30
0
 70
128
 71
113
 72
117
 73
145
 74
145
 0
VERTEX
 8
MANIGLIA_1
 10
0
 20
0
 30
0
 70
128
 71
117
 72
121
 73
145
 74
145
 0
VERTEX
 8
MANIGLIA_1
 10
0
 20
0
 30
0
 70
128
 71
121
 72
2
 73
145
 74
145
 0
VERTEX
 8
MANIGLIA_1
 10
0
 20
0
 30
0
 70
128
 71
2
 72
6
 73
145
 74
145
 0
VERTEX
 8
MANIGLIA_1
 10
0
 20
0
 30
0
 70
128
 71
6
 72
10
 73
145
 74
145
 0
VERTEX
 8
MANIGLIA_1
 10
0
 20
0
 30
0
 70
128
 71
10
 72
14
 73
145
 74
145
 0
VERTEX
 8
MANIGLIA_1
 10
0
 20
0
 30
0
 70
128
 71
14
 72
18
 73
145
 74
145
 0
VERTEX
 8
MANIGLIA_1
 10
0
 20
0
 30
0
 70
128
 71
18
 72
22
 73
145
 74
145
 0
VERTEX
 8
MANIGLIA_1
 10
0
 20
0
 30
0
 70
128
 71
22
 72
26
 73
145
 74
145
 0
VERTEX
 8
MANIGLIA_1
 10
0
 20
0
 30
0
 70
128
 71
26
 72
30
 73
145
 74
145
 0
VERTEX
 8
MANIGLIA_1
 10
0
 20
0
 30
0
 70
128
 71
30
 72
34
 73
145
 74
145
 0
VERTEX
 8
MANIGLIA_1
 10
0
 20
0
 30
0
 70
128
 71
34
 72
38
 73
145
 74
145
 0
VERTEX
 8
MANIGLIA_1
 10
0
 20
0
 30
0
 70
128
 71
145
 72
38
 73
42
 74
42
 0
VERTEX
 8
MANIGLIA_1
 10
0
 20
0
 30
0
 70
128
 71
141
 72
145
 73
46
 74
46
 0
VERTEX
 8
MANIGLIA_1
 10
0
 20
0
 30
0
 70
128
 71
137
 72
141
 73
50
 74
50
 0
VERTEX
 8
MANIGLIA_1
 10
0
 20
0
 30
0
 70
128
 71
133
 72
137
 73
54
 74
54
 0
VERTEX
 8
MANIGLIA_1
 10
0
 20
0
 30
0
 70
128
 71
129
 72
133
 73
58
 74
58
 0
VERTEX
 8
MANIGLIA_1
 10
0
 20
0
 30
0
 70
128
 71
145
 72
249
 73
113
 74
113
 0
VERTEX
 8
MANIGLIA_1
 10
0
 20
0
 30
0
 70
128
 71
295
 72
149
 73
302
 74
302
 0
VERTEX
 8
MANIGLIA_1
 10
0
 20
0
 30
0
 70
128
 71
249
 72
289
 73
65
 74
65
 0
VERTEX
 8
MANIGLIA_1
 10
0
 20
0
 30
0
 70
128
 71
253
 72
285
 73
289
 74
289
 0
VERTEX
 8
MANIGLIA_1
 10
0
 20
0
 30
0
 70
128
 71
257
 72
281
 73
285
 74
285
 0
VERTEX
 8
MANIGLIA_1
 10
0
 20
0
 30
0
 70
128
 71
261
 72
277
 73
281
 74
281
 0
VERTEX
 8
MANIGLIA_1
 10
0
 20
0
 30
0
 70
128
 71
265
 72
273
 73
277
 74
277
 0
VERTEX
 8
MANIGLIA_1
 10
0
 20
0
 30
0
 70
128
 71
145
 72
42
 73
46
 74
46
 0
VERTEX
 8
MANIGLIA_1
 10
0
 20
0
 30
0
 70
128
 71
141
 72
46
 73
50
 74
50
 0
VERTEX
 8
MANIGLIA_1
 10
0
 20
0
 30
0
 70
128
 71
137
 72
50
 73
54
 74
54
 0
VERTEX
 8
MANIGLIA_1
 10
0
 20
0
 30
0
 70
128
 71
133
 72
54
 73
58
 74
58
 0
VERTEX
 8
MANIGLIA_1
 10
0
 20
0
 30
0
 70
128
 71
129
 72
58
 73
125
 74
125
 0
SEQEND
 0
POLYLINE
 8
ANTA_CORNICE
 66
1
 10
0.0
 20
0.0
 30
0.0
 70
64
 71
32
 72
32
 0
VERTEX
 8
ANTA_CORNICE
 10
-37.575
 20
-2.2
 30
2.16
 70
192
 0
VERTEX
 8
ANTA_CORNICE
 10
-37.575
 20
-2.2
 30
14.16
 70
192
 0
VERTEX
 8
ANTA_CORNICE
 10
-37.575
 20
-2.2
 30
44.16
 70
192
 0
VERTEX
 8
ANTA_CORNICE
 10
-37.575
 20
-2.2
 30
56.16
 70
192
 0
VERTEX
 8
ANTA_CORNICE
 10
-25.05
 20
-2.2
 30
2.16
 70
192
 0
VERTEX
 8
ANTA_CORNICE
 10
-25.05
 20
-2.2
 30
14.16
 70
192
 0
VERTEX
 8
ANTA_CORNICE
 10
-25.05
 20
-2.2
 30
44.16
 70
192
 0
VERTEX
 8
ANTA_CORNICE
 10
-25.05
 20
-2.2
 30
56.16
 70
192
 0
VERTEX
 8
ANTA_CORNICE
 10
25.05
 20
-2.2
 30
2.16
 70
192
 0
VERTEX
 8
ANTA_CORNICE
 10
25.05
 20
-2.2
 30
14.16
 70
192
 0
VERTEX
 8
ANTA_CORNICE
 10
25.05
 20
-2.2
 30
44.16
 70
192
 0
VERTEX
 8
ANTA_CORNICE
 10
25.05
 20
-2.2
 30
56.16
 70
192
 0
VERTEX
 8
ANTA_CORNICE
 10
37.575
 20
-2.2
 30
2.16
 70
192
 0
VERTEX
 8
ANTA_CORNICE
 10
37.575
 20
-2.2
 30
14.16
 70
192
 0
VERTEX
 8
ANTA_CORNICE
 10
37.575
 20
-2.2
 30
44.16
 70
192
 0
VERTEX
 8
ANTA_CORNICE
 10
37.575
 20
-2.2
 30
56.16
 70
192
 0
VERTEX
 8
ANTA_CORNICE
 10
37.575
 20
-1.7
 30
2.16
 70
192
 0
VERTEX
 8
ANTA_CORNICE
 10
37.575
 20
-1.7
 30
14.16
 70
192
 0
VERTEX
 8
ANTA_CORNICE
 10
37.575
 20
-1.7
 30
44.16
 70
192
 0
VERTEX
 8
ANTA_CORNICE
 10
37.575
 20
-1.7
 30
56.16
 70
192
 0
VERTEX
 8
ANTA_CORNICE
 10
25.05
 20
-1.7
 30
2.16
 70
192
 0
VERTEX
 8
ANTA_CORNICE
 10
25.05
 20
-1.7
 30
14.16
 70
192
 0
VERTEX
 8
ANTA_CORNICE
 10
25.05
 20
-1.7
 30
44.16
 70
192
 0
VERTEX
 8
ANTA_CORNICE
 10
25.05
 20
-1.7
 30
56.16
 70
192
 0
VERTEX
 8
ANTA_CORNICE
 10
-25.05
 20
-1.7
 30
2.16
 70
192
 0
VERTEX
 8
ANTA_CORNICE
 10
-25.05
 20
-1.7
 30
14.16
 70
192
 0
VERTEX
 8
ANTA_CORNICE
 10
-25.05
 20
-1.7
 30
44.16
 70
192
 0
VERTEX
 8
ANTA_CORNICE
 10
-25.05
 20
-1.7
 30
56.16
 70
192
 0
VERTEX
 8
ANTA_CORNICE
 10
-37.575
 20
-1.7
 30
2.16
 70
192
 0
VERTEX
 8
ANTA_CORNICE
 10
-37.575
 20
-1.7
 30
14.16
 70
192
 0
VERTEX
 8
ANTA_CORNICE
 10
-37.575
 20
-1.7
 30
44.16
 70
192
 0
VERTEX
 8
ANTA_CORNICE
 10
-37.575
 20
-1.7
 30
56.16
 70
192
 0
VERTEX
 8
ANTA_CORNICE
 10
0
 20
0
 30
0
 70
128
 71
1
 72
2
 73
6
 74
5
 0
VERTEX
 8
ANTA_CORNICE
 10
0
 20
0
 30
0
 70
128
 71
5
 72
6
 73
10
 74
9
 0
VERTEX
 8
ANTA_CORNICE
 10
0
 20
0
 30
0
 70
128
 71
9
 72
10
 73
14
 74
13
 0
VERTEX
 8
ANTA_CORNICE
 10
0
 20
0
 30
0
 70
128
 71
2
 72
3
 73
7
 74
6
 0
VERTEX
 8
ANTA_CORNICE
 10
0
 20
0
 30
0
 70
128
 71
21
 72
9
 73
13
 74
17
 0
VERTEX
 8
ANTA_CORNICE
 10
0
 20
0
 30
0
 70
128
 71
10
 72
11
 73
15
 74
14
 0
VERTEX
 8
ANTA_CORNICE
 10
0
 20
0
 30
0
 70
128
 71
3
 72
4
 73
8
 74
7
 0
VERTEX
 8
ANTA_CORNICE
 10
0
 20
0
 30
0
 70
128
 71
7
 72
8
 73
12
 74
11
 0
VERTEX
 8
ANTA_CORNICE
 10
0
 20
0
 30
0
 70
128
 71
11
 72
12
 73
16
 74
15
 0
VERTEX
 8
ANTA_CORNICE
 10
0
 20
0
 30
0
 70
128
 71
13
 72
14
 73
18
 74
17
 0
VERTEX
 8
ANTA_CORNICE
 10
0
 20
0
 30
0
 70
128
 71
14
 72
15
 73
19
 74
18
 0
VERTEX
 8
ANTA_CORNICE
 10
0
 20
0
 30
0
 70
128
 71
15
 72
16
 73
20
 74
19
 0
VERTEX
 8
ANTA_CORNICE
 10
0
 20
0
 30
0
 70
128
 71
17
 72
18
 73
22
 74
21
 0
VERTEX
 8
ANTA_CORNICE
 10
0
 20
0
 30
0
 70
128
 71
21
 72
22
 73
26
 74
25
 0
VERTEX
 8
ANTA_CORNICE
 10
0
 20
0
 30
0
 70
128
 71
25
 72
26
 73
30
 74
29
 0
VERTEX
 8
ANTA_CORNICE
 10
0
 20
0
 30
0
 70
128
 71
18
 72
19
 73
23
 74
22
 0
VERTEX
 8
ANTA_CORNICE
 10
0
 20
0
 30
0
 70
128
 71
25
 72
5
 73
9
 74
21
 0
VERTEX
 8
ANTA_CORNICE
 10
0
 20
0
 30
0
 70
128
 71
26
 72
27
 73
31
 74
30
 0
VERTEX
 8
ANTA_CORNICE
 10
0
 20
0
 30
0
 70
128
 71
19
 72
20
 73
24
 74
23
 0
VERTEX
 8
ANTA_CORNICE
 10
0
 20
0
 30
0
 70
128
 71
23
 72
24
 73
28
 74
27
 0
VERTEX
 8
ANTA_CORNICE
 10
0
 20
0
 30
0
 70
128
 71
27
 72
28
 73
32
 74
31
 0
VERTEX
 8
ANTA_CORNICE
 10
0
 20
0
 30
0
 70
128
 71
29
 72
30
 73
2
 74
1
 0
VERTEX
 8
ANTA_CORNICE
 10
0
 20
0
 30
0
 70
128
 71
30
 72
31
 73
3
 74
2
 0
VERTEX
 8
ANTA_CORNICE
 10
0
 20
0
 30
0
 70
128
 71
31
 72
32
 73
4
 74
3
 0
VERTEX
 8
ANTA_CORNICE
 10
0
 20
0
 30
0
 70
128
 71
4
 72
32
 73
28
 74
8
 0
VERTEX
 8
ANTA_CORNICE
 10
0
 20
0
 30
0
 70
128
 71
8
 72
28
 73
24
 74
12
 0
VERTEX
 8
ANTA_CORNICE
 10
0
 20
0
 30
0
 70
128
 71
12
 72
24
 73
20
 74
16
 0
VERTEX
 8
ANTA_CORNICE
 10
0
 20
0
 30
0
 70
128
 71
29
 72
1
 73
5
 74
25
 0
VERTEX
 8
ANTA_CORNICE
 10
0
 20
0
 30
0
 70
128
 71
23
 72
27
 73
7
 74
11
 0
VERTEX
 8
ANTA_CORNICE
 10
0
 20
0
 30
0
 70
128
 71
22
 72
23
 73
11
 74
10
 0
VERTEX
 8
ANTA_CORNICE
 10
0
 20
0
 30
0
 70
128
 71
26
 72
22
 73
10
 74
6
 0
VERTEX
 8
ANTA_CORNICE
 10
0
 20
0
 30
0
 70
128
 71
27
 72
26
 73
6
 74
7
 0
SEQEND
 0
POLYLINE
 8
ANTA_FINESTRA
 66
1
 10
0.0
 20
0.0
 30
0.0
 70
64
 71
8
 72
6
 0
VERTEX
 8
ANTA_FINESTRA
 10
25.05
 20
-2.2
 30
14.16
 70
192
 0
VERTEX
 8
ANTA_FINESTRA
 10
25.05
 20
-2.2
 30
44.16
 70
192
 0
VERTEX
 8
ANTA_FINESTRA
 10
-25.05
 20
-1.7
 30
44.16
 70
192
 0
VERTEX
 8
ANTA_FINESTRA
 10
25.05
 20
-1.7
 30
14.16
 70
192
 0
VERTEX
 8
ANTA_FINESTRA
 10
25.05
 20
-1.7
 30
44.16
 70
192
 0
VERTEX
 8
ANTA_FINESTRA
 10
-25.05
 20
-2.2
 30
14.16
 70
192
 0
VERTEX
 8
ANTA_FINESTRA
 10
-25.05
 20
-2.2
 30
44.16
 70
192
 0
VERTEX
 8
ANTA_FINESTRA
 10
-25.05
 20
-1.7
 30
14.16
 70
192
 0
VERTEX
 8
ANTA_FINESTRA
 10
0
 20
0
 30
0
 70
128
 71
6
 72
7
 73
2
 74
1
 0
VERTEX
 8
ANTA_FINESTRA
 10
0
 20
0
 30
0
 70
128
 71
4
 72
5
 73
3
 74
8
 0
VERTEX
 8
ANTA_FINESTRA
 10
0
 20
0
 30
0
 70
128
 71
8
 72
3
 73
7
 74
6
 0
VERTEX
 8
ANTA_FINESTRA
 10
0
 20
0
 30
0
 70
128
 71
3
 72
5
 73
2
 74
7
 0
VERTEX
 8
ANTA_FINESTRA
 10
0
 20
0
 30
0
 70
128
 71
1
 72
2
 73
5
 74
4
 0
VERTEX
 8
ANTA_FINESTRA
 10
0
 20
0
 30
0
 70
128
 71
6
 72
1
 73
4
 74
8
 0
SEQEND
 0
POLYLINE
 8
ANTA_INFERIORE
 66
1
 10
0.0
 20
0.0
 30
0.0
 70
64
 71
32
 72
32
 0
VERTEX
 8
ANTA_INFERIORE
 10
-37.7
 20
-2.34
 30
1.9759
 70
192
 0
VERTEX
 8
ANTA_INFERIORE
 10
-37.7
 20
-2.34
 30
13.695
 70
192
 0
VERTEX
 8
ANTA_INFERIORE
 10
-37.7
 20
-2.34
 30
46.195
 70
192
 0
VERTEX
 8
ANTA_INFERIORE
 10
-37.7
 20
-2.34
 30
56.1241
 70
192
 0
VERTEX
 8
ANTA_INFERIORE
 10
-35.4001
 20
-2.34
 30
1.9759
 70
192
 0
VERTEX
 8
ANTA_INFERIORE
 10
-35.4001
 20
-2.34
 30
13.695
 70
192
 0
VERTEX
 8
ANTA_INFERIORE
 10
-35.4001
 20
-2.34
 30
46.195
 70
192
 0
VERTEX
 8
ANTA_INFERIORE
 10
-35.4001
 20
-2.34
 30
56.1241
 70
192
 0
VERTEX
 8
ANTA_INFERIORE
 10
35.3999
 20
-2.34
 30
1.9759
 70
192
 0
VERTEX
 8
ANTA_INFERIORE
 10
35.3999
 20
-2.34
 30
13.695
 70
192
 0
VERTEX
 8
ANTA_INFERIORE
 10
35.3999
 20
-2.34
 30
46.195
 70
192
 0
VERTEX
 8
ANTA_INFERIORE
 10
35.3999
 20
-2.34
 30
56.1241
 70
192
 0
VERTEX
 8
ANTA_INFERIORE
 10
37.7
 20
-2.34
 30
1.9759
 70
192
 0
VERTEX
 8
ANTA_INFERIORE
 10
37.7
 20
-2.34
 30
13.695
 70
192
 0
VERTEX
 8
ANTA_INFERIORE
 10
37.7
 20
-2.34
 30
46.195
 70
192
 0
VERTEX
 8
ANTA_INFERIORE
 10
37.7
 20
-2.34
 30
56.1241
 70
192
 0
VERTEX
 8
ANTA_INFERIORE
 10
37.7
 20
-1.84
 30
1.9759
 70
192
 0
VERTEX
 8
ANTA_INFERIORE
 10
37.7
 20
-1.84
 30
13.695
 70
192
 0
VERTEX
 8
ANTA_INFERIORE
 10
37.7
 20
-1.84
 30
46.195
 70
192
 0
VERTEX
 8
ANTA_INFERIORE
 10
37.7
 20
-1.84
 30
56.1241
 70
192
 0
VERTEX
 8
ANTA_INFERIORE
 10
35.3999
 20
-1.84
 30
1.9759
 70
192
 0
VERTEX
 8
ANTA_INFERIORE
 10
35.3999
 20
-1.84
 30
13.695
 70
192
 0
VERTEX
 8
ANTA_INFERIORE
 10
35.3999
 20
-1.84
 30
46.195
 70
192
 0
VERTEX
 8
ANTA_INFERIORE
 10
35.3999
 20
-1.84
 30
56.1241
 70
192
 0
VERTEX
 8
ANTA_INFERIORE
 10
-35.4001
 20
-1.84
 30
1.9759
 70
192
 0
VERTEX
 8
ANTA_INFERIORE
 10
-35.4001
 20
-1.84
 30
13.695
 70
192
 0
VERTEX
 8
ANTA_INFERIORE
 10
-35.4001
 20
-1.84
 30
46.195
 70
192
 0
VERTEX
 8
ANTA_INFERIORE
 10
-35.4001
 20
-1.84
 30
56.1241
 70
192
 0
VERTEX
 8
ANTA_INFERIORE
 10
-37.7
 20
-1.84
 30
1.9759
 70
192
 0
VERTEX
 8
ANTA_INFERIORE
 10
-37.7
 20
-1.84
 30
13.695
 70
192
 0
VERTEX
 8
ANTA_INFERIORE
 10
-37.7
 20
-1.84
 30
46.195
 70
192
 0
VERTEX
 8
ANTA_INFERIORE
 10
-37.7
 20
-1.84
 30
56.1241
 70
192
 0
VERTEX
 8
ANTA_INFERIORE
 10
0
 20
0
 30
0
 70
128
 71
1
 72
2
 73
6
 74
5
 0
VERTEX
 8
ANTA_INFERIORE
 10
0
 20
0
 30
0
 70
128
 71
5
 72
6
 73
10
 74
9
 0
VERTEX
 8
ANTA_INFERIORE
 10
0
 20
0
 30
0
 70
128
 71
9
 72
10
 73
14
 74
13
 0
VERTEX
 8
ANTA_INFERIORE
 10
0
 20
0
 30
0
 70
128
 71
2
 72
3
 73
7
 74
6
 0
VERTEX
 8
ANTA_INFERIORE
 10
0
 20
0
 30
0
 70
128
 71
21
 72
9
 73
13
 74
17
 0
VERTEX
 8
ANTA_INFERIORE
 10
0
 20
0
 30
0
 70
128
 71
10
 72
11
 73
15
 74
14
 0
VERTEX
 8
ANTA_INFERIORE
 10
0
 20
0
 30
0
 70
128
 71
3
 72
4
 73
8
 74
7
 0
VERTEX
 8
ANTA_INFERIORE
 10
0
 20
0
 30
0
 70
128
 71
7
 72
8
 73
12
 74
11
 0
VERTEX
 8
ANTA_INFERIORE
 10
0
 20
0
 30
0
 70
128
 71
11
 72
12
 73
16
 74
15
 0
VERTEX
 8
ANTA_INFERIORE
 10
0
 20
0
 30
0
 70
128
 71
13
 72
14
 73
18
 74
17
 0
VERTEX
 8
ANTA_INFERIORE
 10
0
 20
0
 30
0
 70
128
 71
14
 72
15
 73
19
 74
18
 0
VERTEX
 8
ANTA_INFERIORE
 10
0
 20
0
 30
0
 70
128
 71
15
 72
16
 73
20
 74
19
 0
VERTEX
 8
ANTA_INFERIORE
 10
0
 20
0
 30
0
 70
128
 71
17
 72
18
 73
22
 74
21
 0
VERTEX
 8
ANTA_INFERIORE
 10
0
 20
0
 30
0
 70
128
 71
21
 72
22
 73
26
 74
25
 0
VERTEX
 8
ANTA_INFERIORE
 10
0
 20
0
 30
0
 70
128
 71
25
 72
26
 73
30
 74
29
 0
VERTEX
 8
ANTA_INFERIORE
 10
0
 20
0
 30
0
 70
128
 71
18
 72
19
 73
23
 74
22
 0
VERTEX
 8
ANTA_INFERIORE
 10
0
 20
0
 30
0
 70
128
 71
25
 72
5
 73
9
 74
21
 0
VERTEX
 8
ANTA_INFERIORE
 10
0
 20
0
 30
0
 70
128
 71
26
 72
27
 73
31
 74
30
 0
VERTEX
 8
ANTA_INFERIORE
 10
0
 20
0
 30
0
 70
128
 71
19
 72
20
 73
24
 74
23
 0
VERTEX
 8
ANTA_INFERIORE
 10
0
 20
0
 30
0
 70
128
 71
23
 72
24
 73
28
 74
27
 0
VERTEX
 8
ANTA_INFERIORE
 10
0
 20
0
 30
0
 70
128
 71
27
 72
28
 73
32
 74
31
 0
VERTEX
 8
ANTA_INFERIORE
 10
0
 20
0
 30
0
 70
128
 71
29
 72
30
 73
2
 74
1
 0
VERTEX
 8
ANTA_INFERIORE
 10
0
 20
0
 30
0
 70
128
 71
30
 72
31
 73
3
 74
2
 0
VERTEX
 8
ANTA_INFERIORE
 10
0
 20
0
 30
0
 70
128
 71
31
 72
32
 73
4
 74
3
 0
VERTEX
 8
ANTA_INFERIORE
 10
0
 20
0
 30
0
 70
128
 71
4
 72
32
 73
28
 74
8
 0
VERTEX
 8
ANTA_INFERIORE
 10
0
 20
0
 30
0
 70
128
 71
8
 72
28
 73
24
 74
12
 0
VERTEX
 8
ANTA_INFERIORE
 10
0
 20
0
 30
0
 70
128
 71
12
 72
24
 73
20
 74
16
 0
VERTEX
 8
ANTA_INFERIORE
 10
0
 20
0
 30
0
 70
128
 71
29
 72
1
 73
5
 74
25
 0
VERTEX
 8
ANTA_INFERIORE
 10
0
 20
0
 30
0
 70
128
 71
27
 72
26
 73
6
 74
7
 0
VERTEX
 8
ANTA_INFERIORE
 10
0
 20
0
 30
0
 70
128
 71
23
 72
27
 73
7
 74
11
 0
VERTEX
 8
ANTA_INFERIORE
 10
0
 20
0
 30
0
 70
128
 71
22
 72
23
 73
11
 74
10
 0
VERTEX
 8
ANTA_INFERIORE
 10
0
 20
0
 30
0
 70
128
 71
26
 72
22
 73
10
 74
6
 0
SEQEND
 0
POLYLINE
 8
DIETRO
 66
1
 10
0.0
 20
0.0
 30
0.0
 70
64
 71
36
 72
34
 0
VERTEX
 8
DIETRO
 10
-37.5
 20
-1.4119
 30
-0.94
 70
192
 0
VERTEX
 8
DIETRO
 10
-37.5
 20
-1.4119
 30
0.1641
 70
192
 0
VERTEX
 8
DIETRO
 10
-37.5
 20
-1.4119
 30
125.8803
 70
192
 0
VERTEX
 8
DIETRO
 10
-37.5
 20
-1.4119
 30
128.56
 70
192
 0
VERTEX
 8
DIETRO
 10
-34
 20
-1.4119
 30
-0.94
 70
192
 0
VERTEX
 8
DIETRO
 10
-34
 20
-1.4119
 30
0.1641
 70
192
 0
VERTEX
 8
DIETRO
 10
-34
 20
-1.4119
 30
125.8803
 70
192
 0
VERTEX
 8
DIETRO
 10
-34
 20
-1.4119
 30
128.56
 70
192
 0
VERTEX
 8
DIETRO
 10
34
 20
-1.4119
 30
-0.94
 70
192
 0
VERTEX
 8
DIETRO
 10
34
 20
-1.4119
 30
0.1641
 70
192
 0
VERTEX
 8
DIETRO
 10
34
 20
-1.4119
 30
125.8803
 70
192
 0
VERTEX
 8
DIETRO
 10
34
 20
-1.4119
 30
128.56
 70
192
 0
VERTEX
 8
DIETRO
 10
37.5
 20
-1.4119
 30
-0.94
 70
192
 0
VERTEX
 8
DIETRO
 10
37.5
 20
-1.4119
 30
0.1641
 70
192
 0
VERTEX
 8
DIETRO
 10
37.5
 20
-1.4119
 30
125.8803
 70
192
 0
VERTEX
 8
DIETRO
 10
37.5
 20
-1.4119
 30
128.56
 70
192
 0
VERTEX
 8
DIETRO
 10
37.5
 20
0.1881
 30
-0.94
 70
192
 0
VERTEX
 8
DIETRO
 10
37.5
 20
0.1881
 30
0.1641
 70
192
 0
VERTEX
 8
DIETRO
 10
37.5
 20
0.1881
 30
125.8803
 70
192
 0
VERTEX
 8
DIETRO
 10
37.5
 20
0.1881
 30
128.56
 70
192
 0
VERTEX
 8
DIETRO
 10
34
 20
0.1881
 30
-0.94
 70
192
 0
VERTEX
 8
DIETRO
 10
34
 20
0.1881
 30
0.1641
 70
192
 0
VERTEX
 8
DIETRO
 10
34
 20
0.1881
 30
125.8803
 70
192
 0
VERTEX
 8
DIETRO
 10
34
 20
0.1881
 30
128.56
 70
192
 0
VERTEX
 8
DIETRO
 10
-34
 20
0.1881
 30
-0.94
 70
192
 0
VERTEX
 8
DIETRO
 10
-34
 20
0.1881
 30
0.1641
 70
192
 0
VERTEX
 8
DIETRO
 10
-34
 20
0.1881
 30
125.8803
 70
192
 0
VERTEX
 8
DIETRO
 10
-34
 20
0.1881
 30
128.56
 70
192
 0
VERTEX
 8
DIETRO
 10
-37.5
 20
0.1881
 30
-0.94
 70
192
 0
VERTEX
 8
DIETRO
 10
-37.5
 20
0.1881
 30
0.1641
 70
192
 0
VERTEX
 8
DIETRO
 10
-37.5
 20
0.1881
 30
125.8803
 70
192
 0
VERTEX
 8
DIETRO
 10
-37.5
 20
0.1881
 30
128.56
 70
192
 0
VERTEX
 8
DIETRO
 10
34
 20
50.9103
 30
0.1641
 70
192
 0
VERTEX
 8
DIETRO
 10
34
 20
50.9103
 30
125.8803
 70
192
 0
VERTEX
 8
DIETRO
 10
-34
 20
50.9103
 30
0.1641
 70
192
 0
VERTEX
 8
DIETRO
 10
-34
 20
50.9103
 30
125.8803
 70
192
 0
VERTEX
 8
DIETRO
 10
0
 20
0
 30
0
 70
128
 71
1
 72
2
 73
6
 74
5
 0
VERTEX
 8
DIETRO
 10
0
 20
0
 30
0
 70
128
 71
5
 72
6
 73
10
 74
9
 0
VERTEX
 8
DIETRO
 10
0
 20
0
 30
0
 70
128
 71
9
 72
10
 73
14
 74
13
 0
VERTEX
 8
DIETRO
 10
0
 20
0
 30
0
 70
128
 71
2
 72
3
 73
7
 74
6
 0
VERTEX
 8
DIETRO
 10
0
 20
0
 30
0
 70
128
 71
6
 72
7
 73
11
 74
10
 0
VERTEX
 8
DIETRO
 10
0
 20
0
 30
0
 70
128
 71
10
 72
11
 73
15
 74
14
 0
VERTEX
 8
DIETRO
 10
0
 20
0
 30
0
 70
128
 71
3
 72
4
 73
8
 74
7
 0
VERTEX
 8
DIETRO
 10
0
 20
0
 30
0
 70
128
 71
7
 72
8
 73
12
 74
11
 0
VERTEX
 8
DIETRO
 10
0
 20
0
 30
0
 70
128
 71
11
 72
12
 73
16
 74
15
 0
VERTEX
 8
DIETRO
 10
0
 20
0
 30
0
 70
128
 71
13
 72
14
 73
18
 74
17
 0
VERTEX
 8
DIETRO
 10
0
 20
0
 30
0
 70
128
 71
14
 72
15
 73
19
 74
18
 0
VERTEX
 8
DIETRO
 10
0
 20
0
 30
0
 70
128
 71
15
 72
16
 73
20
 74
19
 0
VERTEX
 8
DIETRO
 10
0
 20
0
 30
0
 70
128
 71
17
 72
18
 73
22
 74
21
 0
VERTEX
 8
DIETRO
 10
0
 20
0
 30
0
 70
128
 71
21
 72
22
 73
26
 74
25
 0
VERTEX
 8
DIETRO
 10
0
 20
0
 30
0
 70
128
 71
25
 72
26
 73
30
 74
29
 0
VERTEX
 8
DIETRO
 10
0
 20
0
 30
0
 70
128
 71
18
 72
19
 73
23
 74
22
 0
VERTEX
 8
DIETRO
 10
0
 20
0
 30
0
 70
128
 71
33
 72
34
 73
36
 74
35
 0
VERTEX
 8
DIETRO
 10
0
 20
0
 30
0
 70
128
 71
26
 72
27
 73
31
 74
30
 0
VERTEX
 8
DIETRO
 10
0
 20
0
 30
0
 70
128
 71
19
 72
20
 73
24
 74
23
 0
VERTEX
 8
DIETRO
 10
0
 20
0
 30
0
 70
128
 71
23
 72
24
 73
28
 74
27
 0
VERTEX
 8
DIETRO
 10
0
 20
0
 30
0
 70
128
 71
27
 72
28
 73
32
 74
31
 0
VERTEX
 8
DIETRO
 10
0
 20
0
 30
0
 70
128
 71
29
 72
30
 73
2
 74
1
 0
VERTEX
 8
DIETRO
 10
0
 20
0
 30
0
 70
128
 71
30
 72
31
 73
3
 74
2
 0
VERTEX
 8
DIETRO
 10
0
 20
0
 30
0
 70
128
 71
31
 72
32
 73
4
 74
3
 0
VERTEX
 8
DIETRO
 10
0
 20
0
 30
0
 70
128
 71
4
 72
32
 73
28
 74
8
 0
VERTEX
 8
DIETRO
 10
0
 20
0
 30
0
 70
128
 71
8
 72
28
 73
24
 74
12
 0
VERTEX
 8
DIETRO
 10
0
 20
0
 30
0
 70
128
 71
12
 72
24
 73
20
 74
16
 0
VERTEX
 8
DIETRO
 10
0
 20
0
 30
0
 70
128
 71
29
 72
1
 73
5
 74
25
 0
VERTEX
 8
DIETRO
 10
0
 20
0
 30
0
 70
128
 71
25
 72
5
 73
9
 74
21
 0
VERTEX
 8
DIETRO
 10
0
 20
0
 30
0
 70
128
 71
21
 72
9
 73
13
 74
17
 0
VERTEX
 8
DIETRO
 10
0
 20
0
 30
0
 70
128
 71
22
 72
33
 73
35
 74
26
 0
VERTEX
 8
DIETRO
 10
0
 20
0
 30
0
 70
128
 71
26
 72
35
 73
36
 74
27
 0
VERTEX
 8
DIETRO
 10
0
 20
0
 30
0
 70
128
 71
27
 72
36
 73
34
 74
23
 0
VERTEX
 8
DIETRO
 10
0
 20
0
 30
0
 70
128
 71
23
 72
34
 73
33
 74
22
 0
SEQEND
 0
POLYLINE
 8
CUBO
 66
1
 10
0.0
 20
0.0
 30
0.0
 70
64
 71
8
 72
6
 0
VERTEX
 8
CUBO
 10
-37.575
 20
-2.2
 30
117.325
 70
192
 0
VERTEX
 8
CUBO
 10
-37.575
 20
-2.2
 30
128.875
 70
192
 0
VERTEX
 8
CUBO
 10
37.575
 20
-2.2
 30
117.325
 70
192
 0
VERTEX
 8
CUBO
 10
37.575
 20
-2.2
 30
128.875
 70
192
 0
VERTEX
 8
CUBO
 10
37.575
 20
-1.7
 30
117.325
 70
192
 0
VERTEX
 8
CUBO
 10
37.575
 20
-1.7
 30
128.875
 70
192
 0
VERTEX
 8
CUBO
 10
-37.575
 20
-1.7
 30
117.325
 70
192
 0
VERTEX
 8
CUBO
 10
-37.575
 20
-1.7
 30
128.875
 70
192
 0
VERTEX
 8
CUBO
 10
0
 20
0
 30
0
 70
128
 71
1
 72
2
 73
4
 74
3
 0
VERTEX
 8
CUBO
 10
0
 20
0
 30
0
 70
128
 71
3
 72
4
 73
6
 74
5
 0
VERTEX
 8
CUBO
 10
0
 20
0
 30
0
 70
128
 71
5
 72
6
 73
8
 74
7
 0
VERTEX
 8
CUBO
 10
0
 20
0
 30
0
 70
128
 71
7
 72
8
 73
2
 74
1
 0
VERTEX
 8
CUBO
 10
0
 20
0
 30
0
 70
128
 71
2
 72
8
 73
6
 74
4
 0
VERTEX
 8
CUBO
 10
0
 20
0
 30
0
 70
128
 71
7
 72
1
 73
3
 74
5
 0
SEQEND
 0
POLYLINE
 8
ANTA
 66
1
 10
0.0
 20
0.0
 30
0.0
 70
64
 71
32
 72
32
 0
VERTEX
 8
ANTA
 10
-37.7
 20
-2.34
 30
61.7211
 70
192
 0
VERTEX
 8
ANTA
 10
-37.7
 20
-2.34
 30
73.4402
 70
192
 0
VERTEX
 8
ANTA
 10
-37.7
 20
-2.34
 30
105.9402
 70
192
 0
VERTEX
 8
ANTA
 10
-37.7
 20
-2.34
 30
115.8693
 70
192
 0
VERTEX
 8
ANTA
 10
-35.4001
 20
-2.34
 30
61.7211
 70
192
 0
VERTEX
 8
ANTA
 10
-35.4001
 20
-2.34
 30
73.4402
 70
192
 0
VERTEX
 8
ANTA
 10
-35.4001
 20
-2.34
 30
105.9402
 70
192
 0
VERTEX
 8
ANTA
 10
-35.4001
 20
-2.34
 30
115.8693
 70
192
 0
VERTEX
 8
ANTA
 10
35.3999
 20
-2.34
 30
61.7211
 70
192
 0
VERTEX
 8
ANTA
 10
35.3999
 20
-2.34
 30
73.4402
 70
192
 0
VERTEX
 8
ANTA
 10
35.3999
 20
-2.34
 30
105.9402
 70
192
 0
VERTEX
 8
ANTA
 10
35.3999
 20
-2.34
 30
115.8693
 70
192
 0
VERTEX
 8
ANTA
 10
37.7
 20
-2.34
 30
61.7211
 70
192
 0
VERTEX
 8
ANTA
 10
37.7
 20
-2.34
 30
73.4402
 70
192
 0
VERTEX
 8
ANTA
 10
37.7
 20
-2.34
 30
105.9402
 70
192
 0
VERTEX
 8
ANTA
 10
37.7
 20
-2.34
 30
115.8693
 70
192
 0
VERTEX
 8
ANTA
 10
37.7
 20
-1.84
 30
61.7211
 70
192
 0
VERTEX
 8
ANTA
 10
37.7
 20
-1.84
 30
73.4402
 70
192
 0
VERTEX
 8
ANTA
 10
37.7
 20
-1.84
 30
105.9402
 70
192
 0
VERTEX
 8
ANTA
 10
37.7
 20
-1.84
 30
115.8693
 70
192
 0
VERTEX
 8
ANTA
 10
35.3999
 20
-1.84
 30
61.7211
 70
192
 0
VERTEX
 8
ANTA
 10
35.3999
 20
-1.84
 30
73.4402
 70
192
 0
VERTEX
 8
ANTA
 10
35.3999
 20
-1.84
 30
105.9402
 70
192
 0
VERTEX
 8
ANTA
 10
35.3999
 20
-1.84
 30
115.8693
 70
192
 0
VERTEX
 8
ANTA
 10
-35.4001
 20
-1.84
 30
61.7211
 70
192
 0
VERTEX
 8
ANTA
 10
-35.4001
 20
-1.84
 30
73.4402
 70
192
 0
VERTEX
 8
ANTA
 10
-35.4001
 20
-1.84
 30
105.9402
 70
192
 0
VERTEX
 8
ANTA
 10
-35.4001
 20
-1.84
 30
115.8693
 70
192
 0
VERTEX
 8
ANTA
 10
-37.7
 20
-1.84
 30
61.7211
 70
192
 0
VERTEX
 8
ANTA
 10
-37.7
 20
-1.84
 30
73.4402
 70
192
 0
VERTEX
 8
ANTA
 10
-37.7
 20
-1.84
 30
105.9402
 70
192
 0
VERTEX
 8
ANTA
 10
-37.7
 20
-1.84
 30
115.8693
 70
192
 0
VERTEX
 8
ANTA
 10
0
 20
0
 30
0
 70
128
 71
1
 72
2
 73
6
 74
5
 0
VERTEX
 8
ANTA
 10
0
 20
0
 30
0
 70
128
 71
5
 72
6
 73
10
 74
9
 0
VERTEX
 8
ANTA
 10
0
 20
0
 30
0
 70
128
 71
9
 72
10
 73
14
 74
13
 0
VERTEX
 8
ANTA
 10
0
 20
0
 30
0
 70
128
 71
2
 72
3
 73
7
 74
6
 0
VERTEX
 8
ANTA
 10
0
 20
0
 30
0
 70
128
 71
21
 72
9
 73
13
 74
17
 0
VERTEX
 8
ANTA
 10
0
 20
0
 30
0
 70
128
 71
10
 72
11
 73
15
 74
14
 0
VERTEX
 8
ANTA
 10
0
 20
0
 30
0
 70
128
 71
3
 72
4
 73
8
 74
7
 0
VERTEX
 8
ANTA
 10
0
 20
0
 30
0
 70
128
 71
7
 72
8
 73
12
 74
11
 0
VERTEX
 8
ANTA
 10
0
 20
0
 30
0
 70
128
 71
11
 72
12
 73
16
 74
15
 0
VERTEX
 8
ANTA
 10
0
 20
0
 30
0
 70
128
 71
13
 72
14
 73
18
 74
17
 0
VERTEX
 8
ANTA
 10
0
 20
0
 30
0
 70
128
 71
14
 72
15
 73
19
 74
18
 0
VERTEX
 8
ANTA
 10
0
 20
0
 30
0
 70
128
 71
15
 72
16
 73
20
 74
19
 0
VERTEX
 8
ANTA
 10
0
 20
0
 30
0
 70
128
 71
17
 72
18
 73
22
 74
21
 0
VERTEX
 8
ANTA
 10
0
 20
0
 30
0
 70
128
 71
21
 72
22
 73
26
 74
25
 0
VERTEX
 8
ANTA
 10
0
 20
0
 30
0
 70
128
 71
25
 72
26
 73
30
 74
29
 0
VERTEX
 8
ANTA
 10
0
 20
0
 30
0
 70
128
 71
18
 72
19
 73
23
 74
22
 0
VERTEX
 8
ANTA
 10
0
 20
0
 30
0
 70
128
 71
25
 72
5
 73
9
 74
21
 0
VERTEX
 8
ANTA
 10
0
 20
0
 30
0
 70
128
 71
26
 72
27
 73
31
 74
30
 0
VERTEX
 8
ANTA
 10
0
 20
0
 30
0
 70
128
 71
19
 72
20
 73
24
 74
23
 0
VERTEX
 8
ANTA
 10
0
 20
0
 30
0
 70
128
 71
23
 72
24
 73
28
 74
27
 0
VERTEX
 8
ANTA
 10
0
 20
0
 30
0
 70
128
 71
27
 72
28
 73
32
 74
31
 0
VERTEX
 8
ANTA
 10
0
 20
0
 30
0
 70
128
 71
29
 72
30
 73
2
 74
1
 0
VERTEX
 8
ANTA
 10
0
 20
0
 30
0
 70
128
 71
30
 72
31
 73
3
 74
2
 0
VERTEX
 8
ANTA
 10
0
 20
0
 30
0
 70
128
 71
31
 72
32
 73
4
 74
3
 0
VERTEX
 8
ANTA
 10
0
 20
0
 30
0
 70
128
 71
4
 72
32
 73
28
 74
8
 0
VERTEX
 8
ANTA
 10
0
 20
0
 30
0
 70
128
 71
8
 72
28
 73
24
 74
12
 0
VERTEX
 8
ANTA
 10
0
 20
0
 30
0
 70
128
 71
12
 72
24
 73
20
 74
16
 0
VERTEX
 8
ANTA
 10
0
 20
0
 30
0
 70
128
 71
29
 72
1
 73
5
 74
25
 0
VERTEX
 8
ANTA
 10
0
 20
0
 30
0
 70
128
 71
27
 72
26
 73
6
 74
7
 0
VERTEX
 8
ANTA
 10
0
 20
0
 30
0
 70
128
 71
23
 72
27
 73
7
 74
11
 0
VERTEX
 8
ANTA
 10
0
 20
0
 30
0
 70
128
 71
22
 72
23
 73
11
 74
10
 0
VERTEX
 8
ANTA
 10
0
 20
0
 30
0
 70
128
 71
26
 72
22
 73
10
 74
6
 0
SEQEND
 0
POLYLINE
 8
MANIGLIA
 66
1
 10
0.0
 20
0.0
 30
0.0
 70
64
 71
261
 72
330
 0
VERTEX
 8
MANIGLIA
 10
32.3549
 20
-7.8212
 30
111.8272
 70
192
 0
VERTEX
 8
MANIGLIA
 10
-32.355
 20
-7.7976
 30
111.7207
 70
192
 0
VERTEX
 8
MANIGLIA
 10
-28.355
 20
-7.7976
 30
111.7207
 70
192
 0
VERTEX
 8
MANIGLIA
 10
28.3549
 20
-7.7976
 30
111.7207
 70
192
 0
VERTEX
 8
MANIGLIA
 10
32.3549
 20
-7.7976
 30
111.7207
 70
192
 0
VERTEX
 8
MANIGLIA
 10
-32.355
 20
-7.7648
 30
111.6167
 70
192
 0
VERTEX
 8
MANIGLIA
 10
-28.355
 20
-7.7648
 30
111.6167
 70
192
 0
VERTEX
 8
MANIGLIA
 10
28.3549
 20
-7.7648
 30
111.6167
 70
192
 0
VERTEX
 8
MANIGLIA
 10
32.3549
 20
-7.7648
 30
111.6167
 70
192
 0
VERTEX
 8
MANIGLIA
 10
-32.355
 20
-7.723
 30
111.516
 70
192
 0
VERTEX
 8
MANIGLIA
 10
-28.355
 20
-7.723
 30
111.516
 70
192
 0
VERTEX
 8
MANIGLIA
 10
28.3549
 20
-7.723
 30
111.516
 70
192
 0
VERTEX
 8
MANIGLIA
 10
32.3549
 20
-7.723
 30
111.516
 70
192
 0
VERTEX
 8
MANIGLIA
 10
-32.355
 20
-7.6727
 30
111.4192
 70
192
 0
VERTEX
 8
MANIGLIA
 10
-28.355
 20
-7.6727
 30
111.4192
 70
192
 0
VERTEX
 8
MANIGLIA
 10
28.3549
 20
-7.6727
 30
111.4192
 70
192
 0
VERTEX
 8
MANIGLIA
 10
32.3549
 20
-7.6727
 30
111.4192
 70
192
 0
VERTEX
 8
MANIGLIA
 10
-32.355
 20
-7.6141
 30
111.3273
 70
192
 0
VERTEX
 8
MANIGLIA
 10
-28.355
 20
-7.6141
 30
111.3273
 70
192
 0
VERTEX
 8
MANIGLIA
 10
28.3549
 20
-7.6141
 30
111.3273
 70
192
 0
VERTEX
 8
MANIGLIA
 10
32.3549
 20
-7.6141
 30
111.3273
 70
192
 0
VERTEX
 8
MANIGLIA
 10
-32.355
 20
-7.5477
 30
111.2407
 70
192
 0
VERTEX
 8
MANIGLIA
 10
-28.355
 20
-7.5477
 30
111.2407
 70
192
 0
VERTEX
 8
MANIGLIA
 10
28.3549
 20
-7.5477
 30
111.2407
 70
192
 0
VERTEX
 8
MANIGLIA
 10
32.3549
 20
-7.5477
 30
111.2407
 70
192
 0
VERTEX
 8
MANIGLIA
 10
-32.355
 20
-7.474
 30
111.1603
 70
192
 0
VERTEX
 8
MANIGLIA
 10
-28.355
 20
-7.474
 30
111.1603
 70
192
 0
VERTEX
 8
MANIGLIA
 10
28.3549
 20
-7.474
 30
111.1603
 70
192
 0
VERTEX
 8
MANIGLIA
 10
32.3549
 20
-7.474
 30
111.1603
 70
192
 0
VERTEX
 8
MANIGLIA
 10
-32.355
 20
-7.3936
 30
111.0867
 70
192
 0
VERTEX
 8
MANIGLIA
 10
-28.355
 20
-7.3936
 30
111.0867
 70
192
 0
VERTEX
 8
MANIGLIA
 10
28.3549
 20
-7.3936
 30
111.0867
 70
192
 0
VERTEX
 8
MANIGLIA
 10
32.3549
 20
-7.3936
 30
111.0867
 70
192
 0
VERTEX
 8
MANIGLIA
 10
-32.355
 20
-7.3071
 30
111.0203
 70
192
 0
VERTEX
 8
MANIGLIA
 10
-28.355
 20
-7.3071
 30
111.0203
 70
192
 0
VERTEX
 8
MANIGLIA
 10
28.3549
 20
-7.3071
 30
111.0203
 70
192
 0
VERTEX
 8
MANIGLIA
 10
32.3549
 20
-7.3071
 30
111.0203
 70
192
 0
VERTEX
 8
MANIGLIA
 10
-32.355
 20
-7.2152
 30
110.9617
 70
192
 0
VERTEX
 8
MANIGLIA
 10
-28.355
 20
-7.2152
 30
110.9617
 70
192
 0
VERTEX
 8
MANIGLIA
 10
28.3549
 20
-7.2152
 30
110.9617
 70
192
 0
VERTEX
 8
MANIGLIA
 10
32.3549
 20
-7.2152
 30
110.9617
 70
192
 0
VERTEX
 8
MANIGLIA
 10
-32.355
 20
-7.1184
 30
110.9113
 70
192
 0
VERTEX
 8
MANIGLIA
 10
-28.355
 20
-7.1184
 30
110.9113
 70
192
 0
VERTEX
 8
MANIGLIA
 10
28.3549
 20
-7.1184
 30
110.9113
 70
192
 0
VERTEX
 8
MANIGLIA
 10
32.3549
 20
-7.1184
 30
110.9113
 70
192
 0
VERTEX
 8
MANIGLIA
 10
-32.355
 20
-7.0177
 30
110.8696
 70
192
 0
VERTEX
 8
MANIGLIA
 10
-28.355
 20
-7.0177
 30
110.8696
 70
192
 0
VERTEX
 8
MANIGLIA
 10
28.3549
 20
-7.0177
 30
110.8696
 70
192
 0
VERTEX
 8
MANIGLIA
 10
32.3549
 20
-7.0177
 30
110.8696
 70
192
 0
VERTEX
 8
MANIGLIA
 10
-32.355
 20
-6.9137
 30
110.8368
 70
192
 0
VERTEX
 8
MANIGLIA
 10
-28.355
 20
-6.9137
 30
110.8368
 70
192
 0
VERTEX
 8
MANIGLIA
 10
28.3549
 20
-6.9137
 30
110.8368
 70
192
 0
VERTEX
 8
MANIGLIA
 10
32.3549
 20
-6.9137
 30
110.8368
 70
192
 0
VERTEX
 8
MANIGLIA
 10
-32.355
 20
-6.8072
 30
110.8132
 70
192
 0
VERTEX
 8
MANIGLIA
 10
-28.355
 20
-6.8072
 30
110.8132
 70
192
 0
VERTEX
 8
MANIGLIA
 10
28.3549
 20
-6.8072
 30
110.8132
 70
192
 0
VERTEX
 8
MANIGLIA
 10
32.3549
 20
-6.8072
 30
110.8132
 70
192
 0
VERTEX
 8
MANIGLIA
 10
-32.355
 20
-6.6991
 30
110.799
 70
192
 0
VERTEX
 8
MANIGLIA
 10
-28.355
 20
-6.6991
 30
110.799
 70
192
 0
VERTEX
 8
MANIGLIA
 10
28.3549
 20
-6.6991
 30
110.799
 70
192
 0
VERTEX
 8
MANIGLIA
 10
32.3549
 20
-6.6991
 30
110.799
 70
192
 0
VERTEX
 8
MANIGLIA
 10
-28.355
 20
-7.1184
 30
113.1771
 70
192
 0
VERTEX
 8
MANIGLIA
 10
28.3549
 20
-7.1184
 30
113.1771
 70
192
 0
VERTEX
 8
MANIGLIA
 10
32.3549
 20
-7.1184
 30
113.1771
 70
192
 0
VERTEX
 8
MANIGLIA
 10
-32.355
 20
-7.2152
 30
113.1268
 70
192
 0
VERTEX
 8
MANIGLIA
 10
-28.355
 20
-7.2152
 30
113.1268
 70
192
 0
VERTEX
 8
MANIGLIA
 10
28.3549
 20
-7.2152
 30
113.1268
 70
192
 0
VERTEX
 8
MANIGLIA
 10
32.3549
 20
-7.2152
 30
113.1268
 70
192
 0
VERTEX
 8
MANIGLIA
 10
-32.355
 20
-7.3071
 30
113.0682
 70
192
 0
VERTEX
 8
MANIGLIA
 10
-28.355
 20
-7.3071
 30
113.0682
 70
192
 0
VERTEX
 8
MANIGLIA
 10
28.3549
 20
-7.3071
 30
113.0682
 70
192
 0
VERTEX
 8
MANIGLIA
 10
32.3549
 20
-7.3071
 30
113.0682
 70
192
 0
VERTEX
 8
MANIGLIA
 10
-32.355
 20
-7.3936
 30
113.0018
 70
192
 0
VERTEX
 8
MANIGLIA
 10
-28.355
 20
-7.3936
 30
113.0018
 70
192
 0
VERTEX
 8
MANIGLIA
 10
28.3549
 20
-7.3936
 30
113.0018
 70
192
 0
VERTEX
 8
MANIGLIA
 10
32.3549
 20
-7.3936
 30
113.0018
 70
192
 0
VERTEX
 8
MANIGLIA
 10
-32.355
 20
-7.474
 30
112.9281
 70
192
 0
VERTEX
 8
MANIGLIA
 10
-28.355
 20
-7.474
 30
112.9281
 70
192
 0
VERTEX
 8
MANIGLIA
 10
28.3549
 20
-7.474
 30
112.9281
 70
192
 0
VERTEX
 8
MANIGLIA
 10
32.3549
 20
-7.474
 30
112.9281
 70
192
 0
VERTEX
 8
MANIGLIA
 10
-32.355
 20
-7.5477
 30
112.8477
 70
192
 0
VERTEX
 8
MANIGLIA
 10
-28.355
 20
-7.5477
 30
112.8477
 70
192
 0
VERTEX
 8
MANIGLIA
 10
28.3549
 20
-7.5477
 30
112.8477
 70
192
 0
VERTEX
 8
MANIGLIA
 10
32.3549
 20
-7.5477
 30
112.8477
 70
192
 0
VERTEX
 8
MANIGLIA
 10
-32.355
 20
-7.6141
 30
112.7612
 70
192
 0
VERTEX
 8
MANIGLIA
 10
-28.355
 20
-7.6141
 30
112.7612
 70
192
 0
VERTEX
 8
MANIGLIA
 10
28.3549
 20
-7.6141
 30
112.7612
 70
192
 0
VERTEX
 8
MANIGLIA
 10
32.3549
 20
-7.6141
 30
112.7612
 70
192
 0
VERTEX
 8
MANIGLIA
 10
-32.355
 20
-7.6727
 30
112.6692
 70
192
 0
VERTEX
 8
MANIGLIA
 10
-28.355
 20
-7.6727
 30
112.6692
 70
192
 0
VERTEX
 8
MANIGLIA
 10
28.3549
 20
-7.6727
 30
112.6692
 70
192
 0
VERTEX
 8
MANIGLIA
 10
32.3549
 20
-7.6727
 30
112.6692
 70
192
 0
VERTEX
 8
MANIGLIA
 10
-32.355
 20
-7.723
 30
112.5725
 70
192
 0
VERTEX
 8
MANIGLIA
 10
-28.355
 20
-7.723
 30
112.5725
 70
192
 0
VERTEX
 8
MANIGLIA
 10
28.3549
 20
-7.723
 30
112.5725
 70
192
 0
VERTEX
 8
MANIGLIA
 10
32.3549
 20
-7.723
 30
112.5725
 70
192
 0
VERTEX
 8
MANIGLIA
 10
-32.355
 20
-7.7648
 30
112.4718
 70
192
 0
VERTEX
 8
MANIGLIA
 10
-28.355
 20
-7.7648
 30
112.4718
 70
192
 0
VERTEX
 8
MANIGLIA
 10
28.3549
 20
-7.7648
 30
112.4718
 70
192
 0
VERTEX
 8
MANIGLIA
 10
32.3549
 20
-7.7648
 30
112.4718
 70
192
 0
VERTEX
 8
MANIGLIA
 10
-32.355
 20
-7.7976
 30
112.3678
 70
192
 0
VERTEX
 8
MANIGLIA
 10
-28.355
 20
-7.7976
 30
112.3678
 70
192
 0
VERTEX
 8
MANIGLIA
 10
28.3549
 20
-7.7976
 30
112.3678
 70
192
 0
VERTEX
 8
MANIGLIA
 10
32.3549
 20
-7.7976
 30
112.3678
 70
192
 0
VERTEX
 8
MANIGLIA
 10
-32.355
 20
-7.8212
 30
112.2613
 70
192
 0
VERTEX
 8
MANIGLIA
 10
-28.355
 20
-7.8212
 30
112.2613
 70
192
 0
VERTEX
 8
MANIGLIA
 10
28.3549
 20
-7.8212
 30
112.2613
 70
192
 0
VERTEX
 8
MANIGLIA
 10
32.3549
 20
-7.8212
 30
112.2613
 70
192
 0
VERTEX
 8
MANIGLIA
 10
-32.355
 20
-7.8354
 30
112.1532
 70
192
 0
VERTEX
 8
MANIGLIA
 10
-28.355
 20
-7.8354
 30
112.1532
 70
192
 0
VERTEX
 8
MANIGLIA
 10
28.3549
 20
-7.8354
 30
112.1532
 70
192
 0
VERTEX
 8
MANIGLIA
 10
32.3549
 20
-7.8354
 30
112.1532
 70
192
 0
VERTEX
 8
MANIGLIA
 10
-32.355
 20
-7.8402
 30
112.0442
 70
192
 0
VERTEX
 8
MANIGLIA
 10
-28.355
 20
-7.8402
 30
112.0442
 70
192
 0
VERTEX
 8
MANIGLIA
 10
28.3549
 20
-7.8402
 30
112.0442
 70
192
 0
VERTEX
 8
MANIGLIA
 10
32.3549
 20
-7.8402
 30
112.0442
 70
192
 0
VERTEX
 8
MANIGLIA
 10
-32.355
 20
-7.8354
 30
111.9353
 70
192
 0
VERTEX
 8
MANIGLIA
 10
-28.355
 20
-7.8354
 30
111.9353
 70
192
 0
VERTEX
 8
MANIGLIA
 10
28.3549
 20
-7.8354
 30
111.9353
 70
192
 0
VERTEX
 8
MANIGLIA
 10
32.3549
 20
-7.8354
 30
111.9353
 70
192
 0
VERTEX
 8
MANIGLIA
 10
-32.355
 20
-7.8212
 30
111.8272
 70
192
 0
VERTEX
 8
MANIGLIA
 10
-28.355
 20
-7.8212
 30
111.8272
 70
192
 0
VERTEX
 8
MANIGLIA
 10
28.3549
 20
-7.8212
 30
111.8272
 70
192
 0
VERTEX
 8
MANIGLIA
 10
-32.355
 20
-6.5902
 30
112.0442
 70
192
 0
VERTEX
 8
MANIGLIA
 10
-32.355
 20
-6.5902
 30
110.7942
 70
192
 0
VERTEX
 8
MANIGLIA
 10
-28.355
 20
-6.5902
 30
110.7942
 70
192
 0
VERTEX
 8
MANIGLIA
 10
28.3549
 20
-6.5902
 30
110.7942
 70
192
 0
VERTEX
 8
MANIGLIA
 10
32.3549
 20
-6.5902
 30
110.7942
 70
192
 0
VERTEX
 8
MANIGLIA
 10
-32.355
 20
-6.4812
 30
110.799
 70
192
 0
VERTEX
 8
MANIGLIA
 10
-28.355
 20
-6.4812
 30
110.799
 70
192
 0
VERTEX
 8
MANIGLIA
 10
28.3549
 20
-6.4812
 30
110.799
 70
192
 0
VERTEX
 8
MANIGLIA
 10
32.3549
 20
-6.4812
 30
110.799
 70
192
 0
VERTEX
 8
MANIGLIA
 10
-32.355
 20
-6.3731
 30
110.8132
 70
192
 0
VERTEX
 8
MANIGLIA
 10
-28.355
 20
-6.3731
 30
110.8132
 70
192
 0
VERTEX
 8
MANIGLIA
 10
28.3549
 20
-6.3731
 30
110.8132
 70
192
 0
VERTEX
 8
MANIGLIA
 10
32.3549
 20
-6.3731
 30
110.8132
 70
192
 0
VERTEX
 8
MANIGLIA
 10
-32.355
 20
-6.2666
 30
110.8368
 70
192
 0
VERTEX
 8
MANIGLIA
 10
-28.355
 20
-6.2666
 30
110.8368
 70
192
 0
VERTEX
 8
MANIGLIA
 10
28.3549
 20
-6.2666
 30
110.8368
 70
192
 0
VERTEX
 8
MANIGLIA
 10
32.3549
 20
-6.2666
 30
110.8368
 70
192
 0
VERTEX
 8
MANIGLIA
 10
-32.355
 20
-6.1626
 30
110.8696
 70
192
 0
VERTEX
 8
MANIGLIA
 10
-28.355
 20
-6.1626
 30
110.8696
 70
192
 0
VERTEX
 8
MANIGLIA
 10
28.3549
 20
-6.1626
 30
110.8696
 70
192
 0
VERTEX
 8
MANIGLIA
 10
32.3549
 20
-6.1626
 30
110.8696
 70
192
 0
VERTEX
 8
MANIGLIA
 10
-32.355
 20
-6.0619
 30
110.9113
 70
192
 0
VERTEX
 8
MANIGLIA
 10
-28.355
 20
-6.0619
 30
110.9113
 70
192
 0
VERTEX
 8
MANIGLIA
 10
28.3549
 20
-6.0619
 30
110.9113
 70
192
 0
VERTEX
 8
MANIGLIA
 10
32.3549
 20
-6.0619
 30
110.9113
 70
192
 0
VERTEX
 8
MANIGLIA
 10
-32.355
 20
-5.9044
 30
110.9944
 70
192
 0
VERTEX
 8
MANIGLIA
 10
-28.355
 20
-5.9044
 30
110.9944
 70
192
 0
VERTEX
 8
MANIGLIA
 10
28.3549
 20
-5.9044
 30
110.9944
 70
192
 0
VERTEX
 8
MANIGLIA
 10
32.3549
 20
-5.9044
 30
110.9944
 70
192
 0
VERTEX
 8
MANIGLIA
 10
-32.355
 20
-7.0177
 30
113.2188
 70
192
 0
VERTEX
 8
MANIGLIA
 10
-28.355
 20
-5.8732
 30
111.0203
 70
192
 0
VERTEX
 8
MANIGLIA
 10
28.3549
 20
-5.8732
 30
111.0203
 70
192
 0
VERTEX
 8
MANIGLIA
 10
28.3549
 20
-6.4812
 30
113.2895
 70
192
 0
VERTEX
 8
MANIGLIA
 10
-28.355
 20
-7.0177
 30
113.2188
 70
192
 0
VERTEX
 8
MANIGLIA
 10
-28.355
 20
-5.7867
 30
111.0867
 70
192
 0
VERTEX
 8
MANIGLIA
 10
28.3549
 20
-5.7867
 30
111.0867
 70
192
 0
VERTEX
 8
MANIGLIA
 10
-28.355
 20
-6.3731
 30
113.2752
 70
192
 0
VERTEX
 8
MANIGLIA
 10
28.3549
 20
-7.0177
 30
113.2188
 70
192
 0
VERTEX
 8
MANIGLIA
 10
-28.355
 20
-5.7063
 30
111.1603
 70
192
 0
VERTEX
 8
MANIGLIA
 10
28.3549
 20
-5.7063
 30
111.1603
 70
192
 0
VERTEX
 8
MANIGLIA
 10
28.3549
 20
-6.3731
 30
113.2752
 70
192
 0
VERTEX
 8
MANIGLIA
 10
32.3549
 20
-7.0177
 30
113.2188
 70
192
 0
VERTEX
 8
MANIGLIA
 10
-28.355
 20
-5.6326
 30
111.2407
 70
192
 0
VERTEX
 8
MANIGLIA
 10
28.3549
 20
-5.6326
 30
111.2407
 70
192
 0
VERTEX
 8
MANIGLIA
 10
32.3549
 20
-6.3731
 30
113.2752
 70
192
 0
VERTEX
 8
MANIGLIA
 10
-32.355
 20
-7.1184
 30
113.1771
 70
192
 0
VERTEX
 8
MANIGLIA
 10
-28.355
 20
-5.5662
 30
111.3273
 70
192
 0
VERTEX
 8
MANIGLIA
 10
28.3549
 20
-5.5662
 30
111.3273
 70
192
 0
VERTEX
 8
MANIGLIA
 10
-32.355
 20
-6.4812
 30
113.2895
 70
192
 0
VERTEX
 8
MANIGLIA
 10
28.3563
 20
-4.3398
 30
110.9944
 70
192
 0
VERTEX
 8
MANIGLIA
 10
-28.355
 20
-5.5076
 30
111.4192
 70
192
 0
VERTEX
 8
MANIGLIA
 10
28.3549
 20
-5.5076
 30
111.4192
 70
192
 0
VERTEX
 8
MANIGLIA
 10
-28.355
 20
-6.4812
 30
113.2895
 70
192
 0
VERTEX
 8
MANIGLIA
 10
-32.356
 20
-4.3398
 30
113.0954
 70
192
 0
VERTEX
 8
MANIGLIA
 10
-28.355
 20
-5.4573
 30
111.516
 70
192
 0
VERTEX
 8
MANIGLIA
 10
28.3549
 20
-5.4573
 30
111.516
 70
192
 0
VERTEX
 8
MANIGLIA
 10
-32.355
 20
-6.6991
 30
113.2895
 70
192
 0
VERTEX
 8
MANIGLIA
 10
28.3563
 20
-4.3398
 30
113.0954
 70
192
 0
VERTEX
 8
MANIGLIA
 10
-28.355
 20
-5.4155
 30
111.6167
 70
192
 0
VERTEX
 8
MANIGLIA
 10
28.3549
 20
-5.4155
 30
111.6167
 70
192
 0
VERTEX
 8
MANIGLIA
 10
-28.355
 20
-6.6991
 30
113.2895
 70
192
 0
VERTEX
 8
MANIGLIA
 10
32.3563
 20
-4.3398
 30
110.9944
 70
192
 0
VERTEX
 8
MANIGLIA
 10
-28.355
 20
-5.3827
 30
111.7207
 70
192
 0
VERTEX
 8
MANIGLIA
 10
28.3549
 20
-5.3827
 30
111.7207
 70
192
 0
VERTEX
 8
MANIGLIA
 10
28.3549
 20
-6.6991
 30
113.2895
 70
192
 0
VERTEX
 8
MANIGLIA
 10
32.3563
 20
-4.3398
 30
113.0954
 70
192
 0
VERTEX
 8
MANIGLIA
 10
-28.355
 20
-5.3591
 30
111.8272
 70
192
 0
VERTEX
 8
MANIGLIA
 10
28.3549
 20
-5.3591
 30
111.8272
 70
192
 0
VERTEX
 8
MANIGLIA
 10
32.3549
 20
-6.6991
 30
113.2895
 70
192
 0
VERTEX
 8
MANIGLIA
 10
-32.356
 20
-2.3398
 30
113.0954
 70
192
 0
VERTEX
 8
MANIGLIA
 10
-28.355
 20
-5.3449
 30
111.9353
 70
192
 0
VERTEX
 8
MANIGLIA
 10
28.3549
 20
-5.3449
 30
111.9353
 70
192
 0
VERTEX
 8
MANIGLIA
 10
-32.355
 20
-6.8072
 30
113.2752
 70
192
 0
VERTEX
 8
MANIGLIA
 10
32.3563
 20
-2.3398
 30
110.9944
 70
192
 0
VERTEX
 8
MANIGLIA
 10
-28.355
 20
-5.3402
 30
112.0442
 70
192
 0
VERTEX
 8
MANIGLIA
 10
28.3549
 20
-5.3402
 30
112.0442
 70
192
 0
VERTEX
 8
MANIGLIA
 10
-28.355
 20
-6.8072
 30
113.2752
 70
192
 0
VERTEX
 8
MANIGLIA
 10
32.3563
 20
-2.3398
 30
113.0954
 70
192
 0
VERTEX
 8
MANIGLIA
 10
-28.355
 20
-5.3449
 30
112.1532
 70
192
 0
VERTEX
 8
MANIGLIA
 10
28.3549
 20
-5.3449
 30
112.1532
 70
192
 0
VERTEX
 8
MANIGLIA
 10
28.3549
 20
-6.8072
 30
113.2752
 70
192
 0
VERTEX
 8
MANIGLIA
 10
28.3563
 20
-2.3398
 30
110.9944
 70
192
 0
VERTEX
 8
MANIGLIA
 10
-28.355
 20
-5.3591
 30
112.2613
 70
192
 0
VERTEX
 8
MANIGLIA
 10
28.3549
 20
-5.3591
 30
112.2613
 70
192
 0
VERTEX
 8
MANIGLIA
 10
32.3549
 20
-6.8072
 30
113.2752
 70
192
 0
VERTEX
 8
MANIGLIA
 10
28.3563
 20
-2.3398
 30
113.0954
 70
192
 0
VERTEX
 8
MANIGLIA
 10
-28.355
 20
-5.3827
 30
112.3678
 70
192
 0
VERTEX
 8
MANIGLIA
 10
28.3549
 20
-5.3827
 30
112.3678
 70
192
 0
VERTEX
 8
MANIGLIA
 10
-32.355
 20
-6.9137
 30
113.2516
 70
192
 0
VERTEX
 8
MANIGLIA
 10
-32.356
 20
-4.3398
 30
110.9944
 70
192
 0
VERTEX
 8
MANIGLIA
 10
-28.355
 20
-5.4155
 30
112.4718
 70
192
 0
VERTEX
 8
MANIGLIA
 10
28.3549
 20
-5.4155
 30
112.4718
 70
192
 0
VERTEX
 8
MANIGLIA
 10
-28.355
 20
-6.9137
 30
113.2516
 70
192
 0
VERTEX
 8
MANIGLIA
 10
-28.356
 20
-4.3398
 30
113.0954
 70
192
 0
VERTEX
 8
MANIGLIA
 10
-28.355
 20
-5.4573
 30
112.5725
 70
192
 0
VERTEX
 8
MANIGLIA
 10
28.3549
 20
-5.4573
 30
112.5725
 70
192
 0
VERTEX
 8
MANIGLIA
 10
28.3549
 20
-6.9137
 30
113.2516
 70
192
 0
VERTEX
 8
MANIGLIA
 10
-28.356
 20
-2.3398
 30
110.9944
 70
192
 0
VERTEX
 8
MANIGLIA
 10
-28.355
 20
-5.5076
 30
112.6692
 70
192
 0
VERTEX
 8
MANIGLIA
 10
28.3549
 20
-5.5076
 30
112.6692
 70
192
 0
VERTEX
 8
MANIGLIA
 10
32.3549
 20
-6.9137
 30
113.2516
 70
192
 0
VERTEX
 8
MANIGLIA
 10
32.3549
 20
-6.5902
 30
112.0442
 70
192
 0
VERTEX
 8
MANIGLIA
 10
-28.355
 20
-5.5662
 30
112.7612
 70
192
 0
VERTEX
 8
MANIGLIA
 10
28.3549
 20
-5.5662
 30
112.7612
 70
192
 0
VERTEX
 8
MANIGLIA
 10
-28.355
 20
-6.5902
 30
113.2942
 70
192
 0
VERTEX
 8
MANIGLIA
 10
-28.356
 20
-4.3398
 30
110.9944
 70
192
 0
VERTEX
 8
MANIGLIA
 10
-28.355
 20
-5.6326
 30
112.8477
 70
192
 0
VERTEX
 8
MANIGLIA
 10
28.3549
 20
-5.6326
 30
112.8477
 70
192
 0
VERTEX
 8
MANIGLIA
 10
28.3549
 20
-6.5902
 30
113.2942
 70
192
 0
VERTEX
 8
MANIGLIA
 10
32.3549
 20
-6.5902
 30
112.0442
 70
192
 0
VERTEX
 8
MANIGLIA
 10
-28.355
 20
-5.7063
 30
112.9281
 70
192
 0
VERTEX
 8
MANIGLIA
 10
28.3549
 20
-5.7063
 30
112.9281
 70
192
 0
VERTEX
 8
MANIGLIA
 10
-32.355
 20
-6.5902
 30
113.2942
 70
192
 0
VERTEX
 8
MANIGLIA
 10
-28.356
 20
-2.3398
 30
113.0954
 70
192
 0
VERTEX
 8
MANIGLIA
 10
-28.355
 20
-5.7867
 30
113.0018
 70
192
 0
VERTEX
 8
MANIGLIA
 10
28.3549
 20
-5.7867
 30
113.0018
 70
192
 0
VERTEX
 8
MANIGLIA
 10
32.3549
 20
-6.4812
 30
113.2895
 70
192
 0
VERTEX
 8
MANIGLIA
 10
-32.356
 20
-2.3398
 30
110.9944
 70
192
 0
VERTEX
 8
MANIGLIA
 10
-28.355
 20
-5.8732
 30
113.0682
 70
192
 0
VERTEX
 8
MANIGLIA
 10
28.3549
 20
-5.8732
 30
113.0682
 70
192
 0
VERTEX
 8
MANIGLIA
 10
32.3549
 20
-6.5902
 30
113.2942
 70
192
 0
VERTEX
 8
MANIGLIA
 10
-32.355
 20
-5.9126
 30
113.0952
 70
192
 0
VERTEX
 8
MANIGLIA
 10
-28.355
 20
-5.9126
 30
113.0952
 70
192
 0
VERTEX
 8
MANIGLIA
 10
28.3549
 20
-5.9126
 30
113.0952
 70
192
 0
VERTEX
 8
MANIGLIA
 10
32.3549
 20
-5.9126
 30
113.0952
 70
192
 0
VERTEX
 8
MANIGLIA
 10
-32.355
 20
-6.0619
 30
113.1771
 70
192
 0
VERTEX
 8
MANIGLIA
 10
-28.355
 20
-6.0619
 30
113.1771
 70
192
 0
VERTEX
 8
MANIGLIA
 10
28.3549
 20
-6.0619
 30
113.1771
 70
192
 0
VERTEX
 8
MANIGLIA
 10
32.3549
 20
-6.0619
 30
113.1771
 70
192
 0
VERTEX
 8
MANIGLIA
 10
-32.355
 20
-6.1626
 30
113.2188
 70
192
 0
VERTEX
 8
MANIGLIA
 10
-28.355
 20
-6.1626
 30
113.2188
 70
192
 0
VERTEX
 8
MANIGLIA
 10
28.3549
 20
-6.1626
 30
113.2188
 70
192
 0
VERTEX
 8
MANIGLIA
 10
32.3549
 20
-6.1626
 30
113.2188
 70
192
 0
VERTEX
 8
MANIGLIA
 10
-32.355
 20
-6.2666
 30
113.2516
 70
192
 0
VERTEX
 8
MANIGLIA
 10
-28.355
 20
-6.2666
 30
113.2516
 70
192
 0
VERTEX
 8
MANIGLIA
 10
28.3549
 20
-6.2666
 30
113.2516
 70
192
 0
VERTEX
 8
MANIGLIA
 10
32.3549
 20
-6.2666
 30
113.2516
 70
192
 0
VERTEX
 8
MANIGLIA
 10
-32.355
 20
-6.3731
 30
113.2752
 70
192
 0
VERTEX
 8
MANIGLIA
 10
0
 20
0
 30
0
 70
128
 71
248
 72
247
 73
181
 74
189
 0
VERTEX
 8
MANIGLIA
 10
0
 20
0
 30
0
 70
128
 71
45
 72
41
 73
148
 74
148
 0
VERTEX
 8
MANIGLIA
 10
0
 20
0
 30
0
 70
128
 71
93
 72
94
 73
98
 74
97
 0
VERTEX
 8
MANIGLIA
 10
0
 20
0
 30
0
 70
128
 71
94
 72
95
 73
99
 74
98
 0
VERTEX
 8
MANIGLIA
 10
0
 20
0
 30
0
 70
128
 71
95
 72
96
 73
100
 74
99
 0
VERTEX
 8
MANIGLIA
 10
0
 20
0
 30
0
 70
128
 71
252
 72
64
 73
256
 74
256
 0
VERTEX
 8
MANIGLIA
 10
0
 20
0
 30
0
 70
128
 71
148
 72
41
 73
37
 74
37
 0
VERTEX
 8
MANIGLIA
 10
0
 20
0
 30
0
 70
128
 71
97
 72
98
 73
102
 74
101
 0
VERTEX
 8
MANIGLIA
 10
0
 20
0
 30
0
 70
128
 71
98
 72
99
 73
103
 74
102
 0
VERTEX
 8
MANIGLIA
 10
0
 20
0
 30
0
 70
128
 71
99
 72
100
 73
104
 74
103
 0
VERTEX
 8
MANIGLIA
 10
0
 20
0
 30
0
 70
128
 71
205
 72
209
 73
181
 74
173
 0
VERTEX
 8
MANIGLIA
 10
0
 20
0
 30
0
 70
128
 71
148
 72
37
 73
33
 74
33
 0
VERTEX
 8
MANIGLIA
 10
0
 20
0
 30
0
 70
128
 71
101
 72
102
 73
106
 74
105
 0
VERTEX
 8
MANIGLIA
 10
0
 20
0
 30
0
 70
128
 71
102
 72
103
 73
107
 74
106
 0
VERTEX
 8
MANIGLIA
 10
0
 20
0
 30
0
 70
128
 71
103
 72
104
 73
108
 74
107
 0
VERTEX
 8
MANIGLIA
 10
0
 20
0
 30
0
 70
128
 71
148
 72
33
 73
29
 74
29
 0
VERTEX
 8
MANIGLIA
 10
0
 20
0
 30
0
 70
128
 71
148
 72
29
 73
25
 74
25
 0
VERTEX
 8
MANIGLIA
 10
0
 20
0
 30
0
 70
128
 71
105
 72
106
 73
110
 74
109
 0
VERTEX
 8
MANIGLIA
 10
0
 20
0
 30
0
 70
128
 71
106
 72
107
 73
111
 74
110
 0
VERTEX
 8
MANIGLIA
 10
0
 20
0
 30
0
 70
128
 71
107
 72
108
 73
112
 74
111
 0
VERTEX
 8
MANIGLIA
 10
0
 20
0
 30
0
 70
128
 71
181
 72
209
 73
201
 74
189
 0
VERTEX
 8
MANIGLIA
 10
0
 20
0
 30
0
 70
128
 71
148
 72
25
 73
21
 74
21
 0
VERTEX
 8
MANIGLIA
 10
0
 20
0
 30
0
 70
128
 71
109
 72
110
 73
114
 74
113
 0
VERTEX
 8
MANIGLIA
 10
0
 20
0
 30
0
 70
128
 71
110
 72
111
 73
115
 74
114
 0
VERTEX
 8
MANIGLIA
 10
0
 20
0
 30
0
 70
128
 71
111
 72
112
 73
116
 74
115
 0
VERTEX
 8
MANIGLIA
 10
0
 20
0
 30
0
 70
128
 71
205
 72
173
 73
185
 74
197
 0
VERTEX
 8
MANIGLIA
 10
0
 20
0
 30
0
 70
128
 71
148
 72
21
 73
17
 74
17
 0
VERTEX
 8
MANIGLIA
 10
0
 20
0
 30
0
 70
128
 71
113
 72
114
 73
118
 74
117
 0
VERTEX
 8
MANIGLIA
 10
0
 20
0
 30
0
 70
128
 71
114
 72
115
 73
119
 74
118
 0
VERTEX
 8
MANIGLIA
 10
0
 20
0
 30
0
 70
128
 71
115
 72
116
 73
120
 74
119
 0
VERTEX
 8
MANIGLIA
 10
0
 20
0
 30
0
 70
128
 71
185
 72
189
 73
201
 74
197
 0
VERTEX
 8
MANIGLIA
 10
0
 20
0
 30
0
 70
128
 71
148
 72
17
 73
13
 74
13
 0
VERTEX
 8
MANIGLIA
 10
0
 20
0
 30
0
 70
128
 71
117
 72
118
 73
122
 74
121
 0
VERTEX
 8
MANIGLIA
 10
0
 20
0
 30
0
 70
128
 71
118
 72
119
 73
123
 74
122
 0
VERTEX
 8
MANIGLIA
 10
0
 20
0
 30
0
 70
128
 71
119
 72
120
 73
1
 74
123
 0
VERTEX
 8
MANIGLIA
 10
0
 20
0
 30
0
 70
128
 71
261
 72
160
 73
176
 74
172
 0
VERTEX
 8
MANIGLIA
 10
0
 20
0
 30
0
 70
128
 71
148
 72
13
 73
9
 74
9
 0
VERTEX
 8
MANIGLIA
 10
0
 20
0
 30
0
 70
128
 71
121
 72
122
 73
3
 74
2
 0
VERTEX
 8
MANIGLIA
 10
0
 20
0
 30
0
 70
128
 71
122
 72
123
 73
4
 74
3
 0
VERTEX
 8
MANIGLIA
 10
0
 20
0
 30
0
 70
128
 71
123
 72
1
 73
5
 74
4
 0
VERTEX
 8
MANIGLIA
 10
0
 20
0
 30
0
 70
128
 71
160
 72
164
 73
156
 74
176
 0
VERTEX
 8
MANIGLIA
 10
0
 20
0
 30
0
 70
128
 71
148
 72
9
 73
5
 74
5
 0
VERTEX
 8
MANIGLIA
 10
0
 20
0
 30
0
 70
128
 71
2
 72
3
 73
7
 74
6
 0
VERTEX
 8
MANIGLIA
 10
0
 20
0
 30
0
 70
128
 71
3
 72
4
 73
8
 74
7
 0
VERTEX
 8
MANIGLIA
 10
0
 20
0
 30
0
 70
128
 71
4
 72
5
 73
9
 74
8
 0
VERTEX
 8
MANIGLIA
 10
0
 20
0
 30
0
 70
128
 71
197
 72
201
 73
209
 74
205
 0
VERTEX
 8
MANIGLIA
 10
0
 20
0
 30
0
 70
128
 71
148
 72
5
 73
1
 74
1
 0
VERTEX
 8
MANIGLIA
 10
0
 20
0
 30
0
 70
128
 71
6
 72
7
 73
11
 74
10
 0
VERTEX
 8
MANIGLIA
 10
0
 20
0
 30
0
 70
128
 71
7
 72
8
 73
12
 74
11
 0
VERTEX
 8
MANIGLIA
 10
0
 20
0
 30
0
 70
128
 71
8
 72
9
 73
13
 74
12
 0
VERTEX
 8
MANIGLIA
 10
0
 20
0
 30
0
 70
128
 71
241
 72
193
 73
177
 74
213
 0
VERTEX
 8
MANIGLIA
 10
0
 20
0
 30
0
 70
128
 71
148
 72
1
 73
120
 74
120
 0
VERTEX
 8
MANIGLIA
 10
0
 20
0
 30
0
 70
128
 71
10
 72
11
 73
15
 74
14
 0
VERTEX
 8
MANIGLIA
 10
0
 20
0
 30
0
 70
128
 71
11
 72
12
 73
16
 74
15
 0
VERTEX
 8
MANIGLIA
 10
0
 20
0
 30
0
 70
128
 71
12
 72
13
 73
17
 74
16
 0
VERTEX
 8
MANIGLIA
 10
0
 20
0
 30
0
 70
128
 71
177
 72
193
 73
237
 74
217
 0
VERTEX
 8
MANIGLIA
 10
0
 20
0
 30
0
 70
128
 71
148
 72
120
 73
116
 74
116
 0
VERTEX
 8
MANIGLIA
 10
0
 20
0
 30
0
 70
128
 71
14
 72
15
 73
19
 74
18
 0
VERTEX
 8
MANIGLIA
 10
0
 20
0
 30
0
 70
128
 71
15
 72
16
 73
20
 74
19
 0
VERTEX
 8
MANIGLIA
 10
0
 20
0
 30
0
 70
128
 71
16
 72
17
 73
21
 74
20
 0
VERTEX
 8
MANIGLIA
 10
0
 20
0
 30
0
 70
128
 71
259
 72
260
 73
168
 74
164
 0
VERTEX
 8
MANIGLIA
 10
0
 20
0
 30
0
 70
128
 71
148
 72
116
 73
252
 74
252
 0
VERTEX
 8
MANIGLIA
 10
0
 20
0
 30
0
 70
128
 71
18
 72
19
 73
23
 74
22
 0
VERTEX
 8
MANIGLIA
 10
0
 20
0
 30
0
 70
128
 71
19
 72
20
 73
24
 74
23
 0
VERTEX
 8
MANIGLIA
 10
0
 20
0
 30
0
 70
128
 71
20
 72
21
 73
25
 74
24
 0
VERTEX
 8
MANIGLIA
 10
0
 20
0
 30
0
 70
128
 71
164
 72
168
 73
240
 74
156
 0
VERTEX
 8
MANIGLIA
 10
0
 20
0
 30
0
 70
128
 71
49
 72
148
 73
144
 74
144
 0
VERTEX
 8
MANIGLIA
 10
0
 20
0
 30
0
 70
128
 71
22
 72
23
 73
27
 74
26
 0
VERTEX
 8
MANIGLIA
 10
0
 20
0
 30
0
 70
128
 71
172
 72
176
 73
228
 74
236
 0
VERTEX
 8
MANIGLIA
 10
0
 20
0
 30
0
 70
128
 71
176
 72
156
 73
232
 74
228
 0
VERTEX
 8
MANIGLIA
 10
0
 20
0
 30
0
 70
128
 71
156
 72
240
 73
244
 74
232
 0
VERTEX
 8
MANIGLIA
 10
0
 20
0
 30
0
 70
128
 71
241
 72
213
 73
229
 74
221
 0
VERTEX
 8
MANIGLIA
 10
0
 20
0
 30
0
 70
128
 71
53
 72
144
 73
140
 74
140
 0
VERTEX
 8
MANIGLIA
 10
0
 20
0
 30
0
 70
128
 71
236
 72
228
 73
184
 74
180
 0
VERTEX
 8
MANIGLIA
 10
0
 20
0
 30
0
 70
128
 71
228
 72
232
 73
188
 74
184
 0
VERTEX
 8
MANIGLIA
 10
0
 20
0
 30
0
 70
128
 71
232
 72
244
 73
192
 74
188
 0
VERTEX
 8
MANIGLIA
 10
0
 20
0
 30
0
 70
128
 71
229
 72
217
 73
237
 74
221
 0
VERTEX
 8
MANIGLIA
 10
0
 20
0
 30
0
 70
128
 71
57
 72
140
 73
136
 74
136
 0
VERTEX
 8
MANIGLIA
 10
0
 20
0
 30
0
 70
128
 71
180
 72
184
 73
200
 74
196
 0
VERTEX
 8
MANIGLIA
 10
0
 20
0
 30
0
 70
128
 71
184
 72
188
 73
204
 74
200
 0
VERTEX
 8
MANIGLIA
 10
0
 20
0
 30
0
 70
128
 71
188
 72
192
 73
208
 74
204
 0
VERTEX
 8
MANIGLIA
 10
0
 20
0
 30
0
 70
128
 71
256
 72
165
 73
260
 74
260
 0
VERTEX
 8
MANIGLIA
 10
0
 20
0
 30
0
 70
128
 71
61
 72
136
 73
132
 74
132
 0
VERTEX
 8
MANIGLIA
 10
0
 20
0
 30
0
 70
128
 71
196
 72
200
 73
216
 74
212
 0
VERTEX
 8
MANIGLIA
 10
0
 20
0
 30
0
 70
128
 71
200
 72
204
 73
220
 74
216
 0
VERTEX
 8
MANIGLIA
 10
0
 20
0
 30
0
 70
128
 71
204
 72
208
 73
224
 74
220
 0
VERTEX
 8
MANIGLIA
 10
0
 20
0
 30
0
 70
128
 71
242
 72
243
 73
247
 74
246
 0
VERTEX
 8
MANIGLIA
 10
0
 20
0
 30
0
 70
128
 71
116
 72
112
 73
252
 74
252
 0
VERTEX
 8
MANIGLIA
 10
0
 20
0
 30
0
 70
128
 71
212
 72
216
 73
157
 74
153
 0
VERTEX
 8
MANIGLIA
 10
0
 20
0
 30
0
 70
128
 71
216
 72
220
 73
161
 74
157
 0
VERTEX
 8
MANIGLIA
 10
0
 20
0
 30
0
 70
128
 71
220
 72
224
 73
165
 74
161
 0
VERTEX
 8
MANIGLIA
 10
0
 20
0
 30
0
 70
128
 71
260
 72
224
 73
168
 74
168
 0
VERTEX
 8
MANIGLIA
 10
0
 20
0
 30
0
 70
128
 71
112
 72
108
 73
252
 74
252
 0
VERTEX
 8
MANIGLIA
 10
0
 20
0
 30
0
 70
128
 71
153
 72
157
 73
62
 74
169
 0
VERTEX
 8
MANIGLIA
 10
0
 20
0
 30
0
 70
128
 71
157
 72
161
 73
63
 74
62
 0
VERTEX
 8
MANIGLIA
 10
0
 20
0
 30
0
 70
128
 71
161
 72
165
 73
64
 74
63
 0
VERTEX
 8
MANIGLIA
 10
0
 20
0
 30
0
 70
128
 71
246
 72
245
 73
177
 74
217
 0
VERTEX
 8
MANIGLIA
 10
0
 20
0
 30
0
 70
128
 71
108
 72
104
 73
252
 74
252
 0
VERTEX
 8
MANIGLIA
 10
0
 20
0
 30
0
 70
128
 71
169
 72
62
 73
66
 74
65
 0
VERTEX
 8
MANIGLIA
 10
0
 20
0
 30
0
 70
128
 71
62
 72
63
 73
67
 74
66
 0
VERTEX
 8
MANIGLIA
 10
0
 20
0
 30
0
 70
128
 71
63
 72
64
 73
68
 74
67
 0
VERTEX
 8
MANIGLIA
 10
0
 20
0
 30
0
 70
128
 71
245
 72
246
 73
250
 74
249
 0
VERTEX
 8
MANIGLIA
 10
0
 20
0
 30
0
 70
128
 71
104
 72
100
 73
252
 74
252
 0
VERTEX
 8
MANIGLIA
 10
0
 20
0
 30
0
 70
128
 71
65
 72
66
 73
70
 74
69
 0
VERTEX
 8
MANIGLIA
 10
0
 20
0
 30
0
 70
128
 71
66
 72
67
 73
71
 74
70
 0
VERTEX
 8
MANIGLIA
 10
0
 20
0
 30
0
 70
128
 71
67
 72
68
 73
72
 74
71
 0
VERTEX
 8
MANIGLIA
 10
0
 20
0
 30
0
 70
128
 71
246
 72
247
 73
251
 74
250
 0
VERTEX
 8
MANIGLIA
 10
0
 20
0
 30
0
 70
128
 71
100
 72
96
 73
252
 74
252
 0
VERTEX
 8
MANIGLIA
 10
0
 20
0
 30
0
 70
128
 71
69
 72
70
 73
74
 74
73
 0
VERTEX
 8
MANIGLIA
 10
0
 20
0
 30
0
 70
128
 71
70
 72
71
 73
75
 74
74
 0
VERTEX
 8
MANIGLIA
 10
0
 20
0
 30
0
 70
128
 71
71
 72
72
 73
76
 74
75
 0
VERTEX
 8
MANIGLIA
 10
0
 20
0
 30
0
 70
128
 71
242
 72
246
 73
217
 74
217
 0
VERTEX
 8
MANIGLIA
 10
0
 20
0
 30
0
 70
128
 71
96
 72
92
 73
252
 74
252
 0
VERTEX
 8
MANIGLIA
 10
0
 20
0
 30
0
 70
128
 71
73
 72
74
 73
78
 74
77
 0
VERTEX
 8
MANIGLIA
 10
0
 20
0
 30
0
 70
128
 71
74
 72
75
 73
79
 74
78
 0
VERTEX
 8
MANIGLIA
 10
0
 20
0
 30
0
 70
128
 71
75
 72
76
 73
80
 74
79
 0
VERTEX
 8
MANIGLIA
 10
0
 20
0
 30
0
 70
128
 71
229
 72
186
 73
190
 74
190
 0
VERTEX
 8
MANIGLIA
 10
0
 20
0
 30
0
 70
128
 71
92
 72
88
 73
252
 74
252
 0
VERTEX
 8
MANIGLIA
 10
0
 20
0
 30
0
 70
128
 71
77
 72
78
 73
82
 74
81
 0
VERTEX
 8
MANIGLIA
 10
0
 20
0
 30
0
 70
128
 71
78
 72
79
 73
83
 74
82
 0
VERTEX
 8
MANIGLIA
 10
0
 20
0
 30
0
 70
128
 71
79
 72
80
 73
84
 74
83
 0
VERTEX
 8
MANIGLIA
 10
0
 20
0
 30
0
 70
128
 71
242
 72
217
 73
238
 74
238
 0
VERTEX
 8
MANIGLIA
 10
0
 20
0
 30
0
 70
128
 71
88
 72
84
 73
252
 74
252
 0
VERTEX
 8
MANIGLIA
 10
0
 20
0
 30
0
 70
128
 71
81
 72
82
 73
86
 74
85
 0
VERTEX
 8
MANIGLIA
 10
0
 20
0
 30
0
 70
128
 71
82
 72
83
 73
87
 74
86
 0
VERTEX
 8
MANIGLIA
 10
0
 20
0
 30
0
 70
128
 71
83
 72
84
 73
88
 74
87
 0
VERTEX
 8
MANIGLIA
 10
0
 20
0
 30
0
 70
128
 71
229
 72
190
 73
194
 74
194
 0
VERTEX
 8
MANIGLIA
 10
0
 20
0
 30
0
 70
128
 71
84
 72
80
 73
252
 74
252
 0
VERTEX
 8
MANIGLIA
 10
0
 20
0
 30
0
 70
128
 71
85
 72
86
 73
90
 74
89
 0
VERTEX
 8
MANIGLIA
 10
0
 20
0
 30
0
 70
128
 71
86
 72
87
 73
91
 74
90
 0
VERTEX
 8
MANIGLIA
 10
0
 20
0
 30
0
 70
128
 71
87
 72
88
 73
92
 74
91
 0
VERTEX
 8
MANIGLIA
 10
0
 20
0
 30
0
 70
128
 71
229
 72
194
 73
198
 74
198
 0
VERTEX
 8
MANIGLIA
 10
0
 20
0
 30
0
 70
128
 71
80
 72
76
 73
252
 74
252
 0
VERTEX
 8
MANIGLIA
 10
0
 20
0
 30
0
 70
128
 71
89
 72
90
 73
94
 74
93
 0
VERTEX
 8
MANIGLIA
 10
0
 20
0
 30
0
 70
128
 71
90
 72
91
 73
95
 74
94
 0
VERTEX
 8
MANIGLIA
 10
0
 20
0
 30
0
 70
128
 71
91
 72
92
 73
96
 74
95
 0
VERTEX
 8
MANIGLIA
 10
0
 20
0
 30
0
 70
128
 71
76
 72
72
 73
252
 74
252
 0
VERTEX
 8
MANIGLIA
 10
0
 20
0
 30
0
 70
128
 71
125
 72
126
 73
130
 74
129
 0
VERTEX
 8
MANIGLIA
 10
0
 20
0
 30
0
 70
128
 71
126
 72
127
 73
131
 74
130
 0
VERTEX
 8
MANIGLIA
 10
0
 20
0
 30
0
 70
128
 71
127
 72
128
 73
132
 74
131
 0
VERTEX
 8
MANIGLIA
 10
0
 20
0
 30
0
 70
128
 71
217
 72
229
 73
198
 74
198
 0
VERTEX
 8
MANIGLIA
 10
0
 20
0
 30
0
 70
128
 71
72
 72
68
 73
252
 74
252
 0
VERTEX
 8
MANIGLIA
 10
0
 20
0
 30
0
 70
128
 71
129
 72
130
 73
134
 74
133
 0
VERTEX
 8
MANIGLIA
 10
0
 20
0
 30
0
 70
128
 71
130
 72
131
 73
135
 74
134
 0
VERTEX
 8
MANIGLIA
 10
0
 20
0
 30
0
 70
128
 71
131
 72
132
 73
136
 74
135
 0
VERTEX
 8
MANIGLIA
 10
0
 20
0
 30
0
 70
128
 71
217
 72
202
 73
206
 74
206
 0
VERTEX
 8
MANIGLIA
 10
0
 20
0
 30
0
 70
128
 71
252
 72
68
 73
64
 74
64
 0
VERTEX
 8
MANIGLIA
 10
0
 20
0
 30
0
 70
128
 71
133
 72
134
 73
138
 74
137
 0
VERTEX
 8
MANIGLIA
 10
0
 20
0
 30
0
 70
128
 71
134
 72
135
 73
139
 74
138
 0
VERTEX
 8
MANIGLIA
 10
0
 20
0
 30
0
 70
128
 71
135
 72
136
 73
140
 74
139
 0
VERTEX
 8
MANIGLIA
 10
0
 20
0
 30
0
 70
128
 71
217
 72
206
 73
210
 74
210
 0
VERTEX
 8
MANIGLIA
 10
0
 20
0
 30
0
 70
128
 71
256
 72
64
 73
165
 74
165
 0
VERTEX
 8
MANIGLIA
 10
0
 20
0
 30
0
 70
128
 71
137
 72
138
 73
142
 74
141
 0
VERTEX
 8
MANIGLIA
 10
0
 20
0
 30
0
 70
128
 71
138
 72
139
 73
143
 74
142
 0
VERTEX
 8
MANIGLIA
 10
0
 20
0
 30
0
 70
128
 71
139
 72
140
 73
144
 74
143
 0
VERTEX
 8
MANIGLIA
 10
0
 20
0
 30
0
 70
128
 71
217
 72
210
 73
214
 74
214
 0
VERTEX
 8
MANIGLIA
 10
0
 20
0
 30
0
 70
128
 71
260
 72
165
 73
224
 74
224
 0
VERTEX
 8
MANIGLIA
 10
0
 20
0
 30
0
 70
128
 71
141
 72
142
 73
146
 74
145
 0
VERTEX
 8
MANIGLIA
 10
0
 20
0
 30
0
 70
128
 71
142
 72
143
 73
147
 74
146
 0
VERTEX
 8
MANIGLIA
 10
0
 20
0
 30
0
 70
128
 71
143
 72
144
 73
148
 74
147
 0
VERTEX
 8
MANIGLIA
 10
0
 20
0
 30
0
 70
128
 71
217
 72
214
 73
218
 74
218
 0
VERTEX
 8
MANIGLIA
 10
0
 20
0
 30
0
 70
128
 71
168
 72
224
 73
208
 74
208
 0
VERTEX
 8
MANIGLIA
 10
0
 20
0
 30
0
 70
128
 71
145
 72
146
 73
150
 74
149
 0
VERTEX
 8
MANIGLIA
 10
0
 20
0
 30
0
 70
128
 71
146
 72
147
 73
151
 74
150
 0
VERTEX
 8
MANIGLIA
 10
0
 20
0
 30
0
 70
128
 71
147
 72
148
 73
152
 74
151
 0
VERTEX
 8
MANIGLIA
 10
0
 20
0
 30
0
 70
128
 71
217
 72
218
 73
222
 74
222
 0
VERTEX
 8
MANIGLIA
 10
0
 20
0
 30
0
 70
128
 71
240
 72
208
 73
192
 74
192
 0
VERTEX
 8
MANIGLIA
 10
0
 20
0
 30
0
 70
128
 71
23
 72
24
 73
28
 74
27
 0
VERTEX
 8
MANIGLIA
 10
0
 20
0
 30
0
 70
128
 71
150
 72
151
 73
155
 74
154
 0
VERTEX
 8
MANIGLIA
 10
0
 20
0
 30
0
 70
128
 71
60
 72
61
 73
128
 74
127
 0
VERTEX
 8
MANIGLIA
 10
0
 20
0
 30
0
 70
128
 71
217
 72
222
 73
226
 74
226
 0
VERTEX
 8
MANIGLIA
 10
0
 20
0
 30
0
 70
128
 71
247
 72
243
 73
181
 74
181
 0
VERTEX
 8
MANIGLIA
 10
0
 20
0
 30
0
 70
128
 71
24
 72
25
 73
29
 74
28
 0
VERTEX
 8
MANIGLIA
 10
0
 20
0
 30
0
 70
128
 71
154
 72
155
 73
159
 74
158
 0
VERTEX
 8
MANIGLIA
 10
0
 20
0
 30
0
 70
128
 71
42
 72
43
 73
47
 74
46
 0
VERTEX
 8
MANIGLIA
 10
0
 20
0
 30
0
 70
128
 71
217
 72
226
 73
230
 74
230
 0
VERTEX
 8
MANIGLIA
 10
0
 20
0
 30
0
 70
128
 71
243
 72
239
 73
181
 74
181
 0
VERTEX
 8
MANIGLIA
 10
0
 20
0
 30
0
 70
128
 71
217
 72
230
 73
234
 74
234
 0
VERTEX
 8
MANIGLIA
 10
0
 20
0
 30
0
 70
128
 71
158
 72
159
 73
163
 74
162
 0
VERTEX
 8
MANIGLIA
 10
0
 20
0
 30
0
 70
128
 71
43
 72
44
 73
48
 74
47
 0
VERTEX
 8
MANIGLIA
 10
0
 20
0
 30
0
 70
128
 71
217
 72
234
 73
238
 74
238
 0
VERTEX
 8
MANIGLIA
 10
0
 20
0
 30
0
 70
128
 71
239
 72
235
 73
181
 74
181
 0
VERTEX
 8
MANIGLIA
 10
0
 20
0
 30
0
 70
128
 71
235
 72
231
 73
181
 74
181
 0
VERTEX
 8
MANIGLIA
 10
0
 20
0
 30
0
 70
128
 71
162
 72
163
 73
167
 74
166
 0
VERTEX
 8
MANIGLIA
 10
0
 20
0
 30
0
 70
128
 71
44
 72
45
 73
49
 74
48
 0
VERTEX
 8
MANIGLIA
 10
0
 20
0
 30
0
 70
128
 71
229
 72
150
 73
154
 74
154
 0
VERTEX
 8
MANIGLIA
 10
0
 20
0
 30
0
 70
128
 71
231
 72
227
 73
181
 74
181
 0
VERTEX
 8
MANIGLIA
 10
0
 20
0
 30
0
 70
128
 71
26
 72
27
 73
31
 74
30
 0
VERTEX
 8
MANIGLIA
 10
0
 20
0
 30
0
 70
128
 71
166
 72
167
 73
171
 74
170
 0
VERTEX
 8
MANIGLIA
 10
0
 20
0
 30
0
 70
128
 71
229
 72
154
 73
158
 74
158
 0
VERTEX
 8
MANIGLIA
 10
0
 20
0
 30
0
 70
128
 71
229
 72
158
 73
162
 74
162
 0
VERTEX
 8
MANIGLIA
 10
0
 20
0
 30
0
 70
128
 71
227
 72
223
 73
181
 74
181
 0
VERTEX
 8
MANIGLIA
 10
0
 20
0
 30
0
 70
128
 71
27
 72
28
 73
32
 74
31
 0
VERTEX
 8
MANIGLIA
 10
0
 20
0
 30
0
 70
128
 71
170
 72
171
 73
175
 74
174
 0
VERTEX
 8
MANIGLIA
 10
0
 20
0
 30
0
 70
128
 71
223
 72
219
 73
181
 74
181
 0
VERTEX
 8
MANIGLIA
 10
0
 20
0
 30
0
 70
128
 71
229
 72
162
 73
166
 74
166
 0
VERTEX
 8
MANIGLIA
 10
0
 20
0
 30
0
 70
128
 71
219
 72
215
 73
181
 74
181
 0
VERTEX
 8
MANIGLIA
 10
0
 20
0
 30
0
 70
128
 71
28
 72
29
 73
33
 74
32
 0
VERTEX
 8
MANIGLIA
 10
0
 20
0
 30
0
 70
128
 71
174
 72
175
 73
179
 74
178
 0
VERTEX
 8
MANIGLIA
 10
0
 20
0
 30
0
 70
128
 71
46
 72
47
 73
51
 74
50
 0
VERTEX
 8
MANIGLIA
 10
0
 20
0
 30
0
 70
128
 71
229
 72
166
 73
170
 74
170
 0
VERTEX
 8
MANIGLIA
 10
0
 20
0
 30
0
 70
128
 71
215
 72
211
 73
181
 74
181
 0
VERTEX
 8
MANIGLIA
 10
0
 20
0
 30
0
 70
128
 71
229
 72
170
 73
174
 74
174
 0
VERTEX
 8
MANIGLIA
 10
0
 20
0
 30
0
 70
128
 71
178
 72
179
 73
183
 74
182
 0
VERTEX
 8
MANIGLIA
 10
0
 20
0
 30
0
 70
128
 71
47
 72
48
 73
52
 74
51
 0
VERTEX
 8
MANIGLIA
 10
0
 20
0
 30
0
 70
128
 71
229
 72
174
 73
178
 74
178
 0
VERTEX
 8
MANIGLIA
 10
0
 20
0
 30
0
 70
128
 71
211
 72
207
 73
181
 74
181
 0
VERTEX
 8
MANIGLIA
 10
0
 20
0
 30
0
 70
128
 71
207
 72
203
 73
181
 74
181
 0
VERTEX
 8
MANIGLIA
 10
0
 20
0
 30
0
 70
128
 71
182
 72
183
 73
187
 74
186
 0
VERTEX
 8
MANIGLIA
 10
0
 20
0
 30
0
 70
128
 71
48
 72
49
 73
53
 74
52
 0
VERTEX
 8
MANIGLIA
 10
0
 20
0
 30
0
 70
128
 71
229
 72
178
 73
182
 74
182
 0
VERTEX
 8
MANIGLIA
 10
0
 20
0
 30
0
 70
128
 71
181
 72
203
 73
199
 74
199
 0
VERTEX
 8
MANIGLIA
 10
0
 20
0
 30
0
 70
128
 71
30
 72
31
 73
35
 74
34
 0
VERTEX
 8
MANIGLIA
 10
0
 20
0
 30
0
 70
128
 71
186
 72
187
 73
191
 74
190
 0
VERTEX
 8
MANIGLIA
 10
0
 20
0
 30
0
 70
128
 71
229
 72
182
 73
186
 74
186
 0
VERTEX
 8
MANIGLIA
 10
0
 20
0
 30
0
 70
128
 71
149
 72
150
 73
229
 74
213
 0
VERTEX
 8
MANIGLIA
 10
0
 20
0
 30
0
 70
128
 71
199
 72
195
 73
173
 74
173
 0
VERTEX
 8
MANIGLIA
 10
0
 20
0
 30
0
 70
128
 71
31
 72
32
 73
36
 74
35
 0
VERTEX
 8
MANIGLIA
 10
0
 20
0
 30
0
 70
128
 71
190
 72
191
 73
195
 74
194
 0
VERTEX
 8
MANIGLIA
 10
0
 20
0
 30
0
 70
128
 71
195
 72
191
 73
173
 74
173
 0
VERTEX
 8
MANIGLIA
 10
0
 20
0
 30
0
 70
128
 71
247
 72
248
 73
252
 74
251
 0
VERTEX
 8
MANIGLIA
 10
0
 20
0
 30
0
 70
128
 71
191
 72
187
 73
173
 74
173
 0
VERTEX
 8
MANIGLIA
 10
0
 20
0
 30
0
 70
128
 71
32
 72
33
 73
37
 74
36
 0
VERTEX
 8
MANIGLIA
 10
0
 20
0
 30
0
 70
128
 71
194
 72
195
 73
199
 74
198
 0
VERTEX
 8
MANIGLIA
 10
0
 20
0
 30
0
 70
128
 71
50
 72
51
 73
55
 74
54
 0
VERTEX
 8
MANIGLIA
 10
0
 20
0
 30
0
 70
128
 71
168
 72
208
 73
240
 74
240
 0
VERTEX
 8
MANIGLIA
 10
0
 20
0
 30
0
 70
128
 71
187
 72
183
 73
173
 74
173
 0
VERTEX
 8
MANIGLIA
 10
0
 20
0
 30
0
 70
128
 71
249
 72
250
 73
254
 74
253
 0
VERTEX
 8
MANIGLIA
 10
0
 20
0
 30
0
 70
128
 71
198
 72
199
 73
203
 74
202
 0
VERTEX
 8
MANIGLIA
 10
0
 20
0
 30
0
 70
128
 71
51
 72
52
 73
56
 74
55
 0
VERTEX
 8
MANIGLIA
 10
0
 20
0
 30
0
 70
128
 71
221
 72
237
 73
193
 74
241
 0
VERTEX
 8
MANIGLIA
 10
0
 20
0
 30
0
 70
128
 71
183
 72
179
 73
173
 74
173
 0
VERTEX
 8
MANIGLIA
 10
0
 20
0
 30
0
 70
128
 71
179
 72
175
 73
173
 74
173
 0
VERTEX
 8
MANIGLIA
 10
0
 20
0
 30
0
 70
128
 71
202
 72
203
 73
207
 74
206
 0
VERTEX
 8
MANIGLIA
 10
0
 20
0
 30
0
 70
128
 71
52
 72
53
 73
57
 74
56
 0
VERTEX
 8
MANIGLIA
 10
0
 20
0
 30
0
 70
128
 71
250
 72
251
 73
255
 74
254
 0
VERTEX
 8
MANIGLIA
 10
0
 20
0
 30
0
 70
128
 71
175
 72
171
 73
173
 74
173
 0
VERTEX
 8
MANIGLIA
 10
0
 20
0
 30
0
 70
128
 71
34
 72
35
 73
39
 74
38
 0
VERTEX
 8
MANIGLIA
 10
0
 20
0
 30
0
 70
128
 71
206
 72
207
 73
211
 74
210
 0
VERTEX
 8
MANIGLIA
 10
0
 20
0
 30
0
 70
128
 71
251
 72
252
 73
256
 74
255
 0
VERTEX
 8
MANIGLIA
 10
0
 20
0
 30
0
 70
128
 71
217
 72
198
 73
202
 74
202
 0
VERTEX
 8
MANIGLIA
 10
0
 20
0
 30
0
 70
128
 71
171
 72
167
 73
173
 74
173
 0
VERTEX
 8
MANIGLIA
 10
0
 20
0
 30
0
 70
128
 71
35
 72
36
 73
40
 74
39
 0
VERTEX
 8
MANIGLIA
 10
0
 20
0
 30
0
 70
128
 71
210
 72
211
 73
215
 74
214
 0
VERTEX
 8
MANIGLIA
 10
0
 20
0
 30
0
 70
128
 71
167
 72
163
 73
173
 74
173
 0
VERTEX
 8
MANIGLIA
 10
0
 20
0
 30
0
 70
128
 71
163
 72
159
 73
173
 74
173
 0
VERTEX
 8
MANIGLIA
 10
0
 20
0
 30
0
 70
128
 71
159
 72
155
 73
173
 74
173
 0
VERTEX
 8
MANIGLIA
 10
0
 20
0
 30
0
 70
128
 71
36
 72
37
 73
41
 74
40
 0
VERTEX
 8
MANIGLIA
 10
0
 20
0
 30
0
 70
128
 71
214
 72
215
 73
219
 74
218
 0
VERTEX
 8
MANIGLIA
 10
0
 20
0
 30
0
 70
128
 71
54
 72
55
 73
59
 74
58
 0
VERTEX
 8
MANIGLIA
 10
0
 20
0
 30
0
 70
128
 71
240
 72
192
 73
244
 74
244
 0
VERTEX
 8
MANIGLIA
 10
0
 20
0
 30
0
 70
128
 71
155
 72
151
 73
173
 74
173
 0
VERTEX
 8
MANIGLIA
 10
0
 20
0
 30
0
 70
128
 71
253
 72
254
 73
258
 74
257
 0
VERTEX
 8
MANIGLIA
 10
0
 20
0
 30
0
 70
128
 71
218
 72
219
 73
223
 74
222
 0
VERTEX
 8
MANIGLIA
 10
0
 20
0
 30
0
 70
128
 71
55
 72
56
 73
60
 74
59
 0
VERTEX
 8
MANIGLIA
 10
0
 20
0
 30
0
 70
128
 71
151
 72
152
 73
185
 74
173
 0
VERTEX
 8
MANIGLIA
 10
0
 20
0
 30
0
 70
128
 71
152
 72
189
 73
185
 74
185
 0
VERTEX
 8
MANIGLIA
 10
0
 20
0
 30
0
 70
128
 71
45
 72
148
 73
49
 74
49
 0
VERTEX
 8
MANIGLIA
 10
0
 20
0
 30
0
 70
128
 71
222
 72
223
 73
227
 74
226
 0
VERTEX
 8
MANIGLIA
 10
0
 20
0
 30
0
 70
128
 71
56
 72
57
 73
61
 74
60
 0
VERTEX
 8
MANIGLIA
 10
0
 20
0
 30
0
 70
128
 71
254
 72
255
 73
259
 74
258
 0
VERTEX
 8
MANIGLIA
 10
0
 20
0
 30
0
 70
128
 71
148
 72
252
 73
248
 74
248
 0
VERTEX
 8
MANIGLIA
 10
0
 20
0
 30
0
 70
128
 71
38
 72
39
 73
43
 74
42
 0
VERTEX
 8
MANIGLIA
 10
0
 20
0
 30
0
 70
128
 71
226
 72
227
 73
231
 74
230
 0
VERTEX
 8
MANIGLIA
 10
0
 20
0
 30
0
 70
128
 71
255
 72
256
 73
260
 74
259
 0
VERTEX
 8
MANIGLIA
 10
0
 20
0
 30
0
 70
128
 71
181
 72
199
 73
173
 74
173
 0
VERTEX
 8
MANIGLIA
 10
0
 20
0
 30
0
 70
128
 71
49
 72
144
 73
53
 74
53
 0
VERTEX
 8
MANIGLIA
 10
0
 20
0
 30
0
 70
128
 71
39
 72
40
 73
44
 74
43
 0
VERTEX
 8
MANIGLIA
 10
0
 20
0
 30
0
 70
128
 71
230
 72
231
 73
235
 74
234
 0
VERTEX
 8
MANIGLIA
 10
0
 20
0
 30
0
 70
128
 71
53
 72
140
 73
57
 74
57
 0
VERTEX
 8
MANIGLIA
 10
0
 20
0
 30
0
 70
128
 71
257
 72
258
 73
160
 74
261
 0
VERTEX
 8
MANIGLIA
 10
0
 20
0
 30
0
 70
128
 71
57
 72
136
 73
61
 74
61
 0
VERTEX
 8
MANIGLIA
 10
0
 20
0
 30
0
 70
128
 71
40
 72
41
 73
45
 74
44
 0
VERTEX
 8
MANIGLIA
 10
0
 20
0
 30
0
 70
128
 71
234
 72
235
 73
239
 74
238
 0
VERTEX
 8
MANIGLIA
 10
0
 20
0
 30
0
 70
128
 71
58
 72
59
 73
126
 74
125
 0
VERTEX
 8
MANIGLIA
 10
0
 20
0
 30
0
 70
128
 71
258
 72
259
 73
164
 74
160
 0
VERTEX
 8
MANIGLIA
 10
0
 20
0
 30
0
 70
128
 71
61
 72
132
 73
128
 74
128
 0
VERTEX
 8
MANIGLIA
 10
0
 20
0
 30
0
 70
128
 71
152
 72
248
 73
189
 74
189
 0
VERTEX
 8
MANIGLIA
 10
0
 20
0
 30
0
 70
128
 71
238
 72
239
 73
243
 74
242
 0
VERTEX
 8
MANIGLIA
 10
0
 20
0
 30
0
 70
128
 71
59
 72
60
 73
127
 74
126
 0
VERTEX
 8
MANIGLIA
 10
0
 20
0
 30
0
 70
128
 71
152
 72
148
 73
248
 74
248
 0
VERTEX
 8
MANIGLIA
 10
0
 20
0
 30
0
 70
128
 71
145
 72
245
 73
249
 74
249
 0
VERTEX
 8
MANIGLIA
 10
0
 20
0
 30
0
 70
128
 71
245
 72
145
 73
149
 74
149
 0
VERTEX
 8
MANIGLIA
 10
0
 20
0
 30
0
 70
128
 71
177
 72
245
 73
149
 74
149
 0
VERTEX
 8
MANIGLIA
 10
0
 20
0
 30
0
 70
128
 71
249
 72
253
 73
169
 74
169
 0
VERTEX
 8
MANIGLIA
 10
0
 20
0
 30
0
 70
128
 71
249
 72
65
 73
69
 74
69
 0
VERTEX
 8
MANIGLIA
 10
0
 20
0
 30
0
 70
128
 71
249
 72
69
 73
73
 74
73
 0
VERTEX
 8
MANIGLIA
 10
0
 20
0
 30
0
 70
128
 71
249
 72
73
 73
77
 74
77
 0
VERTEX
 8
MANIGLIA
 10
0
 20
0
 30
0
 70
128
 71
249
 72
77
 73
81
 74
81
 0
VERTEX
 8
MANIGLIA
 10
0
 20
0
 30
0
 70
128
 71
249
 72
81
 73
85
 74
85
 0
VERTEX
 8
MANIGLIA
 10
0
 20
0
 30
0
 70
128
 71
249
 72
85
 73
89
 74
89
 0
VERTEX
 8
MANIGLIA
 10
0
 20
0
 30
0
 70
128
 71
249
 72
89
 73
93
 74
93
 0
VERTEX
 8
MANIGLIA
 10
0
 20
0
 30
0
 70
128
 71
249
 72
93
 73
97
 74
97
 0
VERTEX
 8
MANIGLIA
 10
0
 20
0
 30
0
 70
128
 71
249
 72
97
 73
101
 74
101
 0
VERTEX
 8
MANIGLIA
 10
0
 20
0
 30
0
 70
128
 71
249
 72
101
 73
105
 74
105
 0
VERTEX
 8
MANIGLIA
 10
0
 20
0
 30
0
 70
128
 71
249
 72
105
 73
109
 74
109
 0
VERTEX
 8
MANIGLIA
 10
0
 20
0
 30
0
 70
128
 71
249
 72
109
 73
113
 74
113
 0
VERTEX
 8
MANIGLIA
 10
0
 20
0
 30
0
 70
128
 71
253
 72
257
 73
153
 74
153
 0
VERTEX
 8
MANIGLIA
 10
0
 20
0
 30
0
 70
128
 71
257
 72
261
 73
212
 74
212
 0
VERTEX
 8
MANIGLIA
 10
0
 20
0
 30
0
 70
128
 71
261
 72
172
 73
196
 74
196
 0
VERTEX
 8
MANIGLIA
 10
0
 20
0
 30
0
 70
128
 71
172
 72
236
 73
180
 74
180
 0
VERTEX
 8
MANIGLIA
 10
0
 20
0
 30
0
 70
128
 71
113
 72
117
 73
145
 74
145
 0
VERTEX
 8
MANIGLIA
 10
0
 20
0
 30
0
 70
128
 71
117
 72
121
 73
145
 74
145
 0
VERTEX
 8
MANIGLIA
 10
0
 20
0
 30
0
 70
128
 71
121
 72
2
 73
145
 74
145
 0
VERTEX
 8
MANIGLIA
 10
0
 20
0
 30
0
 70
128
 71
2
 72
6
 73
145
 74
145
 0
VERTEX
 8
MANIGLIA
 10
0
 20
0
 30
0
 70
128
 71
6
 72
10
 73
145
 74
145
 0
VERTEX
 8
MANIGLIA
 10
0
 20
0
 30
0
 70
128
 71
10
 72
14
 73
145
 74
145
 0
VERTEX
 8
MANIGLIA
 10
0
 20
0
 30
0
 70
128
 71
14
 72
18
 73
145
 74
145
 0
VERTEX
 8
MANIGLIA
 10
0
 20
0
 30
0
 70
128
 71
18
 72
22
 73
145
 74
145
 0
VERTEX
 8
MANIGLIA
 10
0
 20
0
 30
0
 70
128
 71
22
 72
26
 73
145
 74
145
 0
VERTEX
 8
MANIGLIA
 10
0
 20
0
 30
0
 70
128
 71
26
 72
30
 73
145
 74
145
 0
VERTEX
 8
MANIGLIA
 10
0
 20
0
 30
0
 70
128
 71
30
 72
34
 73
145
 74
145
 0
VERTEX
 8
MANIGLIA
 10
0
 20
0
 30
0
 70
128
 71
34
 72
38
 73
145
 74
145
 0
VERTEX
 8
MANIGLIA
 10
0
 20
0
 30
0
 70
128
 71
145
 72
38
 73
42
 74
42
 0
VERTEX
 8
MANIGLIA
 10
0
 20
0
 30
0
 70
128
 71
141
 72
145
 73
46
 74
46
 0
VERTEX
 8
MANIGLIA
 10
0
 20
0
 30
0
 70
128
 71
137
 72
141
 73
50
 74
50
 0
VERTEX
 8
MANIGLIA
 10
0
 20
0
 30
0
 70
128
 71
133
 72
137
 73
54
 74
54
 0
VERTEX
 8
MANIGLIA
 10
0
 20
0
 30
0
 70
128
 71
129
 72
133
 73
58
 74
58
 0
VERTEX
 8
MANIGLIA
 10
0
 20
0
 30
0
 70
128
 71
145
 72
249
 73
113
 74
113
 0
VERTEX
 8
MANIGLIA
 10
0
 20
0
 30
0
 70
128
 71
177
 72
149
 73
213
 74
213
 0
VERTEX
 8
MANIGLIA
 10
0
 20
0
 30
0
 70
128
 71
249
 72
169
 73
65
 74
65
 0
VERTEX
 8
MANIGLIA
 10
0
 20
0
 30
0
 70
128
 71
253
 72
153
 73
169
 74
169
 0
VERTEX
 8
MANIGLIA
 10
0
 20
0
 30
0
 70
128
 71
257
 72
212
 73
153
 74
153
 0
VERTEX
 8
MANIGLIA
 10
0
 20
0
 30
0
 70
128
 71
261
 72
196
 73
212
 74
212
 0
VERTEX
 8
MANIGLIA
 10
0
 20
0
 30
0
 70
128
 71
172
 72
180
 73
196
 74
196
 0
VERTEX
 8
MANIGLIA
 10
0
 20
0
 30
0
 70
128
 71
145
 72
42
 73
46
 74
46
 0
VERTEX
 8
MANIGLIA
 10
0
 20
0
 30
0
 70
128
 71
141
 72
46
 73
50
 74
50
 0
VERTEX
 8
MANIGLIA
 10
0
 20
0
 30
0
 70
128
 71
137
 72
50
 73
54
 74
54
 0
VERTEX
 8
MANIGLIA
 10
0
 20
0
 30
0
 70
128
 71
133
 72
54
 73
58
 74
58
 0
VERTEX
 8
MANIGLIA
 10
0
 20
0
 30
0
 70
128
 71
129
 72
58
 73
125
 74
125
 0
SEQEND
 0
POLYLINE
 8
CRUSCOTTO
 66
1
 10
0.0
 20
0.0
 30
0.0
 70
64
 71
32
 72
32
 0
VERTEX
 8
CRUSCOTTO
 10
-37.7
 20
-2.34
 30
117.2
 70
192
 0
VERTEX
 8
CRUSCOTTO
 10
-37.7
 20
-2.34
 30
118.2
 70
192
 0
VERTEX
 8
CRUSCOTTO
 10
-37.7
 20
-2.34
 30
128
 70
192
 0
VERTEX
 8
CRUSCOTTO
 10
-37.7
 20
-2.34
 30
129
 70
192
 0
VERTEX
 8
CRUSCOTTO
 10
-28
 20
-2.34
 30
117.2
 70
192
 0
VERTEX
 8
CRUSCOTTO
 10
-28
 20
-2.34
 30
118.2
 70
192
 0
VERTEX
 8
CRUSCOTTO
 10
-28
 20
-2.34
 30
128
 70
192
 0
VERTEX
 8
CRUSCOTTO
 10
-28
 20
-2.34
 30
129
 70
192
 0
VERTEX
 8
CRUSCOTTO
 10
28
 20
-2.34
 30
117.2
 70
192
 0
VERTEX
 8
CRUSCOTTO
 10
28
 20
-2.34
 30
118.2
 70
192
 0
VERTEX
 8
CRUSCOTTO
 10
28
 20
-2.34
 30
128
 70
192
 0
VERTEX
 8
CRUSCOTTO
 10
28
 20
-2.34
 30
129
 70
192
 0
VERTEX
 8
CRUSCOTTO
 10
37.7
 20
-2.34
 30
117.2
 70
192
 0
VERTEX
 8
CRUSCOTTO
 10
37.7
 20
-2.34
 30
118.2
 70
192
 0
VERTEX
 8
CRUSCOTTO
 10
37.7
 20
-2.34
 30
128
 70
192
 0
VERTEX
 8
CRUSCOTTO
 10
37.7
 20
-2.34
 30
129
 70
192
 0
VERTEX
 8
CRUSCOTTO
 10
37.7
 20
-1.84
 30
117.2
 70
192
 0
VERTEX
 8
CRUSCOTTO
 10
37.7
 20
-1.84
 30
118.2
 70
192
 0
VERTEX
 8
CRUSCOTTO
 10
37.7
 20
-1.84
 30
128
 70
192
 0
VERTEX
 8
CRUSCOTTO
 10
37.7
 20
-1.84
 30
129
 70
192
 0
VERTEX
 8
CRUSCOTTO
 10
28
 20
-1.84
 30
117.2
 70
192
 0
VERTEX
 8
CRUSCOTTO
 10
28
 20
-1.84
 30
118.2
 70
192
 0
VERTEX
 8
CRUSCOTTO
 10
28
 20
-1.84
 30
128
 70
192
 0
VERTEX
 8
CRUSCOTTO
 10
28
 20
-1.84
 30
129
 70
192
 0
VERTEX
 8
CRUSCOTTO
 10
-28
 20
-1.84
 30
117.2
 70
192
 0
VERTEX
 8
CRUSCOTTO
 10
-28
 20
-1.84
 30
118.2
 70
192
 0
VERTEX
 8
CRUSCOTTO
 10
-28
 20
-1.84
 30
128
 70
192
 0
VERTEX
 8
CRUSCOTTO
 10
-28
 20
-1.84
 30
129
 70
192
 0
VERTEX
 8
CRUSCOTTO
 10
-37.7
 20
-1.84
 30
117.2
 70
192
 0
VERTEX
 8
CRUSCOTTO
 10
-37.7
 20
-1.84
 30
118.2
 70
192
 0
VERTEX
 8
CRUSCOTTO
 10
-37.7
 20
-1.84
 30
128
 70
192
 0
VERTEX
 8
CRUSCOTTO
 10
-37.7
 20
-1.84
 30
129
 70
192
 0
VERTEX
 8
CRUSCOTTO
 10
0
 20
0
 30
0
 70
128
 71
1
 72
2
 73
6
 74
5
 0
VERTEX
 8
CRUSCOTTO
 10
0
 20
0
 30
0
 70
128
 71
5
 72
6
 73
10
 74
9
 0
VERTEX
 8
CRUSCOTTO
 10
0
 20
0
 30
0
 70
128
 71
9
 72
10
 73
14
 74
13
 0
VERTEX
 8
CRUSCOTTO
 10
0
 20
0
 30
0
 70
128
 71
2
 72
3
 73
7
 74
6
 0
VERTEX
 8
CRUSCOTTO
 10
0
 20
0
 30
0
 70
128
 71
21
 72
9
 73
13
 74
17
 0
VERTEX
 8
CRUSCOTTO
 10
0
 20
0
 30
0
 70
128
 71
10
 72
11
 73
15
 74
14
 0
VERTEX
 8
CRUSCOTTO
 10
0
 20
0
 30
0
 70
128
 71
3
 72
4
 73
8
 74
7
 0
VERTEX
 8
CRUSCOTTO
 10
0
 20
0
 30
0
 70
128
 71
7
 72
8
 73
12
 74
11
 0
VERTEX
 8
CRUSCOTTO
 10
0
 20
0
 30
0
 70
128
 71
11
 72
12
 73
16
 74
15
 0
VERTEX
 8
CRUSCOTTO
 10
0
 20
0
 30
0
 70
128
 71
13
 72
14
 73
18
 74
17
 0
VERTEX
 8
CRUSCOTTO
 10
0
 20
0
 30
0
 70
128
 71
14
 72
15
 73
19
 74
18
 0
VERTEX
 8
CRUSCOTTO
 10
0
 20
0
 30
0
 70
128
 71
15
 72
16
 73
20
 74
19
 0
VERTEX
 8
CRUSCOTTO
 10
0
 20
0
 30
0
 70
128
 71
17
 72
18
 73
22
 74
21
 0
VERTEX
 8
CRUSCOTTO
 10
0
 20
0
 30
0
 70
128
 71
21
 72
22
 73
26
 74
25
 0
VERTEX
 8
CRUSCOTTO
 10
0
 20
0
 30
0
 70
128
 71
25
 72
26
 73
30
 74
29
 0
VERTEX
 8
CRUSCOTTO
 10
0
 20
0
 30
0
 70
128
 71
18
 72
19
 73
23
 74
22
 0
VERTEX
 8
CRUSCOTTO
 10
0
 20
0
 30
0
 70
128
 71
25
 72
5
 73
9
 74
21
 0
VERTEX
 8
CRUSCOTTO
 10
0
 20
0
 30
0
 70
128
 71
26
 72
27
 73
31
 74
30
 0
VERTEX
 8
CRUSCOTTO
 10
0
 20
0
 30
0
 70
128
 71
19
 72
20
 73
24
 74
23
 0
VERTEX
 8
CRUSCOTTO
 10
0
 20
0
 30
0
 70
128
 71
23
 72
24
 73
28
 74
27
 0
VERTEX
 8
CRUSCOTTO
 10
0
 20
0
 30
0
 70
128
 71
27
 72
28
 73
32
 74
31
 0
VERTEX
 8
CRUSCOTTO
 10
0
 20
0
 30
0
 70
128
 71
29
 72
30
 73
2
 74
1
 0
VERTEX
 8
CRUSCOTTO
 10
0
 20
0
 30
0
 70
128
 71
30
 72
31
 73
3
 74
2
 0
VERTEX
 8
CRUSCOTTO
 10
0
 20
0
 30
0
 70
128
 71
31
 72
32
 73
4
 74
3
 0
VERTEX
 8
CRUSCOTTO
 10
0
 20
0
 30
0
 70
128
 71
4
 72
32
 73
28
 74
8
 0
VERTEX
 8
CRUSCOTTO
 10
0
 20
0
 30
0
 70
128
 71
8
 72
28
 73
24
 74
12
 0
VERTEX
 8
CRUSCOTTO
 10
0
 20
0
 30
0
 70
128
 71
12
 72
24
 73
20
 74
16
 0
VERTEX
 8
CRUSCOTTO
 10
0
 20
0
 30
0
 70
128
 71
29
 72
1
 73
5
 74
25
 0
VERTEX
 8
CRUSCOTTO
 10
0
 20
0
 30
0
 70
128
 71
27
 72
26
 73
6
 74
7
 0
VERTEX
 8
CRUSCOTTO
 10
0
 20
0
 30
0
 70
128
 71
23
 72
27
 73
7
 74
11
 0
VERTEX
 8
CRUSCOTTO
 10
0
 20
0
 30
0
 70
128
 71
22
 72
23
 73
11
 74
10
 0
VERTEX
 8
CRUSCOTTO
 10
0
 20
0
 30
0
 70
128
 71
26
 72
22
 73
10
 74
6
 0
SEQEND
 0
POLYLINE
 8
TRAVERSINO
 66
1
 10
0.0
 20
0.0
 30
0.0
 70
64
 71
56
 72
56
 0
VERTEX
 8
TRAVERSINO
 10
-37.7
 20
-2.3697
 30
57.5148
 70
192
 0
VERTEX
 8
TRAVERSINO
 10
-37.7
 20
-2.3697
 30
60.2648
 70
192
 0
VERTEX
 8
TRAVERSINO
 10
37.7
 20
-2.3697
 30
57.5148
 70
192
 0
VERTEX
 8
TRAVERSINO
 10
37.7
 20
-2.3697
 30
60.2648
 70
192
 0
VERTEX
 8
TRAVERSINO
 10
37.7
 20
-1.6997
 30
57.5148
 70
192
 0
VERTEX
 8
TRAVERSINO
 10
37.7
 20
-1.6997
 30
60.2648
 70
192
 0
VERTEX
 8
TRAVERSINO
 10
-37.7
 20
-1.6997
 30
57.5148
 70
192
 0
VERTEX
 8
TRAVERSINO
 10
-37.7
 20
-1.6997
 30
60.2648
 70
192
 0
VERTEX
 8
TRAVERSINO
 10
37.63
 20
-1.6997
 30
57.5848
 70
192
 0
VERTEX
 8
TRAVERSINO
 10
37.63
 20
-1.6997
 30
60.1948
 70
192
 0
VERTEX
 8
TRAVERSINO
 10
-37.63
 20
-1.6997
 30
57.5848
 70
192
 0
VERTEX
 8
TRAVERSINO
 10
-37.63
 20
-1.6997
 30
60.1948
 70
192
 0
VERTEX
 8
TRAVERSINO
 10
37.63
 20
-2.3
 30
57.5848
 70
192
 0
VERTEX
 8
TRAVERSINO
 10
37.63
 20
-2.3
 30
60.1948
 70
192
 0
VERTEX
 8
TRAVERSINO
 10
-37.63
 20
-2.3
 30
57.5848
 70
192
 0
VERTEX
 8
TRAVERSINO
 10
-37.63
 20
-2.3
 30
60.1948
 70
192
 0
VERTEX
 8
TRAVERSINO
 10
-27.3
 20
-2.3697
 30
60.2648
 70
192
 0
VERTEX
 8
TRAVERSINO
 10
27.3
 20
-2.3697
 30
60.2648
 70
192
 0
VERTEX
 8
TRAVERSINO
 10
-27.3
 20
-2.3697
 30
57.5148
 70
192
 0
VERTEX
 8
TRAVERSINO
 10
27.3
 20
-2.3697
 30
57.5148
 70
192
 0
VERTEX
 8
TRAVERSINO
 10
27.3
 20
-2.3
 30
60.1948
 70
192
 0
VERTEX
 8
TRAVERSINO
 10
-27.3
 20
-2.3
 30
60.1948
 70
192
 0
VERTEX
 8
TRAVERSINO
 10
27.3
 20
-2.3
 30
57.5848
 70
192
 0
VERTEX
 8
TRAVERSINO
 10
-27.3
 20
-2.3
 30
57.5848
 70
192
 0
VERTEX
 8
TRAVERSINO
 10
27.3
 20
-1.6997
 30
60.2648
 70
192
 0
VERTEX
 8
TRAVERSINO
 10
-27.3
 20
-1.6997
 30
60.2648
 70
192
 0
VERTEX
 8
TRAVERSINO
 10
27.3
 20
-1.6997
 30
57.5148
 70
192
 0
VERTEX
 8
TRAVERSINO
 10
-27.3
 20
-1.6997
 30
57.5148
 70
192
 0
VERTEX
 8
TRAVERSINO
 10
27.3
 20
-1.6997
 30
57.5848
 70
192
 0
VERTEX
 8
TRAVERSINO
 10
-27.3
 20
-1.6997
 30
57.5848
 70
192
 0
VERTEX
 8
TRAVERSINO
 10
27.3
 20
-1.6997
 30
60.1948
 70
192
 0
VERTEX
 8
TRAVERSINO
 10
-27.3
 20
-1.6997
 30
60.1948
 70
192
 0
VERTEX
 8
TRAVERSINO
 10
-37.7
 20
-2.3697
 30
58.423
 70
192
 0
VERTEX
 8
TRAVERSINO
 10
-37.7
 20
-2.3697
 30
59.423
 70
192
 0
VERTEX
 8
TRAVERSINO
 10
-27.3
 20
-2.3697
 30
59.423
 70
192
 0
VERTEX
 8
TRAVERSINO
 10
-27.3
 20
-2.3697
 30
58.423
 70
192
 0
VERTEX
 8
TRAVERSINO
 10
37.7
 20
-2.3697
 30
58.423
 70
192
 0
VERTEX
 8
TRAVERSINO
 10
37.7
 20
-2.3697
 30
59.423
 70
192
 0
VERTEX
 8
TRAVERSINO
 10
37.7
 20
-1.6997
 30
58.423
 70
192
 0
VERTEX
 8
TRAVERSINO
 10
37.7
 20
-1.6997
 30
59.423
 70
192
 0
VERTEX
 8
TRAVERSINO
 10
-37.63
 20
-2.3
 30
58.423
 70
192
 0
VERTEX
 8
TRAVERSINO
 10
-37.63
 20
-2.3
 30
59.423
 70
192
 0
VERTEX
 8
TRAVERSINO
 10
-27.3
 20
-2.3
 30
59.423
 70
192
 0
VERTEX
 8
TRAVERSINO
 10
-27.3
 20
-2.3
 30
58.423
 70
192
 0
VERTEX
 8
TRAVERSINO
 10
-37.7
 20
-1.6997
 30
58.423
 70
192
 0
VERTEX
 8
TRAVERSINO
 10
-37.7
 20
-1.6997
 30
59.423
 70
192
 0
VERTEX
 8
TRAVERSINO
 10
-37.63
 20
-1.6997
 30
58.423
 70
192
 0
VERTEX
 8
TRAVERSINO
 10
-37.63
 20
-1.6997
 30
59.423
 70
192
 0
VERTEX
 8
TRAVERSINO
 10
37.63
 20
-1.6997
 30
58.423
 70
192
 0
VERTEX
 8
TRAVERSINO
 10
37.63
 20
-1.6997
 30
59.423
 70
192
 0
VERTEX
 8
TRAVERSINO
 10
37.63
 20
-2.3
 30
58.423
 70
192
 0
VERTEX
 8
TRAVERSINO
 10
37.63
 20
-2.3
 30
59.423
 70
192
 0
VERTEX
 8
TRAVERSINO
 10
27.3
 20
-2.3697
 30
59.423
 70
192
 0
VERTEX
 8
TRAVERSINO
 10
27.3
 20
-2.3697
 30
58.423
 70
192
 0
VERTEX
 8
TRAVERSINO
 10
27.3
 20
-2.3
 30
59.423
 70
192
 0
VERTEX
 8
TRAVERSINO
 10
27.3
 20
-2.3
 30
58.423
 70
192
 0
VERTEX
 8
TRAVERSINO
 10
0
 20
0
 30
0
 70
128
 71
1
 72
33
 73
36
 74
19
 0
VERTEX
 8
TRAVERSINO
 10
0
 20
0
 30
0
 70
128
 71
3
 72
37
 73
39
 74
5
 0
VERTEX
 8
TRAVERSINO
 10
0
 20
0
 30
0
 70
128
 71
41
 72
15
 73
24
 74
44
 0
VERTEX
 8
TRAVERSINO
 10
0
 20
0
 30
0
 70
128
 71
7
 72
45
 73
33
 74
1
 0
VERTEX
 8
TRAVERSINO
 10
0
 20
0
 30
0
 70
128
 71
2
 72
8
 73
26
 74
17
 0
VERTEX
 8
TRAVERSINO
 10
0
 20
0
 30
0
 70
128
 71
7
 72
1
 73
19
 74
28
 0
VERTEX
 8
TRAVERSINO
 10
0
 20
0
 30
0
 70
128
 71
30
 72
11
 73
7
 74
28
 0
VERTEX
 8
TRAVERSINO
 10
0
 20
0
 30
0
 70
128
 71
7
 72
11
 73
47
 74
45
 0
VERTEX
 8
TRAVERSINO
 10
0
 20
0
 30
0
 70
128
 71
8
 72
12
 73
32
 74
26
 0
VERTEX
 8
TRAVERSINO
 10
0
 20
0
 30
0
 70
128
 71
49
 72
9
 73
5
 74
39
 0
VERTEX
 8
TRAVERSINO
 10
0
 20
0
 30
0
 70
128
 71
24
 72
15
 73
11
 74
30
 0
VERTEX
 8
TRAVERSINO
 10
0
 20
0
 30
0
 70
128
 71
11
 72
15
 73
41
 74
47
 0
VERTEX
 8
TRAVERSINO
 10
0
 20
0
 30
0
 70
128
 71
12
 72
16
 73
22
 74
32
 0
VERTEX
 8
TRAVERSINO
 10
0
 20
0
 30
0
 70
128
 71
51
 72
13
 73
9
 74
49
 0
VERTEX
 8
TRAVERSINO
 10
0
 20
0
 30
0
 70
128
 71
54
 72
20
 73
19
 74
36
 0
VERTEX
 8
TRAVERSINO
 10
0
 20
0
 30
0
 70
128
 71
37
 72
3
 73
20
 74
54
 0
VERTEX
 8
TRAVERSINO
 10
0
 20
0
 30
0
 70
128
 71
23
 72
13
 73
51
 74
56
 0
VERTEX
 8
TRAVERSINO
 10
0
 20
0
 30
0
 70
128
 71
44
 72
24
 73
23
 74
56
 0
VERTEX
 8
TRAVERSINO
 10
0
 20
0
 30
0
 70
128
 71
26
 72
25
 73
18
 74
17
 0
VERTEX
 8
TRAVERSINO
 10
0
 20
0
 30
0
 70
128
 71
25
 72
6
 73
4
 74
18
 0
VERTEX
 8
TRAVERSINO
 10
0
 20
0
 30
0
 70
128
 71
19
 72
20
 73
27
 74
28
 0
VERTEX
 8
TRAVERSINO
 10
0
 20
0
 30
0
 70
128
 71
20
 72
3
 73
5
 74
27
 0
VERTEX
 8
TRAVERSINO
 10
0
 20
0
 30
0
 70
128
 71
27
 72
5
 73
9
 74
29
 0
VERTEX
 8
TRAVERSINO
 10
0
 20
0
 30
0
 70
128
 71
29
 72
30
 73
28
 74
27
 0
VERTEX
 8
TRAVERSINO
 10
0
 20
0
 30
0
 70
128
 71
32
 72
31
 73
25
 74
26
 0
VERTEX
 8
TRAVERSINO
 10
0
 20
0
 30
0
 70
128
 71
31
 72
10
 73
6
 74
25
 0
VERTEX
 8
TRAVERSINO
 10
0
 20
0
 30
0
 70
128
 71
29
 72
9
 73
13
 74
23
 0
VERTEX
 8
TRAVERSINO
 10
0
 20
0
 30
0
 70
128
 71
23
 72
24
 73
30
 74
29
 0
VERTEX
 8
TRAVERSINO
 10
0
 20
0
 30
0
 70
128
 71
22
 72
21
 73
31
 74
32
 0
VERTEX
 8
TRAVERSINO
 10
0
 20
0
 30
0
 70
128
 71
21
 72
14
 73
10
 74
31
 0
VERTEX
 8
TRAVERSINO
 10
0
 20
0
 30
0
 70
128
 71
33
 72
34
 73
35
 74
36
 0
VERTEX
 8
TRAVERSINO
 10
0
 20
0
 30
0
 70
128
 71
34
 72
2
 73
17
 74
35
 0
VERTEX
 8
TRAVERSINO
 10
0
 20
0
 30
0
 70
128
 71
37
 72
38
 73
40
 74
39
 0
VERTEX
 8
TRAVERSINO
 10
0
 20
0
 30
0
 70
128
 71
38
 72
4
 73
6
 74
40
 0
VERTEX
 8
TRAVERSINO
 10
0
 20
0
 30
0
 70
128
 71
43
 72
22
 73
16
 74
42
 0
VERTEX
 8
TRAVERSINO
 10
0
 20
0
 30
0
 70
128
 71
42
 72
41
 73
44
 74
43
 0
VERTEX
 8
TRAVERSINO
 10
0
 20
0
 30
0
 70
128
 71
45
 72
46
 73
34
 74
33
 0
VERTEX
 8
TRAVERSINO
 10
0
 20
0
 30
0
 70
128
 71
46
 72
8
 73
2
 74
34
 0
VERTEX
 8
TRAVERSINO
 10
0
 20
0
 30
0
 70
128
 71
47
 72
48
 73
46
 74
45
 0
VERTEX
 8
TRAVERSINO
 10
0
 20
0
 30
0
 70
128
 71
48
 72
12
 73
8
 74
46
 0
VERTEX
 8
TRAVERSINO
 10
0
 20
0
 30
0
 70
128
 71
40
 72
6
 73
10
 74
50
 0
VERTEX
 8
TRAVERSINO
 10
0
 20
0
 30
0
 70
128
 71
50
 72
49
 73
39
 74
40
 0
VERTEX
 8
TRAVERSINO
 10
0
 20
0
 30
0
 70
128
 71
41
 72
42
 73
48
 74
47
 0
VERTEX
 8
TRAVERSINO
 10
0
 20
0
 30
0
 70
128
 71
42
 72
16
 73
12
 74
48
 0
VERTEX
 8
TRAVERSINO
 10
0
 20
0
 30
0
 70
128
 71
50
 72
10
 73
14
 74
52
 0
VERTEX
 8
TRAVERSINO
 10
0
 20
0
 30
0
 70
128
 71
52
 72
51
 73
49
 74
50
 0
VERTEX
 8
TRAVERSINO
 10
0
 20
0
 30
0
 70
128
 71
35
 72
17
 73
18
 74
53
 0
VERTEX
 8
TRAVERSINO
 10
0
 20
0
 30
0
 70
128
 71
55
 72
21
 73
22
 74
43
 0
VERTEX
 8
TRAVERSINO
 10
0
 20
0
 30
0
 70
128
 71
53
 72
18
 73
4
 74
38
 0
VERTEX
 8
TRAVERSINO
 10
0
 20
0
 30
0
 70
128
 71
38
 72
37
 73
54
 74
53
 0
VERTEX
 8
TRAVERSINO
 10
0
 20
0
 30
0
 70
128
 71
51
 72
52
 73
55
 74
56
 0
VERTEX
 8
TRAVERSINO
 10
0
 20
0
 30
0
 70
128
 71
52
 72
14
 73
21
 74
55
 0
VERTEX
 8
TRAVERSINO
 10
0
 20
0
 30
0
 70
128
 71
53
 72
54
 73
56
 74
55
 0
VERTEX
 8
TRAVERSINO
 10
0
 20
0
 30
0
 70
128
 71
35
 72
53
 73
55
 74
43
 0
VERTEX
 8
TRAVERSINO
 10
0
 20
0
 30
0
 70
128
 71
54
 72
36
 73
44
 74
56
 0
VERTEX
 8
TRAVERSINO
 10
0
 20
0
 30
0
 70
128
 71
36
 72
35
 73
43
 74
44
 0
SEQEND
 0
POLYLINE
 8
ANTA_CORNICE_1
 66
1
 10
0.0
 20
0.0
 30
0.0
 70
64
 71
32
 72
32
 0
VERTEX
 8
ANTA_CORNICE_1
 10
-37.575
 20
-2.2
 30
61.91
 70
192
 0
VERTEX
 8
ANTA_CORNICE_1
 10
-37.575
 20
-2.2
 30
73.91
 70
192
 0
VERTEX
 8
ANTA_CORNICE_1
 10
-37.575
 20
-2.2
 30
103.91
 70
192
 0
VERTEX
 8
ANTA_CORNICE_1
 10
-37.575
 20
-2.2
 30
115.91
 70
192
 0
VERTEX
 8
ANTA_CORNICE_1
 10
-25.05
 20
-2.2
 30
61.91
 70
192
 0
VERTEX
 8
ANTA_CORNICE_1
 10
-25.05
 20
-2.2
 30
73.91
 70
192
 0
VERTEX
 8
ANTA_CORNICE_1
 10
-25.05
 20
-2.2
 30
103.91
 70
192
 0
VERTEX
 8
ANTA_CORNICE_1
 10
-25.05
 20
-2.2
 30
115.91
 70
192
 0
VERTEX
 8
ANTA_CORNICE_1
 10
25.05
 20
-2.2
 30
61.91
 70
192
 0
VERTEX
 8
ANTA_CORNICE_1
 10
25.05
 20
-2.2
 30
73.91
 70
192
 0
VERTEX
 8
ANTA_CORNICE_1
 10
25.05
 20
-2.2
 30
103.91
 70
192
 0
VERTEX
 8
ANTA_CORNICE_1
 10
25.05
 20
-2.2
 30
115.91
 70
192
 0
VERTEX
 8
ANTA_CORNICE_1
 10
37.575
 20
-2.2
 30
61.91
 70
192
 0
VERTEX
 8
ANTA_CORNICE_1
 10
37.575
 20
-2.2
 30
73.91
 70
192
 0
VERTEX
 8
ANTA_CORNICE_1
 10
37.575
 20
-2.2
 30
103.91
 70
192
 0
VERTEX
 8
ANTA_CORNICE_1
 10
37.575
 20
-2.2
 30
115.91
 70
192
 0
VERTEX
 8
ANTA_CORNICE_1
 10
37.575
 20
-1.7
 30
61.91
 70
192
 0
VERTEX
 8
ANTA_CORNICE_1
 10
37.575
 20
-1.7
 30
73.91
 70
192
 0
VERTEX
 8
ANTA_CORNICE_1
 10
37.575
 20
-1.7
 30
103.91
 70
192
 0
VERTEX
 8
ANTA_CORNICE_1
 10
37.575
 20
-1.7
 30
115.91
 70
192
 0
VERTEX
 8
ANTA_CORNICE_1
 10
25.05
 20
-1.7
 30
61.91
 70
192
 0
VERTEX
 8
ANTA_CORNICE_1
 10
25.05
 20
-1.7
 30
73.91
 70
192
 0
VERTEX
 8
ANTA_CORNICE_1
 10
25.05
 20
-1.7
 30
103.91
 70
192
 0
VERTEX
 8
ANTA_CORNICE_1
 10
25.05
 20
-1.7
 30
115.91
 70
192
 0
VERTEX
 8
ANTA_CORNICE_1
 10
-25.05
 20
-1.7
 30
61.91
 70
192
 0
VERTEX
 8
ANTA_CORNICE_1
 10
-25.05
 20
-1.7
 30
73.91
 70
192
 0
VERTEX
 8
ANTA_CORNICE_1
 10
-25.05
 20
-1.7
 30
103.91
 70
192
 0
VERTEX
 8
ANTA_CORNICE_1
 10
-25.05
 20
-1.7
 30
115.91
 70
192
 0
VERTEX
 8
ANTA_CORNICE_1
 10
-37.575
 20
-1.7
 30
61.91
 70
192
 0
VERTEX
 8
ANTA_CORNICE_1
 10
-37.575
 20
-1.7
 30
73.91
 70
192
 0
VERTEX
 8
ANTA_CORNICE_1
 10
-37.575
 20
-1.7
 30
103.91
 70
192
 0
VERTEX
 8
ANTA_CORNICE_1
 10
-37.575
 20
-1.7
 30
115.91
 70
192
 0
VERTEX
 8
ANTA_CORNICE_1
 10
0
 20
0
 30
0
 70
128
 71
1
 72
2
 73
6
 74
5
 0
VERTEX
 8
ANTA_CORNICE_1
 10
0
 20
0
 30
0
 70
128
 71
5
 72
6
 73
10
 74
9
 0
VERTEX
 8
ANTA_CORNICE_1
 10
0
 20
0
 30
0
 70
128
 71
9
 72
10
 73
14
 74
13
 0
VERTEX
 8
ANTA_CORNICE_1
 10
0
 20
0
 30
0
 70
128
 71
2
 72
3
 73
7
 74
6
 0
VERTEX
 8
ANTA_CORNICE_1
 10
0
 20
0
 30
0
 70
128
 71
21
 72
9
 73
13
 74
17
 0
VERTEX
 8
ANTA_CORNICE_1
 10
0
 20
0
 30
0
 70
128
 71
10
 72
11
 73
15
 74
14
 0
VERTEX
 8
ANTA_CORNICE_1
 10
0
 20
0
 30
0
 70
128
 71
3
 72
4
 73
8
 74
7
 0
VERTEX
 8
ANTA_CORNICE_1
 10
0
 20
0
 30
0
 70
128
 71
7
 72
8
 73
12
 74
11
 0
VERTEX
 8
ANTA_CORNICE_1
 10
0
 20
0
 30
0
 70
128
 71
11
 72
12
 73
16
 74
15
 0
VERTEX
 8
ANTA_CORNICE_1
 10
0
 20
0
 30
0
 70
128
 71
13
 72
14
 73
18
 74
17
 0
VERTEX
 8
ANTA_CORNICE_1
 10
0
 20
0
 30
0
 70
128
 71
14
 72
15
 73
19
 74
18
 0
VERTEX
 8
ANTA_CORNICE_1
 10
0
 20
0
 30
0
 70
128
 71
15
 72
16
 73
20
 74
19
 0
VERTEX
 8
ANTA_CORNICE_1
 10
0
 20
0
 30
0
 70
128
 71
17
 72
18
 73
22
 74
21
 0
VERTEX
 8
ANTA_CORNICE_1
 10
0
 20
0
 30
0
 70
128
 71
21
 72
22
 73
26
 74
25
 0
VERTEX
 8
ANTA_CORNICE_1
 10
0
 20
0
 30
0
 70
128
 71
25
 72
26
 73
30
 74
29
 0
VERTEX
 8
ANTA_CORNICE_1
 10
0
 20
0
 30
0
 70
128
 71
18
 72
19
 73
23
 74
22
 0
VERTEX
 8
ANTA_CORNICE_1
 10
0
 20
0
 30
0
 70
128
 71
25
 72
5
 73
9
 74
21
 0
VERTEX
 8
ANTA_CORNICE_1
 10
0
 20
0
 30
0
 70
128
 71
26
 72
27
 73
31
 74
30
 0
VERTEX
 8
ANTA_CORNICE_1
 10
0
 20
0
 30
0
 70
128
 71
19
 72
20
 73
24
 74
23
 0
VERTEX
 8
ANTA_CORNICE_1
 10
0
 20
0
 30
0
 70
128
 71
23
 72
24
 73
28
 74
27
 0
VERTEX
 8
ANTA_CORNICE_1
 10
0
 20
0
 30
0
 70
128
 71
27
 72
28
 73
32
 74
31
 0
VERTEX
 8
ANTA_CORNICE_1
 10
0
 20
0
 30
0
 70
128
 71
29
 72
30
 73
2
 74
1
 0
VERTEX
 8
ANTA_CORNICE_1
 10
0
 20
0
 30
0
 70
128
 71
30
 72
31
 73
3
 74
2
 0
VERTEX
 8
ANTA_CORNICE_1
 10
0
 20
0
 30
0
 70
128
 71
31
 72
32
 73
4
 74
3
 0
VERTEX
 8
ANTA_CORNICE_1
 10
0
 20
0
 30
0
 70
128
 71
4
 72
32
 73
28
 74
8
 0
VERTEX
 8
ANTA_CORNICE_1
 10
0
 20
0
 30
0
 70
128
 71
8
 72
28
 73
24
 74
12
 0
VERTEX
 8
ANTA_CORNICE_1
 10
0
 20
0
 30
0
 70
128
 71
12
 72
24
 73
20
 74
16
 0
VERTEX
 8
ANTA_CORNICE_1
 10
0
 20
0
 30
0
 70
128
 71
29
 72
1
 73
5
 74
25
 0
VERTEX
 8
ANTA_CORNICE_1
 10
0
 20
0
 30
0
 70
128
 71
23
 72
27
 73
7
 74
11
 0
VERTEX
 8
ANTA_CORNICE_1
 10
0
 20
0
 30
0
 70
128
 71
22
 72
23
 73
11
 74
10
 0
VERTEX
 8
ANTA_CORNICE_1
 10
0
 20
0
 30
0
 70
128
 71
26
 72
22
 73
10
 74
6
 0
VERTEX
 8
ANTA_CORNICE_1
 10
0
 20
0
 30
0
 70
128
 71
27
 72
26
 73
6
 74
7
 0
SEQEND
 0
POLYLINE
 8
ANTA_FINESTRA_1
 66
1
 10
0.0
 20
0.0
 30
0.0
 70
64
 71
8
 72
6
 0
VERTEX
 8
ANTA_FINESTRA_1
 10
25.05
 20
-2.2
 30
73.91
 70
192
 0
VERTEX
 8
ANTA_FINESTRA_1
 10
25.05
 20
-2.2
 30
103.91
 70
192
 0
VERTEX
 8
ANTA_FINESTRA_1
 10
-25.05
 20
-1.7
 30
103.91
 70
192
 0
VERTEX
 8
ANTA_FINESTRA_1
 10
25.05
 20
-1.7
 30
73.91
 70
192
 0
VERTEX
 8
ANTA_FINESTRA_1
 10
25.05
 20
-1.7
 30
103.91
 70
192
 0
VERTEX
 8
ANTA_FINESTRA_1
 10
-25.05
 20
-2.2
 30
73.91
 70
192
 0
VERTEX
 8
ANTA_FINESTRA_1
 10
-25.05
 20
-2.2
 30
103.91
 70
192
 0
VERTEX
 8
ANTA_FINESTRA_1
 10
-25.05
 20
-1.7
 30
73.91
 70
192
 0
VERTEX
 8
ANTA_FINESTRA_1
 10
0
 20
0
 30
0
 70
128
 71
6
 72
7
 73
2
 74
1
 0
VERTEX
 8
ANTA_FINESTRA_1
 10
0
 20
0
 30
0
 70
128
 71
4
 72
5
 73
3
 74
8
 0
VERTEX
 8
ANTA_FINESTRA_1
 10
0
 20
0
 30
0
 70
128
 71
8
 72
3
 73
7
 74
6
 0
VERTEX
 8
ANTA_FINESTRA_1
 10
0
 20
0
 30
0
 70
128
 71
3
 72
5
 73
2
 74
7
 0
VERTEX
 8
ANTA_FINESTRA_1
 10
0
 20
0
 30
0
 70
128
 71
1
 72
2
 73
5
 74
4
 0
VERTEX
 8
ANTA_FINESTRA_1
 10
0
 20
0
 30
0
 70
128
 71
6
 72
1
 73
4
 74
8
 0
SEQEND
 0
ENDSEC
 0
EOF
