 0
SECTION
 2
HEADER
 9
$ACADVER
 1
AC1009
 0
ENDSEC
 0
SECTION
 2
TABLES
 0
TABLE
 2
LTYPE
 70
1
 0
LTYPE
 2
CONTINUOUS
 70
64
 3
solid line
 72
65
 73
0
 40
0.0
 0
ENDTAB
 0
TABLE
 2
LAYER
 70
6
 0
LAYER
 2
0
 70
0
 62
7
 6
CONTINUOUS
 0
LAYER
 2
F4OTR30S1_-_30_MICROWAVE_OVEN
 70
64
 62
7
 6
CONTINUOUS
 0
LAYER
 2
CUBO_9
 70
64
 62
39
 6
CONTINUOUS
 0
LAYER
 2
CUBO_8
 70
64
 62
39
 6
CONTINUOUS
 0
LAYER
 2
CUBO_7
 70
64
 62
39
 6
CONTINUOUS
 0
LAYER
 2
LCD
 70
64
 62
37
 6
CONTINUOUS
 0
LAYER
 2
CUBO_3
 70
64
 62
39
 6
CONTINUOUS
 0
LAYER
 2
DOOR
 70
64
 62
39
 6
CONTINUOUS
 0
LAYER
 2
GLASS
 70
64
 62
37
 6
CONTINUOUS
 0
LAYER
 2
STEEL
 70
64
 62
253
 6
CONTINUOUS
 0
LAYER
 2
STEEL_1
 70
64
 62
253
 6
CONTINUOUS
 0
LAYER
 2
STEEL_4
 70
64
 62
253
 6
CONTINUOUS
 0
LAYER
 2
STEEL_5
 70
64
 62
253
 6
CONTINUOUS
 0
LAYER
 2
OVEN
 70
64
 62
253
 6
CONTINUOUS
 0
ENDTAB
 0
ENDSEC
 0
SECTION
 2
BLOCKS
 0
ENDSEC
 0
SECTION
 2
ENTITIES
 0
POLYLINE
 8
CUBO_9
 66
1
 10
0.0
 20
0.0
 30
0.0
 70
64
 71
8
 72
6
 0
VERTEX
 8
CUBO_9
 10
11.75
 20
-14.6822
 30
0.0001
 70
192
 0
VERTEX
 8
CUBO_9
 10
11.75
 20
-14.6822
 30
1.4001
 70
192
 0
VERTEX
 8
CUBO_9
 10
30.95
 20
-14.6822
 30
0.0001
 70
192
 0
VERTEX
 8
CUBO_9
 10
30.95
 20
-14.6822
 30
1.4001
 70
192
 0
VERTEX
 8
CUBO_9
 10
30.95
 20
-13.6822
 30
0.0001
 70
192
 0
VERTEX
 8
CUBO_9
 10
30.95
 20
-13.6822
 30
1.4001
 70
192
 0
VERTEX
 8
CUBO_9
 10
11.75
 20
-13.6822
 30
0.0001
 70
192
 0
VERTEX
 8
CUBO_9
 10
11.75
 20
-13.6822
 30
1.4001
 70
192
 0
VERTEX
 8
CUBO_9
 10
0
 20
0
 30
0
 70
128
 71
1
 72
2
 73
4
 74
3
 0
VERTEX
 8
CUBO_9
 10
0
 20
0
 30
0
 70
128
 71
3
 72
4
 73
6
 74
5
 0
VERTEX
 8
CUBO_9
 10
0
 20
0
 30
0
 70
128
 71
5
 72
6
 73
8
 74
7
 0
VERTEX
 8
CUBO_9
 10
0
 20
0
 30
0
 70
128
 71
7
 72
8
 73
2
 74
1
 0
VERTEX
 8
CUBO_9
 10
0
 20
0
 30
0
 70
128
 71
2
 72
8
 73
6
 74
4
 0
VERTEX
 8
CUBO_9
 10
0
 20
0
 30
0
 70
128
 71
7
 72
1
 73
3
 74
5
 0
SEQEND
 0
POLYLINE
 8
CUBO_8
 66
1
 10
0.0
 20
0.0
 30
0.0
 70
64
 71
8
 72
6
 0
VERTEX
 8
CUBO_8
 10
-30.95
 20
-14.6822
 30
0.0001
 70
192
 0
VERTEX
 8
CUBO_8
 10
-30.95
 20
-14.6822
 30
1.4001
 70
192
 0
VERTEX
 8
CUBO_8
 10
-11.75
 20
-14.6822
 30
0.0001
 70
192
 0
VERTEX
 8
CUBO_8
 10
-11.75
 20
-14.6822
 30
1.4001
 70
192
 0
VERTEX
 8
CUBO_8
 10
-11.75
 20
-13.6822
 30
0.0001
 70
192
 0
VERTEX
 8
CUBO_8
 10
-11.75
 20
-13.6822
 30
1.4001
 70
192
 0
VERTEX
 8
CUBO_8
 10
-30.95
 20
-13.6822
 30
0.0001
 70
192
 0
VERTEX
 8
CUBO_8
 10
-30.95
 20
-13.6822
 30
1.4001
 70
192
 0
VERTEX
 8
CUBO_8
 10
0
 20
0
 30
0
 70
128
 71
1
 72
2
 73
4
 74
3
 0
VERTEX
 8
CUBO_8
 10
0
 20
0
 30
0
 70
128
 71
3
 72
4
 73
6
 74
5
 0
VERTEX
 8
CUBO_8
 10
0
 20
0
 30
0
 70
128
 71
5
 72
6
 73
8
 74
7
 0
VERTEX
 8
CUBO_8
 10
0
 20
0
 30
0
 70
128
 71
7
 72
8
 73
2
 74
1
 0
VERTEX
 8
CUBO_8
 10
0
 20
0
 30
0
 70
128
 71
2
 72
8
 73
6
 74
4
 0
VERTEX
 8
CUBO_8
 10
0
 20
0
 30
0
 70
128
 71
7
 72
1
 73
3
 74
5
 0
SEQEND
 0
POLYLINE
 8
CUBO_7
 66
1
 10
0.0
 20
0.0
 30
0.0
 70
64
 71
8
 72
6
 0
VERTEX
 8
CUBO_7
 10
-33.53
 20
-14.0488
 30
-0.0001
 70
192
 0
VERTEX
 8
CUBO_7
 10
-35
 20
-15
 30
1.9999
 70
192
 0
VERTEX
 8
CUBO_7
 10
33.53
 20
-14.0488
 30
-0.0001
 70
192
 0
VERTEX
 8
CUBO_7
 10
35
 20
-15
 30
1.9999
 70
192
 0
VERTEX
 8
CUBO_7
 10
33.53
 20
14.0488
 30
-0.0001
 70
192
 0
VERTEX
 8
CUBO_7
 10
35
 20
15
 30
1.9999
 70
192
 0
VERTEX
 8
CUBO_7
 10
-33.53
 20
14.0488
 30
-0.0001
 70
192
 0
VERTEX
 8
CUBO_7
 10
-35
 20
15
 30
1.9999
 70
192
 0
VERTEX
 8
CUBO_7
 10
0
 20
0
 30
0
 70
128
 71
1
 72
2
 73
4
 74
3
 0
VERTEX
 8
CUBO_7
 10
0
 20
0
 30
0
 70
128
 71
3
 72
4
 73
6
 74
5
 0
VERTEX
 8
CUBO_7
 10
0
 20
0
 30
0
 70
128
 71
5
 72
6
 73
8
 74
7
 0
VERTEX
 8
CUBO_7
 10
0
 20
0
 30
0
 70
128
 71
7
 72
8
 73
2
 74
1
 0
VERTEX
 8
CUBO_7
 10
0
 20
0
 30
0
 70
128
 71
2
 72
8
 73
6
 74
4
 0
VERTEX
 8
CUBO_7
 10
0
 20
0
 30
0
 70
128
 71
7
 72
1
 73
3
 74
5
 0
SEQEND
 0
POLYLINE
 8
LCD
 66
1
 10
0.0
 20
0.0
 30
0.0
 70
64
 71
8
 72
6
 0
VERTEX
 8
LCD
 10
26.5416
 20
-21.6093
 30
29.937
 70
192
 0
VERTEX
 8
LCD
 10
26.5416
 20
-21.6093
 30
32.937
 70
192
 0
VERTEX
 8
LCD
 10
32.5416
 20
-21.6093
 30
29.937
 70
192
 0
VERTEX
 8
LCD
 10
32.5416
 20
-21.6093
 30
32.937
 70
192
 0
VERTEX
 8
LCD
 10
32.5416
 20
-21.5093
 30
29.937
 70
192
 0
VERTEX
 8
LCD
 10
32.5416
 20
-21.5093
 30
32.937
 70
192
 0
VERTEX
 8
LCD
 10
26.5416
 20
-21.5093
 30
29.937
 70
192
 0
VERTEX
 8
LCD
 10
26.5416
 20
-21.5093
 30
32.937
 70
192
 0
VERTEX
 8
LCD
 10
0
 20
0
 30
0
 70
128
 71
1
 72
2
 73
4
 74
3
 0
VERTEX
 8
LCD
 10
0
 20
0
 30
0
 70
128
 71
3
 72
4
 73
6
 74
5
 0
VERTEX
 8
LCD
 10
0
 20
0
 30
0
 70
128
 71
5
 72
6
 73
8
 74
7
 0
VERTEX
 8
LCD
 10
0
 20
0
 30
0
 70
128
 71
7
 72
8
 73
2
 74
1
 0
VERTEX
 8
LCD
 10
0
 20
0
 30
0
 70
128
 71
2
 72
8
 73
6
 74
4
 0
VERTEX
 8
LCD
 10
0
 20
0
 30
0
 70
128
 71
7
 72
1
 73
3
 74
5
 0
SEQEND
 0
POLYLINE
 8
CUBO_3
 66
1
 10
0.0
 20
0.0
 30
0.0
 70
64
 71
20
 72
19
 0
VERTEX
 8
CUBO_3
 10
23.05
 20
-21.59
 30
8.7999
 70
192
 0
VERTEX
 8
CUBO_3
 10
23.05
 20
-21.59
 30
33.9999
 70
192
 0
VERTEX
 8
CUBO_3
 10
37.9501
 20
-16.8785
 30
8.7999
 70
192
 0
VERTEX
 8
CUBO_3
 10
37.9501
 20
-16.8785
 30
33.9999
 70
192
 0
VERTEX
 8
CUBO_3
 10
23.05
 20
-16.8785
 30
8.7999
 70
192
 0
VERTEX
 8
CUBO_3
 10
23.05
 20
-16.8785
 30
33.9999
 70
192
 0
VERTEX
 8
CUBO_3
 10
37.9501
 20
-19.79
 30
8.7999
 70
192
 0
VERTEX
 8
CUBO_3
 10
37.9501
 20
-19.79
 30
33.9999
 70
192
 0
VERTEX
 8
CUBO_3
 10
36.1501
 20
-21.59
 30
33.9999
 70
192
 0
VERTEX
 8
CUBO_3
 10
36.1501
 20
-21.59
 30
8.7999
 70
192
 0
VERTEX
 8
CUBO_3
 10
37.8957
 20
-20.2293
 30
8.7999
 70
192
 0
VERTEX
 8
CUBO_3
 10
37.7202
 20
-20.6703
 30
8.7999
 70
192
 0
VERTEX
 8
CUBO_3
 10
37.4229
 20
-21.0628
 30
8.7999
 70
192
 0
VERTEX
 8
CUBO_3
 10
37.0304
 20
-21.3601
 30
8.7999
 70
192
 0
VERTEX
 8
CUBO_3
 10
36.5894
 20
-21.5356
 30
8.7999
 70
192
 0
VERTEX
 8
CUBO_3
 10
37.8957
 20
-20.2293
 30
33.9999
 70
192
 0
VERTEX
 8
CUBO_3
 10
37.7202
 20
-20.6703
 30
33.9999
 70
192
 0
VERTEX
 8
CUBO_3
 10
37.4229
 20
-21.0628
 30
33.9999
 70
192
 0
VERTEX
 8
CUBO_3
 10
37.0304
 20
-21.3601
 30
33.9999
 70
192
 0
VERTEX
 8
CUBO_3
 10
36.5894
 20
-21.5356
 30
33.9999
 70
192
 0
VERTEX
 8
CUBO_3
 10
0
 20
0
 30
0
 70
128
 71
1
 72
2
 73
9
 74
10
 0
VERTEX
 8
CUBO_3
 10
0
 20
0
 30
0
 70
128
 71
7
 72
8
 73
4
 74
3
 0
VERTEX
 8
CUBO_3
 10
0
 20
0
 30
0
 70
128
 71
3
 72
4
 73
6
 74
5
 0
VERTEX
 8
CUBO_3
 10
0
 20
0
 30
0
 70
128
 71
5
 72
6
 73
2
 74
1
 0
VERTEX
 8
CUBO_3
 10
0
 20
0
 30
0
 70
128
 71
9
 72
2
 73
6
 74
4
 0
VERTEX
 8
CUBO_3
 10
0
 20
0
 30
0
 70
128
 71
10
 72
11
 73
7
 74
3
 0
VERTEX
 8
CUBO_3
 10
0
 20
0
 30
0
 70
128
 71
17
 72
18
 73
19
 74
19
 0
VERTEX
 8
CUBO_3
 10
0
 20
0
 30
0
 70
128
 71
17
 72
19
 73
20
 74
9
 0
VERTEX
 8
CUBO_3
 10
0
 20
0
 30
0
 70
128
 71
9
 72
4
 73
8
 74
17
 0
VERTEX
 8
CUBO_3
 10
0
 20
0
 30
0
 70
128
 71
8
 72
16
 73
17
 74
17
 0
VERTEX
 8
CUBO_3
 10
0
 20
0
 30
0
 70
128
 71
15
 72
14
 73
13
 74
12
 0
VERTEX
 8
CUBO_3
 10
0
 20
0
 30
0
 70
128
 71
5
 72
1
 73
10
 74
3
 0
VERTEX
 8
CUBO_3
 10
0
 20
0
 30
0
 70
128
 71
10
 72
15
 73
12
 74
11
 0
VERTEX
 8
CUBO_3
 10
0
 20
0
 30
0
 70
128
 71
7
 72
11
 73
16
 74
8
 0
VERTEX
 8
CUBO_3
 10
0
 20
0
 30
0
 70
128
 71
11
 72
12
 73
17
 74
16
 0
VERTEX
 8
CUBO_3
 10
0
 20
0
 30
0
 70
128
 71
12
 72
13
 73
18
 74
17
 0
VERTEX
 8
CUBO_3
 10
0
 20
0
 30
0
 70
128
 71
13
 72
14
 73
19
 74
18
 0
VERTEX
 8
CUBO_3
 10
0
 20
0
 30
0
 70
128
 71
14
 72
15
 73
20
 74
19
 0
VERTEX
 8
CUBO_3
 10
0
 20
0
 30
0
 70
128
 71
15
 72
10
 73
9
 74
20
 0
SEQEND
 0
POLYLINE
 8
DOOR
 66
1
 10
0.0
 20
0.0
 30
0.0
 70
64
 71
56
 72
57
 0
VERTEX
 8
DOOR
 10
22.85
 20
-21.59
 30
8.7999
 70
192
 0
VERTEX
 8
DOOR
 10
22.85
 20
-21.59
 30
33.9999
 70
192
 0
VERTEX
 8
DOOR
 10
22.85
 20
-16.8785
 30
8.7999
 70
192
 0
VERTEX
 8
DOOR
 10
22.85
 20
-16.8785
 30
33.9999
 70
192
 0
VERTEX
 8
DOOR
 10
-37.95
 20
-16.8785
 30
8.7999
 70
192
 0
VERTEX
 8
DOOR
 10
-37.95
 20
-16.8785
 30
33.9999
 70
192
 0
VERTEX
 8
DOOR
 10
14.9991
 20
-21.59
 30
33.9999
 70
192
 0
VERTEX
 8
DOOR
 10
14.9991
 20
-21.59
 30
8.7999
 70
192
 0
VERTEX
 8
DOOR
 10
14.9991
 20
-16.8785
 30
33.9999
 70
192
 0
VERTEX
 8
DOOR
 10
14.9991
 20
-16.8785
 30
8.7999
 70
192
 0
VERTEX
 8
DOOR
 10
-31.0182
 20
-21.59
 30
33.9999
 70
192
 0
VERTEX
 8
DOOR
 10
-31.0182
 20
-21.59
 30
8.7999
 70
192
 0
VERTEX
 8
DOOR
 10
-31.0182
 20
-16.8785
 30
33.9999
 70
192
 0
VERTEX
 8
DOOR
 10
-31.0182
 20
-16.8785
 30
8.7999
 70
192
 0
VERTEX
 8
DOOR
 10
-31.0182
 20
-21.59
 30
29.2546
 70
192
 0
VERTEX
 8
DOOR
 10
22.85
 20
-21.59
 30
29.2546
 70
192
 0
VERTEX
 8
DOOR
 10
22.85
 20
-16.8785
 30
29.2546
 70
192
 0
VERTEX
 8
DOOR
 10
14.9991
 20
-16.8785
 30
29.2546
 70
192
 0
VERTEX
 8
DOOR
 10
-37.95
 20
-16.8785
 30
29.2546
 70
192
 0
VERTEX
 8
DOOR
 10
14.9991
 20
-21.59
 30
29.2546
 70
192
 0
VERTEX
 8
DOOR
 10
-31.0182
 20
-16.8785
 30
29.2546
 70
192
 0
VERTEX
 8
DOOR
 10
-31.0182
 20
-21.59
 30
10.68
 70
192
 0
VERTEX
 8
DOOR
 10
22.85
 20
-21.59
 30
10.68
 70
192
 0
VERTEX
 8
DOOR
 10
22.85
 20
-16.8785
 30
10.68
 70
192
 0
VERTEX
 8
DOOR
 10
14.9991
 20
-16.8785
 30
10.68
 70
192
 0
VERTEX
 8
DOOR
 10
-37.95
 20
-16.8785
 30
10.68
 70
192
 0
VERTEX
 8
DOOR
 10
14.9991
 20
-21.59
 30
10.68
 70
192
 0
VERTEX
 8
DOOR
 10
-31.0182
 20
-16.8785
 30
10.68
 70
192
 0
VERTEX
 8
DOOR
 10
-37.95
 20
-19.79
 30
8.7999
 70
192
 0
VERTEX
 8
DOOR
 10
-36.15
 20
-21.59
 30
8.7999
 70
192
 0
VERTEX
 8
DOOR
 10
-36.15
 20
-21.59
 30
10.68
 70
192
 0
VERTEX
 8
DOOR
 10
-37.95
 20
-19.79
 30
33.9999
 70
192
 0
VERTEX
 8
DOOR
 10
-37.95
 20
-19.79
 30
29.2546
 70
192
 0
VERTEX
 8
DOOR
 10
-36.15
 20
-21.59
 30
33.9999
 70
192
 0
VERTEX
 8
DOOR
 10
-37.95
 20
-19.79
 30
10.68
 70
192
 0
VERTEX
 8
DOOR
 10
-36.15
 20
-21.59
 30
29.2546
 70
192
 0
VERTEX
 8
DOOR
 10
-37.8956
 20
-20.2293
 30
10.68
 70
192
 0
VERTEX
 8
DOOR
 10
-37.7201
 20
-20.6703
 30
10.68
 70
192
 0
VERTEX
 8
DOOR
 10
-37.4228
 20
-21.0628
 30
10.68
 70
192
 0
VERTEX
 8
DOOR
 10
-37.0303
 20
-21.3601
 30
10.68
 70
192
 0
VERTEX
 8
DOOR
 10
-36.5893
 20
-21.5356
 30
10.68
 70
192
 0
VERTEX
 8
DOOR
 10
-37.8956
 20
-20.2293
 30
8.7999
 70
192
 0
VERTEX
 8
DOOR
 10
-37.7201
 20
-20.6703
 30
8.7999
 70
192
 0
VERTEX
 8
DOOR
 10
-37.4228
 20
-21.0628
 30
8.7999
 70
192
 0
VERTEX
 8
DOOR
 10
-37.0303
 20
-21.3601
 30
8.7999
 70
192
 0
VERTEX
 8
DOOR
 10
-36.5893
 20
-21.5356
 30
8.7999
 70
192
 0
VERTEX
 8
DOOR
 10
-37.8956
 20
-20.2293
 30
33.9999
 70
192
 0
VERTEX
 8
DOOR
 10
-37.7201
 20
-20.6703
 30
33.9999
 70
192
 0
VERTEX
 8
DOOR
 10
-37.4228
 20
-21.0628
 30
33.9999
 70
192
 0
VERTEX
 8
DOOR
 10
-37.0303
 20
-21.3601
 30
33.9999
 70
192
 0
VERTEX
 8
DOOR
 10
-36.5893
 20
-21.5356
 30
33.9999
 70
192
 0
VERTEX
 8
DOOR
 10
-37.8956
 20
-20.2293
 30
29.2546
 70
192
 0
VERTEX
 8
DOOR
 10
-37.7201
 20
-20.6703
 30
29.2546
 70
192
 0
VERTEX
 8
DOOR
 10
-37.4228
 20
-21.0628
 30
29.2546
 70
192
 0
VERTEX
 8
DOOR
 10
-37.0303
 20
-21.3601
 30
29.2546
 70
192
 0
VERTEX
 8
DOOR
 10
-36.5893
 20
-21.5356
 30
29.2546
 70
192
 0
VERTEX
 8
DOOR
 10
0
 20
0
 30
0
 70
128
 71
30
 72
31
 73
22
 74
12
 0
VERTEX
 8
DOOR
 10
0
 20
0
 30
0
 70
128
 71
1
 72
23
 73
24
 74
3
 0
VERTEX
 8
DOOR
 10
0
 20
0
 30
0
 70
128
 71
3
 72
24
 73
25
 74
10
 0
VERTEX
 8
DOOR
 10
0
 20
0
 30
0
 70
128
 71
5
 72
26
 73
35
 74
29
 0
VERTEX
 8
DOOR
 10
0
 20
0
 30
0
 70
128
 71
34
 72
51
 73
50
 74
50
 0
VERTEX
 8
DOOR
 10
0
 20
0
 30
0
 70
128
 71
42
 72
43
 73
46
 74
30
 0
VERTEX
 8
DOOR
 10
0
 20
0
 30
0
 70
128
 71
7
 72
2
 73
16
 74
20
 0
VERTEX
 8
DOOR
 10
0
 20
0
 30
0
 70
128
 71
9
 72
13
 73
21
 74
18
 0
VERTEX
 8
DOOR
 10
0
 20
0
 30
0
 70
128
 71
9
 72
4
 73
2
 74
7
 0
VERTEX
 8
DOOR
 10
0
 20
0
 30
0
 70
128
 71
8
 72
1
 73
3
 74
10
 0
VERTEX
 8
DOOR
 10
0
 20
0
 30
0
 70
128
 71
11
 72
7
 73
20
 74
15
 0
VERTEX
 8
DOOR
 10
0
 20
0
 30
0
 70
128
 71
13
 72
9
 73
7
 74
11
 0
VERTEX
 8
DOOR
 10
0
 20
0
 30
0
 70
128
 71
12
 72
8
 73
10
 74
14
 0
VERTEX
 8
DOOR
 10
0
 20
0
 30
0
 70
128
 71
13
 72
6
 73
19
 74
21
 0
VERTEX
 8
DOOR
 10
0
 20
0
 30
0
 70
128
 71
36
 72
34
 73
11
 74
15
 0
VERTEX
 8
DOOR
 10
0
 20
0
 30
0
 70
128
 71
16
 72
2
 73
4
 74
17
 0
VERTEX
 8
DOOR
 10
0
 20
0
 30
0
 70
128
 71
17
 72
4
 73
9
 74
18
 0
VERTEX
 8
DOOR
 10
0
 20
0
 30
0
 70
128
 71
19
 72
6
 73
32
 74
33
 0
VERTEX
 8
DOOR
 10
0
 20
0
 30
0
 70
128
 71
16
 72
23
 73
27
 74
20
 0
VERTEX
 8
DOOR
 10
0
 20
0
 30
0
 70
128
 71
26
 72
5
 73
14
 74
28
 0
VERTEX
 8
DOOR
 10
0
 20
0
 30
0
 70
128
 71
27
 72
8
 73
12
 74
22
 0
VERTEX
 8
DOOR
 10
0
 20
0
 30
0
 70
128
 71
19
 72
26
 73
28
 74
21
 0
VERTEX
 8
DOOR
 10
0
 20
0
 30
0
 70
128
 71
31
 72
36
 73
15
 74
22
 0
VERTEX
 8
DOOR
 10
0
 20
0
 30
0
 70
128
 71
23
 72
16
 73
17
 74
24
 0
VERTEX
 8
DOOR
 10
0
 20
0
 30
0
 70
128
 71
24
 72
17
 73
18
 74
25
 0
VERTEX
 8
DOOR
 10
0
 20
0
 30
0
 70
128
 71
26
 72
19
 73
33
 74
35
 0
VERTEX
 8
DOOR
 10
0
 20
0
 30
0
 70
128
 71
23
 72
1
 73
8
 74
27
 0
VERTEX
 8
DOOR
 10
0
 20
0
 30
0
 70
128
 71
28
 72
14
 73
10
 74
25
 0
VERTEX
 8
DOOR
 10
0
 20
0
 30
0
 70
128
 71
27
 72
22
 73
28
 74
25
 0
VERTEX
 8
DOOR
 10
0
 20
0
 30
0
 70
128
 71
22
 72
15
 73
21
 74
28
 0
VERTEX
 8
DOOR
 10
0
 20
0
 30
0
 70
128
 71
20
 72
27
 73
25
 74
18
 0
VERTEX
 8
DOOR
 10
0
 20
0
 30
0
 70
128
 71
18
 72
21
 73
15
 74
20
 0
VERTEX
 8
DOOR
 10
0
 20
0
 30
0
 70
128
 71
34
 72
6
 73
13
 74
11
 0
VERTEX
 8
DOOR
 10
0
 20
0
 30
0
 70
128
 71
50
 72
49
 73
48
 74
48
 0
VERTEX
 8
DOOR
 10
0
 20
0
 30
0
 70
128
 71
47
 72
34
 73
50
 74
48
 0
VERTEX
 8
DOOR
 10
0
 20
0
 30
0
 70
128
 71
34
 72
47
 73
32
 74
6
 0
VERTEX
 8
DOOR
 10
0
 20
0
 30
0
 70
128
 71
46
 72
43
 73
44
 74
45
 0
VERTEX
 8
DOOR
 10
0
 20
0
 30
0
 70
128
 71
30
 72
5
 73
29
 74
42
 0
VERTEX
 8
DOOR
 10
0
 20
0
 30
0
 70
128
 71
14
 72
5
 73
30
 74
12
 0
VERTEX
 8
DOOR
 10
0
 20
0
 30
0
 70
128
 71
30
 72
46
 73
41
 74
31
 0
VERTEX
 8
DOOR
 10
0
 20
0
 30
0
 70
128
 71
36
 72
56
 73
51
 74
34
 0
VERTEX
 8
DOOR
 10
0
 20
0
 30
0
 70
128
 71
31
 72
41
 73
56
 74
36
 0
VERTEX
 8
DOOR
 10
0
 20
0
 30
0
 70
128
 71
46
 72
45
 73
40
 74
41
 0
VERTEX
 8
DOOR
 10
0
 20
0
 30
0
 70
128
 71
45
 72
44
 73
39
 74
40
 0
VERTEX
 8
DOOR
 10
0
 20
0
 30
0
 70
128
 71
44
 72
43
 73
38
 74
39
 0
VERTEX
 8
DOOR
 10
0
 20
0
 30
0
 70
128
 71
43
 72
42
 73
37
 74
38
 0
VERTEX
 8
DOOR
 10
0
 20
0
 30
0
 70
128
 71
42
 72
29
 73
35
 74
37
 0
VERTEX
 8
DOOR
 10
0
 20
0
 30
0
 70
128
 71
56
 72
55
 73
50
 74
51
 0
VERTEX
 8
DOOR
 10
0
 20
0
 30
0
 70
128
 71
55
 72
54
 73
49
 74
50
 0
VERTEX
 8
DOOR
 10
0
 20
0
 30
0
 70
128
 71
54
 72
53
 73
48
 74
49
 0
VERTEX
 8
DOOR
 10
0
 20
0
 30
0
 70
128
 71
53
 72
52
 73
47
 74
48
 0
VERTEX
 8
DOOR
 10
0
 20
0
 30
0
 70
128
 71
52
 72
33
 73
32
 74
47
 0
VERTEX
 8
DOOR
 10
0
 20
0
 30
0
 70
128
 71
41
 72
40
 73
55
 74
56
 0
VERTEX
 8
DOOR
 10
0
 20
0
 30
0
 70
128
 71
40
 72
39
 73
54
 74
55
 0
VERTEX
 8
DOOR
 10
0
 20
0
 30
0
 70
128
 71
39
 72
38
 73
53
 74
54
 0
VERTEX
 8
DOOR
 10
0
 20
0
 30
0
 70
128
 71
38
 72
37
 73
52
 74
53
 0
VERTEX
 8
DOOR
 10
0
 20
0
 30
0
 70
128
 71
37
 72
35
 73
33
 74
52
 0
SEQEND
 0
POLYLINE
 8
GLASS
 66
1
 10
0.0
 20
0.0
 30
0.0
 70
64
 71
8
 72
6
 0
VERTEX
 8
GLASS
 10
-31.0182
 20
-16.8785
 30
10.68
 70
192
 0
VERTEX
 8
GLASS
 10
14.9991
 20
-21.59
 30
10.68
 70
192
 0
VERTEX
 8
GLASS
 10
14.9991
 20
-16.8785
 30
10.68
 70
192
 0
VERTEX
 8
GLASS
 10
-31.0182
 20
-21.59
 30
10.68
 70
192
 0
VERTEX
 8
GLASS
 10
-31.0182
 20
-16.8785
 30
29.2546
 70
192
 0
VERTEX
 8
GLASS
 10
14.9991
 20
-21.59
 30
29.2546
 70
192
 0
VERTEX
 8
GLASS
 10
14.9991
 20
-16.8785
 30
29.2546
 70
192
 0
VERTEX
 8
GLASS
 10
-31.0182
 20
-21.59
 30
29.2546
 70
192
 0
VERTEX
 8
GLASS
 10
0
 20
0
 30
0
 70
128
 71
6
 72
2
 73
4
 74
8
 0
VERTEX
 8
GLASS
 10
0
 20
0
 30
0
 70
128
 71
5
 72
1
 73
3
 74
7
 0
VERTEX
 8
GLASS
 10
0
 20
0
 30
0
 70
128
 71
5
 72
7
 73
6
 74
8
 0
VERTEX
 8
GLASS
 10
0
 20
0
 30
0
 70
128
 71
8
 72
4
 73
1
 74
5
 0
VERTEX
 8
GLASS
 10
0
 20
0
 30
0
 70
128
 71
7
 72
3
 73
2
 74
6
 0
VERTEX
 8
GLASS
 10
0
 20
0
 30
0
 70
128
 71
3
 72
1
 73
4
 74
2
 0
SEQEND
 0
POLYLINE
 8
STEEL
 66
1
 10
0.0
 20
0.0
 30
0.0
 70
64
 71
192
 72
197
 0
VERTEX
 8
STEEL
 10
23.05
 20
-21.59
 30
1.9999
 70
192
 0
VERTEX
 8
STEEL
 10
23.05
 20
-21.59
 30
8.8
 70
192
 0
VERTEX
 8
STEEL
 10
37.9501
 20
-16.8785
 30
1.9999
 70
192
 0
VERTEX
 8
STEEL
 10
37.9501
 20
-16.8785
 30
8.8
 70
192
 0
VERTEX
 8
STEEL
 10
23.05
 20
-16.8785
 30
1.9999
 70
192
 0
VERTEX
 8
STEEL
 10
23.05
 20
-16.8785
 30
8.8
 70
192
 0
VERTEX
 8
STEEL
 10
23.05
 20
-21.59
 30
7.7494
 70
192
 0
VERTEX
 8
STEEL
 10
37.9501
 20
-16.8785
 30
7.7494
 70
192
 0
VERTEX
 8
STEEL
 10
23.05
 20
-16.8785
 30
7.7494
 70
192
 0
VERTEX
 8
STEEL
 10
23.05
 20
-21.59
 30
3.2361
 70
192
 0
VERTEX
 8
STEEL
 10
37.9501
 20
-16.8785
 30
3.2361
 70
192
 0
VERTEX
 8
STEEL
 10
23.05
 20
-16.8785
 30
3.2361
 70
192
 0
VERTEX
 8
STEEL
 10
37.9501
 20
-19.79
 30
1.9999
 70
192
 0
VERTEX
 8
STEEL
 10
37.9501
 20
-19.79
 30
3.2361
 70
192
 0
VERTEX
 8
STEEL
 10
36.1501
 20
-21.59
 30
1.9999
 70
192
 0
VERTEX
 8
STEEL
 10
37.9501
 20
-19.79
 30
8.8
 70
192
 0
VERTEX
 8
STEEL
 10
36.1501
 20
-21.59
 30
8.8
 70
192
 0
VERTEX
 8
STEEL
 10
36.1501
 20
-21.59
 30
7.7494
 70
192
 0
VERTEX
 8
STEEL
 10
37.9501
 20
-19.79
 30
7.7494
 70
192
 0
VERTEX
 8
STEEL
 10
36.1501
 20
-21.59
 30
3.2361
 70
192
 0
VERTEX
 8
STEEL
 10
37.8957
 20
-20.2293
 30
1.9999
 70
192
 0
VERTEX
 8
STEEL
 10
37.7202
 20
-20.6703
 30
1.9999
 70
192
 0
VERTEX
 8
STEEL
 10
37.4229
 20
-21.0628
 30
1.9999
 70
192
 0
VERTEX
 8
STEEL
 10
37.0304
 20
-21.3601
 30
1.9999
 70
192
 0
VERTEX
 8
STEEL
 10
36.5894
 20
-21.5356
 30
1.9999
 70
192
 0
VERTEX
 8
STEEL
 10
37.8957
 20
-20.2293
 30
3.2361
 70
192
 0
VERTEX
 8
STEEL
 10
37.7202
 20
-20.6703
 30
3.2361
 70
192
 0
VERTEX
 8
STEEL
 10
37.4229
 20
-21.0628
 30
3.2361
 70
192
 0
VERTEX
 8
STEEL
 10
37.0304
 20
-21.3601
 30
3.2361
 70
192
 0
VERTEX
 8
STEEL
 10
36.5894
 20
-21.5356
 30
3.2361
 70
192
 0
VERTEX
 8
STEEL
 10
37.8957
 20
-20.2293
 30
7.7494
 70
192
 0
VERTEX
 8
STEEL
 10
37.7202
 20
-20.6703
 30
7.7494
 70
192
 0
VERTEX
 8
STEEL
 10
37.4229
 20
-21.0628
 30
7.7494
 70
192
 0
VERTEX
 8
STEEL
 10
37.0304
 20
-21.3601
 30
7.7494
 70
192
 0
VERTEX
 8
STEEL
 10
36.5894
 20
-21.5356
 30
7.7494
 70
192
 0
VERTEX
 8
STEEL
 10
37.8957
 20
-20.2293
 30
8.8
 70
192
 0
VERTEX
 8
STEEL
 10
37.7202
 20
-20.6703
 30
8.8
 70
192
 0
VERTEX
 8
STEEL
 10
37.4229
 20
-21.0628
 30
8.8
 70
192
 0
VERTEX
 8
STEEL
 10
37.0304
 20
-21.3601
 30
8.8
 70
192
 0
VERTEX
 8
STEEL
 10
36.5894
 20
-21.5356
 30
8.8
 70
192
 0
VERTEX
 8
STEEL
 10
35.3872
 20
-21.59
 30
3.2361
 70
192
 0
VERTEX
 8
STEEL
 10
35.7372
 20
-21.59
 30
1.9999
 70
192
 0
VERTEX
 8
STEEL
 10
35.7372
 20
-16.8785
 30
3.2361
 70
192
 0
VERTEX
 8
STEEL
 10
35.7372
 20
-16.8785
 30
1.9999
 70
192
 0
VERTEX
 8
STEEL
 10
35.7372
 20
-21.59
 30
8.8
 70
192
 0
VERTEX
 8
STEEL
 10
35.7372
 20
-16.8785
 30
8.8
 70
192
 0
VERTEX
 8
STEEL
 10
36.0872
 20
-21.59
 30
3.2361
 70
192
 0
VERTEX
 8
STEEL
 10
35.7372
 20
-16.8785
 30
7.7494
 70
192
 0
VERTEX
 8
STEEL
 10
35.7372
 20
-21.59
 30
2.8861
 70
192
 0
VERTEX
 8
STEEL
 10
35.7372
 20
-21.59
 30
3.5861
 70
192
 0
VERTEX
 8
STEEL
 10
35.7372
 20
-21.59
 30
7.3994
 70
192
 0
VERTEX
 8
STEEL
 10
35.3872
 20
-21.59
 30
7.7494
 70
192
 0
VERTEX
 8
STEEL
 10
36.0872
 20
-21.59
 30
7.7494
 70
192
 0
VERTEX
 8
STEEL
 10
35.7372
 20
-21.59
 30
8.0994
 70
192
 0
VERTEX
 8
STEEL
 10
35.7372
 20
-21.59
 30
3.2361
 70
192
 0
VERTEX
 8
STEEL
 10
35.7372
 20
-21.59
 30
7.7494
 70
192
 0
VERTEX
 8
STEEL
 10
35.8397
 20
-21.59
 30
3.3387
 70
192
 0
VERTEX
 8
STEEL
 10
35.8397
 20
-21.59
 30
3.1336
 70
192
 0
VERTEX
 8
STEEL
 10
35.6347
 20
-21.59
 30
3.1336
 70
192
 0
VERTEX
 8
STEEL
 10
35.6347
 20
-21.59
 30
3.3387
 70
192
 0
VERTEX
 8
STEEL
 10
35.7713
 20
-21.59
 30
3.2703
 70
192
 0
VERTEX
 8
STEEL
 10
35.8055
 20
-21.59
 30
3.3045
 70
192
 0
VERTEX
 8
STEEL
 10
35.9117
 20
-21.59
 30
3.2833
 70
192
 0
VERTEX
 8
STEEL
 10
35.9971
 20
-21.59
 30
3.2479
 70
192
 0
VERTEX
 8
STEEL
 10
35.9971
 20
-21.59
 30
3.2244
 70
192
 0
VERTEX
 8
STEEL
 10
35.9117
 20
-21.59
 30
3.189
 70
192
 0
VERTEX
 8
STEEL
 10
35.8055
 20
-21.59
 30
3.1678
 70
192
 0
VERTEX
 8
STEEL
 10
35.7713
 20
-21.59
 30
3.202
 70
192
 0
VERTEX
 8
STEEL
 10
35.7843
 20
-21.59
 30
3.0616
 70
192
 0
VERTEX
 8
STEEL
 10
35.749
 20
-21.59
 30
2.9762
 70
192
 0
VERTEX
 8
STEEL
 10
35.7254
 20
-21.59
 30
2.9762
 70
192
 0
VERTEX
 8
STEEL
 10
35.69
 20
-21.59
 30
3.0616
 70
192
 0
VERTEX
 8
STEEL
 10
35.6688
 20
-21.59
 30
3.1678
 70
192
 0
VERTEX
 8
STEEL
 10
35.703
 20
-21.59
 30
3.202
 70
192
 0
VERTEX
 8
STEEL
 10
35.5626
 20
-21.59
 30
3.189
 70
192
 0
VERTEX
 8
STEEL
 10
35.4772
 20
-21.59
 30
3.2244
 70
192
 0
VERTEX
 8
STEEL
 10
35.4772
 20
-21.59
 30
3.2479
 70
192
 0
VERTEX
 8
STEEL
 10
35.5626
 20
-21.59
 30
3.2833
 70
192
 0
VERTEX
 8
STEEL
 10
35.6688
 20
-21.59
 30
3.3045
 70
192
 0
VERTEX
 8
STEEL
 10
35.703
 20
-21.59
 30
3.2703
 70
192
 0
VERTEX
 8
STEEL
 10
35.69
 20
-21.59
 30
3.4107
 70
192
 0
VERTEX
 8
STEEL
 10
35.7254
 20
-21.59
 30
3.4961
 70
192
 0
VERTEX
 8
STEEL
 10
35.749
 20
-21.59
 30
3.4961
 70
192
 0
VERTEX
 8
STEEL
 10
35.7843
 20
-21.59
 30
3.4107
 70
192
 0
VERTEX
 8
STEEL
 10
35.8146
 20
-21.59
 30
3.2361
 70
192
 0
VERTEX
 8
STEEL
 10
35.8624
 20
-21.59
 30
3.2086
 70
192
 0
VERTEX
 8
STEEL
 10
35.8624
 20
-21.59
 30
3.2637
 70
192
 0
VERTEX
 8
STEEL
 10
35.9282
 20
-21.59
 30
3.2361
 70
192
 0
VERTEX
 8
STEEL
 10
35.7372
 20
-21.59
 30
3.1587
 70
192
 0
VERTEX
 8
STEEL
 10
35.7097
 20
-21.59
 30
3.1109
 70
192
 0
VERTEX
 8
STEEL
 10
35.7647
 20
-21.59
 30
3.1109
 70
192
 0
VERTEX
 8
STEEL
 10
35.7372
 20
-21.59
 30
3.0451
 70
192
 0
VERTEX
 8
STEEL
 10
35.6597
 20
-21.59
 30
3.2361
 70
192
 0
VERTEX
 8
STEEL
 10
35.6119
 20
-21.59
 30
3.2637
 70
192
 0
VERTEX
 8
STEEL
 10
35.6119
 20
-21.59
 30
3.2086
 70
192
 0
VERTEX
 8
STEEL
 10
35.5462
 20
-21.59
 30
3.2361
 70
192
 0
VERTEX
 8
STEEL
 10
35.7372
 20
-21.59
 30
3.3136
 70
192
 0
VERTEX
 8
STEEL
 10
35.7647
 20
-21.59
 30
3.3614
 70
192
 0
VERTEX
 8
STEEL
 10
35.7097
 20
-21.59
 30
3.3614
 70
192
 0
VERTEX
 8
STEEL
 10
35.7372
 20
-21.59
 30
3.4272
 70
192
 0
VERTEX
 8
STEEL
 10
35.8397
 20
-21.59
 30
7.852
 70
192
 0
VERTEX
 8
STEEL
 10
35.8397
 20
-21.59
 30
7.6469
 70
192
 0
VERTEX
 8
STEEL
 10
35.6347
 20
-21.59
 30
7.6469
 70
192
 0
VERTEX
 8
STEEL
 10
35.6347
 20
-21.59
 30
7.852
 70
192
 0
VERTEX
 8
STEEL
 10
35.7713
 20
-21.59
 30
7.7836
 70
192
 0
VERTEX
 8
STEEL
 10
35.8055
 20
-21.59
 30
7.8178
 70
192
 0
VERTEX
 8
STEEL
 10
35.9117
 20
-21.59
 30
7.7966
 70
192
 0
VERTEX
 8
STEEL
 10
35.9971
 20
-21.59
 30
7.7612
 70
192
 0
VERTEX
 8
STEEL
 10
35.9971
 20
-21.59
 30
7.7377
 70
192
 0
VERTEX
 8
STEEL
 10
35.9117
 20
-21.59
 30
7.7023
 70
192
 0
VERTEX
 8
STEEL
 10
35.8055
 20
-21.59
 30
7.6811
 70
192
 0
VERTEX
 8
STEEL
 10
35.7713
 20
-21.59
 30
7.7153
 70
192
 0
VERTEX
 8
STEEL
 10
35.7843
 20
-21.59
 30
7.5749
 70
192
 0
VERTEX
 8
STEEL
 10
35.749
 20
-21.59
 30
7.4895
 70
192
 0
VERTEX
 8
STEEL
 10
35.7254
 20
-21.59
 30
7.4895
 70
192
 0
VERTEX
 8
STEEL
 10
35.69
 20
-21.59
 30
7.5749
 70
192
 0
VERTEX
 8
STEEL
 10
35.6688
 20
-21.59
 30
7.6811
 70
192
 0
VERTEX
 8
STEEL
 10
35.703
 20
-21.59
 30
7.7153
 70
192
 0
VERTEX
 8
STEEL
 10
35.5626
 20
-21.59
 30
7.7023
 70
192
 0
VERTEX
 8
STEEL
 10
35.4772
 20
-21.59
 30
7.7377
 70
192
 0
VERTEX
 8
STEEL
 10
35.4772
 20
-21.59
 30
7.7612
 70
192
 0
VERTEX
 8
STEEL
 10
35.5626
 20
-21.59
 30
7.7966
 70
192
 0
VERTEX
 8
STEEL
 10
35.6688
 20
-21.59
 30
7.8178
 70
192
 0
VERTEX
 8
STEEL
 10
35.703
 20
-21.59
 30
7.7836
 70
192
 0
VERTEX
 8
STEEL
 10
35.69
 20
-21.59
 30
7.924
 70
192
 0
VERTEX
 8
STEEL
 10
35.7254
 20
-21.59
 30
8.0094
 70
192
 0
VERTEX
 8
STEEL
 10
35.749
 20
-21.59
 30
8.0094
 70
192
 0
VERTEX
 8
STEEL
 10
35.7843
 20
-21.59
 30
7.924
 70
192
 0
VERTEX
 8
STEEL
 10
35.8146
 20
-21.59
 30
7.7494
 70
192
 0
VERTEX
 8
STEEL
 10
35.8624
 20
-21.59
 30
7.7219
 70
192
 0
VERTEX
 8
STEEL
 10
35.8624
 20
-21.59
 30
7.777
 70
192
 0
VERTEX
 8
STEEL
 10
35.9282
 20
-21.59
 30
7.7494
 70
192
 0
VERTEX
 8
STEEL
 10
35.7372
 20
-21.59
 30
7.672
 70
192
 0
VERTEX
 8
STEEL
 10
35.7097
 20
-21.59
 30
7.6242
 70
192
 0
VERTEX
 8
STEEL
 10
35.7647
 20
-21.59
 30
7.6242
 70
192
 0
VERTEX
 8
STEEL
 10
35.7372
 20
-21.59
 30
7.5584
 70
192
 0
VERTEX
 8
STEEL
 10
35.6597
 20
-21.59
 30
7.7494
 70
192
 0
VERTEX
 8
STEEL
 10
35.6119
 20
-21.59
 30
7.777
 70
192
 0
VERTEX
 8
STEEL
 10
35.6119
 20
-21.59
 30
7.7219
 70
192
 0
VERTEX
 8
STEEL
 10
35.5462
 20
-21.59
 30
7.7494
 70
192
 0
VERTEX
 8
STEEL
 10
35.7372
 20
-21.59
 30
7.8269
 70
192
 0
VERTEX
 8
STEEL
 10
35.7647
 20
-21.59
 30
7.8747
 70
192
 0
VERTEX
 8
STEEL
 10
35.7097
 20
-21.59
 30
7.8747
 70
192
 0
VERTEX
 8
STEEL
 10
35.7372
 20
-21.59
 30
7.9405
 70
192
 0
VERTEX
 8
STEEL
 10
23.0898
 20
-21.59
 30
7.6494
 70
192
 0
VERTEX
 8
STEEL
 10
23.0898
 20
-21.59
 30
3.3361
 70
192
 0
VERTEX
 8
STEEL
 10
35.3807
 20
-21.59
 30
3.3361
 70
192
 0
VERTEX
 8
STEEL
 10
35.6372
 20
-21.59
 30
3.5927
 70
192
 0
VERTEX
 8
STEEL
 10
35.6372
 20
-21.59
 30
7.3929
 70
192
 0
VERTEX
 8
STEEL
 10
35.3807
 20
-21.59
 30
7.6494
 70
192
 0
VERTEX
 8
STEEL
 10
35.5633
 20
-21.59
 30
3.41
 70
192
 0
VERTEX
 8
STEEL
 10
35.4512
 20
-21.59
 30
3.3454
 70
192
 0
VERTEX
 8
STEEL
 10
35.5122
 20
-21.59
 30
3.3706
 70
192
 0
VERTEX
 8
STEEL
 10
35.6027
 20
-21.59
 30
3.4612
 70
192
 0
VERTEX
 8
STEEL
 10
35.6279
 20
-21.59
 30
3.5221
 70
192
 0
VERTEX
 8
STEEL
 10
35.5633
 20
-21.59
 30
7.5756
 70
192
 0
VERTEX
 8
STEEL
 10
35.6279
 20
-21.59
 30
7.4635
 70
192
 0
VERTEX
 8
STEEL
 10
35.6027
 20
-21.59
 30
7.5244
 70
192
 0
VERTEX
 8
STEEL
 10
35.5122
 20
-21.59
 30
7.615
 70
192
 0
VERTEX
 8
STEEL
 10
35.4512
 20
-21.59
 30
7.6402
 70
192
 0
VERTEX
 8
STEEL
 10
23.05
 20
-21.29
 30
7.7494
 70
192
 0
VERTEX
 8
STEEL
 10
23.05
 20
-21.29
 30
3.2361
 70
192
 0
VERTEX
 8
STEEL
 10
35.3872
 20
-21.29
 30
3.2361
 70
192
 0
VERTEX
 8
STEEL
 10
35.7372
 20
-21.29
 30
3.5861
 70
192
 0
VERTEX
 8
STEEL
 10
35.7372
 20
-21.29
 30
7.3994
 70
192
 0
VERTEX
 8
STEEL
 10
35.3872
 20
-21.29
 30
7.7494
 70
192
 0
VERTEX
 8
STEEL
 10
35.6347
 20
-21.29
 30
3.3387
 70
192
 0
VERTEX
 8
STEEL
 10
35.4772
 20
-21.29
 30
3.2479
 70
192
 0
VERTEX
 8
STEEL
 10
35.5626
 20
-21.29
 30
3.2833
 70
192
 0
VERTEX
 8
STEEL
 10
35.69
 20
-21.29
 30
3.4107
 70
192
 0
VERTEX
 8
STEEL
 10
35.7254
 20
-21.29
 30
3.4961
 70
192
 0
VERTEX
 8
STEEL
 10
35.6347
 20
-21.29
 30
7.6469
 70
192
 0
VERTEX
 8
STEEL
 10
35.7254
 20
-21.29
 30
7.4895
 70
192
 0
VERTEX
 8
STEEL
 10
35.69
 20
-21.29
 30
7.5749
 70
192
 0
VERTEX
 8
STEEL
 10
35.5626
 20
-21.29
 30
7.7023
 70
192
 0
VERTEX
 8
STEEL
 10
35.4772
 20
-21.29
 30
7.7377
 70
192
 0
VERTEX
 8
STEEL
 10
23.0898
 20
-21.29
 30
7.6494
 70
192
 0
VERTEX
 8
STEEL
 10
23.0898
 20
-21.29
 30
3.3361
 70
192
 0
VERTEX
 8
STEEL
 10
35.3807
 20
-21.29
 30
3.3361
 70
192
 0
VERTEX
 8
STEEL
 10
35.6372
 20
-21.29
 30
3.5927
 70
192
 0
VERTEX
 8
STEEL
 10
35.6372
 20
-21.29
 30
7.3929
 70
192
 0
VERTEX
 8
STEEL
 10
35.3807
 20
-21.29
 30
7.6494
 70
192
 0
VERTEX
 8
STEEL
 10
35.5633
 20
-21.29
 30
3.41
 70
192
 0
VERTEX
 8
STEEL
 10
35.4512
 20
-21.29
 30
3.3454
 70
192
 0
VERTEX
 8
STEEL
 10
35.5122
 20
-21.29
 30
3.3706
 70
192
 0
VERTEX
 8
STEEL
 10
35.6027
 20
-21.29
 30
3.4612
 70
192
 0
VERTEX
 8
STEEL
 10
35.6279
 20
-21.29
 30
3.5221
 70
192
 0
VERTEX
 8
STEEL
 10
35.5633
 20
-21.29
 30
7.5756
 70
192
 0
VERTEX
 8
STEEL
 10
35.6279
 20
-21.29
 30
7.4635
 70
192
 0
VERTEX
 8
STEEL
 10
35.6027
 20
-21.29
 30
7.5244
 70
192
 0
VERTEX
 8
STEEL
 10
35.5122
 20
-21.29
 30
7.615
 70
192
 0
VERTEX
 8
STEEL
 10
35.4512
 20
-21.29
 30
7.6402
 70
192
 0
VERTEX
 8
STEEL
 10
0
 20
0
 30
0
 70
128
 71
46
 72
4
 73
16
 74
36
 0
VERTEX
 8
STEEL
 10
0
 20
0
 30
0
 70
128
 71
46
 72
36
 73
37
 74
38
 0
VERTEX
 8
STEEL
 10
0
 20
0
 30
0
 70
128
 71
46
 72
38
 73
39
 74
40
 0
VERTEX
 8
STEEL
 10
0
 20
0
 30
0
 70
128
 71
46
 72
40
 73
17
 74
17
 0
VERTEX
 8
STEEL
 10
0
 20
0
 30
0
 70
128
 71
46
 72
17
 73
45
 74
45
 0
VERTEX
 8
STEEL
 10
0
 20
0
 30
0
 70
128
 71
42
 72
15
 73
44
 74
44
 0
VERTEX
 8
STEEL
 10
0
 20
0
 30
0
 70
128
 71
15
 72
25
 73
44
 74
44
 0
VERTEX
 8
STEEL
 10
0
 20
0
 30
0
 70
128
 71
44
 72
25
 73
24
 74
23
 0
VERTEX
 8
STEEL
 10
0
 20
0
 30
0
 70
128
 71
44
 72
23
 73
22
 74
21
 0
VERTEX
 8
STEEL
 10
0
 20
0
 30
0
 70
128
 71
44
 72
21
 73
13
 74
3
 0
VERTEX
 8
STEEL
 10
0
 20
0
 30
0
 70
128
 71
1
 72
10
 73
41
 74
42
 0
VERTEX
 8
STEEL
 10
0
 20
0
 30
0
 70
128
 71
41
 72
76
 73
49
 74
42
 0
VERTEX
 8
STEEL
 10
0
 20
0
 30
0
 70
128
 71
76
 72
75
 73
71
 74
49
 0
VERTEX
 8
STEEL
 10
0
 20
0
 30
0
 70
128
 71
71
 72
75
 73
59
 74
72
 0
VERTEX
 8
STEEL
 10
0
 20
0
 30
0
 70
128
 71
147
 72
146
 73
145
 74
150
 0
VERTEX
 8
STEEL
 10
0
 20
0
 30
0
 70
128
 71
149
 72
150
 73
160
 74
157
 0
VERTEX
 8
STEEL
 10
0
 20
0
 30
0
 70
128
 71
160
 72
159
 73
156
 74
157
 0
VERTEX
 8
STEEL
 10
0
 20
0
 30
0
 70
128
 71
156
 72
158
 73
157
 74
157
 0
VERTEX
 8
STEEL
 10
0
 20
0
 30
0
 70
128
 71
147
 72
150
 73
149
 74
148
 0
VERTEX
 8
STEEL
 10
0
 20
0
 30
0
 70
128
 71
147
 72
148
 73
155
 74
151
 0
VERTEX
 8
STEEL
 10
0
 20
0
 30
0
 70
128
 71
155
 72
154
 73
151
 74
151
 0
VERTEX
 8
STEEL
 10
0
 20
0
 30
0
 70
128
 71
151
 72
153
 73
152
 74
147
 0
VERTEX
 8
STEEL
 10
0
 20
0
 30
0
 70
128
 71
47
 72
20
 73
49
 74
66
 0
VERTEX
 8
STEEL
 10
0
 20
0
 30
0
 70
128
 71
49
 72
20
 73
15
 74
42
 0
VERTEX
 8
STEEL
 10
0
 20
0
 30
0
 70
128
 71
66
 72
49
 73
70
 74
69
 0
VERTEX
 8
STEEL
 10
0
 20
0
 30
0
 70
128
 71
69
 72
58
 73
66
 74
66
 0
VERTEX
 8
STEEL
 10
0
 20
0
 30
0
 70
128
 71
47
 72
66
 73
65
 74
65
 0
VERTEX
 8
STEEL
 10
0
 20
0
 30
0
 70
128
 71
53
 72
18
 73
51
 74
114
 0
VERTEX
 8
STEEL
 10
0
 20
0
 30
0
 70
128
 71
18
 72
20
 73
50
 74
51
 0
VERTEX
 8
STEEL
 10
0
 20
0
 30
0
 70
128
 71
50
 72
20
 73
47
 74
63
 0
VERTEX
 8
STEEL
 10
0
 20
0
 30
0
 70
128
 71
47
 72
64
 73
63
 74
63
 0
VERTEX
 8
STEEL
 10
0
 20
0
 30
0
 70
128
 71
63
 72
57
 73
84
 74
84
 0
VERTEX
 8
STEEL
 10
0
 20
0
 30
0
 70
128
 71
63
 72
84
 73
83
 74
50
 0
VERTEX
 8
STEEL
 10
0
 20
0
 30
0
 70
128
 71
110
 72
53
 73
114
 74
113
 0
VERTEX
 8
STEEL
 10
0
 20
0
 30
0
 70
128
 71
113
 72
102
 73
110
 74
110
 0
VERTEX
 8
STEEL
 10
0
 20
0
 30
0
 70
128
 71
53
 72
110
 73
109
 74
109
 0
VERTEX
 8
STEEL
 10
0
 20
0
 30
0
 70
128
 71
52
 72
7
 73
2
 74
45
 0
VERTEX
 8
STEEL
 10
0
 20
0
 30
0
 70
128
 71
52
 72
45
 73
54
 74
126
 0
VERTEX
 8
STEEL
 10
0
 20
0
 30
0
 70
128
 71
126
 72
125
 73
121
 74
52
 0
VERTEX
 8
STEEL
 10
0
 20
0
 30
0
 70
128
 71
125
 72
104
 73
122
 74
121
 0
VERTEX
 8
STEEL
 10
0
 20
0
 30
0
 70
128
 71
54
 72
45
 73
17
 74
18
 0
VERTEX
 8
STEEL
 10
0
 20
0
 30
0
 70
128
 71
54
 72
18
 73
53
 74
108
 0
VERTEX
 8
STEEL
 10
0
 20
0
 30
0
 70
128
 71
108
 72
107
 73
101
 74
101
 0
VERTEX
 8
STEEL
 10
0
 20
0
 30
0
 70
128
 71
101
 72
128
 73
127
 74
127
 0
VERTEX
 8
STEEL
 10
0
 20
0
 30
0
 70
128
 71
54
 72
108
 73
101
 74
127
 0
VERTEX
 8
STEEL
 10
0
 20
0
 30
0
 70
128
 71
13
 72
14
 73
11
 74
3
 0
VERTEX
 8
STEEL
 10
0
 20
0
 30
0
 70
128
 71
3
 72
11
 73
43
 74
44
 0
VERTEX
 8
STEEL
 10
0
 20
0
 30
0
 70
128
 71
5
 72
12
 73
10
 74
1
 0
VERTEX
 8
STEEL
 10
0
 20
0
 30
0
 70
128
 71
2
 72
6
 73
46
 74
45
 0
VERTEX
 8
STEEL
 10
0
 20
0
 30
0
 70
128
 71
5
 72
1
 73
42
 74
44
 0
VERTEX
 8
STEEL
 10
0
 20
0
 30
0
 70
128
 71
19
 72
16
 73
4
 74
8
 0
VERTEX
 8
STEEL
 10
0
 20
0
 30
0
 70
128
 71
8
 72
4
 73
46
 74
48
 0
VERTEX
 8
STEEL
 10
0
 20
0
 30
0
 70
128
 71
9
 72
6
 73
2
 74
7
 0
VERTEX
 8
STEEL
 10
0
 20
0
 30
0
 70
128
 71
14
 72
19
 73
8
 74
11
 0
VERTEX
 8
STEEL
 10
0
 20
0
 30
0
 70
128
 71
11
 72
8
 73
48
 74
43
 0
VERTEX
 8
STEEL
 10
0
 20
0
 30
0
 70
128
 71
12
 72
9
 73
7
 74
10
 0
VERTEX
 8
STEEL
 10
0
 20
0
 30
0
 70
128
 71
43
 72
12
 73
5
 74
44
 0
VERTEX
 8
STEEL
 10
0
 20
0
 30
0
 70
128
 71
13
 72
21
 73
26
 74
14
 0
VERTEX
 8
STEEL
 10
0
 20
0
 30
0
 70
128
 71
19
 72
31
 73
36
 74
16
 0
VERTEX
 8
STEEL
 10
0
 20
0
 30
0
 70
128
 71
14
 72
26
 73
31
 74
19
 0
VERTEX
 8
STEEL
 10
0
 20
0
 30
0
 70
128
 71
21
 72
22
 73
27
 74
26
 0
VERTEX
 8
STEEL
 10
0
 20
0
 30
0
 70
128
 71
22
 72
23
 73
28
 74
27
 0
VERTEX
 8
STEEL
 10
0
 20
0
 30
0
 70
128
 71
23
 72
24
 73
29
 74
28
 0
VERTEX
 8
STEEL
 10
0
 20
0
 30
0
 70
128
 71
24
 72
25
 73
30
 74
29
 0
VERTEX
 8
STEEL
 10
0
 20
0
 30
0
 70
128
 71
25
 72
15
 73
20
 74
30
 0
VERTEX
 8
STEEL
 10
0
 20
0
 30
0
 70
128
 71
31
 72
32
 73
37
 74
36
 0
VERTEX
 8
STEEL
 10
0
 20
0
 30
0
 70
128
 71
32
 72
33
 73
38
 74
37
 0
VERTEX
 8
STEEL
 10
0
 20
0
 30
0
 70
128
 71
33
 72
34
 73
39
 74
38
 0
VERTEX
 8
STEEL
 10
0
 20
0
 30
0
 70
128
 71
34
 72
35
 73
40
 74
39
 0
VERTEX
 8
STEEL
 10
0
 20
0
 30
0
 70
128
 71
35
 72
18
 73
17
 74
40
 0
VERTEX
 8
STEEL
 10
0
 20
0
 30
0
 70
128
 71
26
 72
27
 73
32
 74
31
 0
VERTEX
 8
STEEL
 10
0
 20
0
 30
0
 70
128
 71
27
 72
28
 73
33
 74
32
 0
VERTEX
 8
STEEL
 10
0
 20
0
 30
0
 70
128
 71
28
 72
29
 73
34
 74
33
 0
VERTEX
 8
STEEL
 10
0
 20
0
 30
0
 70
128
 71
29
 72
30
 73
35
 74
34
 0
VERTEX
 8
STEEL
 10
0
 20
0
 30
0
 70
128
 71
30
 72
20
 73
18
 74
35
 0
VERTEX
 8
STEEL
 10
0
 20
0
 30
0
 70
128
 71
46
 72
6
 73
9
 74
48
 0
VERTEX
 8
STEEL
 10
0
 20
0
 30
0
 70
128
 71
48
 72
9
 73
12
 74
43
 0
VERTEX
 8
STEEL
 10
0
 20
0
 30
0
 70
128
 71
55
 72
61
 73
85
 74
68
 0
VERTEX
 8
STEEL
 10
0
 20
0
 30
0
 70
128
 71
56
 72
105
 73
129
 74
112
 0
VERTEX
 8
STEEL
 10
0
 20
0
 30
0
 70
128
 71
55
 72
68
 73
89
 74
74
 0
VERTEX
 8
STEEL
 10
0
 20
0
 30
0
 70
128
 71
55
 72
74
 73
93
 74
80
 0
VERTEX
 8
STEEL
 10
0
 20
0
 30
0
 70
128
 71
55
 72
80
 73
97
 74
61
 0
VERTEX
 8
STEEL
 10
0
 20
0
 30
0
 70
128
 71
61
 72
62
 73
87
 74
85
 0
VERTEX
 8
STEEL
 10
0
 20
0
 30
0
 70
128
 71
85
 72
86
 73
67
 74
68
 0
VERTEX
 8
STEEL
 10
0
 20
0
 30
0
 70
128
 71
86
 72
66
 73
58
 74
67
 0
VERTEX
 8
STEEL
 10
0
 20
0
 30
0
 70
128
 71
62
 72
57
 73
63
 74
87
 0
VERTEX
 8
STEEL
 10
0
 20
0
 30
0
 70
128
 71
87
 72
88
 73
86
 74
85
 0
VERTEX
 8
STEEL
 10
0
 20
0
 30
0
 70
128
 71
88
 72
65
 73
66
 74
86
 0
VERTEX
 8
STEEL
 10
0
 20
0
 30
0
 70
128
 71
63
 72
64
 73
88
 74
87
 0
VERTEX
 8
STEEL
 10
0
 20
0
 30
0
 70
128
 71
64
 72
47
 73
65
 74
88
 0
VERTEX
 8
STEEL
 10
0
 20
0
 30
0
 70
128
 71
68
 72
67
 73
91
 74
89
 0
VERTEX
 8
STEEL
 10
0
 20
0
 30
0
 70
128
 71
89
 72
90
 73
73
 74
74
 0
VERTEX
 8
STEEL
 10
0
 20
0
 30
0
 70
128
 71
90
 72
72
 73
59
 74
73
 0
VERTEX
 8
STEEL
 10
0
 20
0
 30
0
 70
128
 71
67
 72
58
 73
69
 74
91
 0
VERTEX
 8
STEEL
 10
0
 20
0
 30
0
 70
128
 71
91
 72
92
 73
90
 74
89
 0
VERTEX
 8
STEEL
 10
0
 20
0
 30
0
 70
128
 71
92
 72
71
 73
72
 74
90
 0
VERTEX
 8
STEEL
 10
0
 20
0
 30
0
 70
128
 71
69
 72
70
 73
92
 74
91
 0
VERTEX
 8
STEEL
 10
0
 20
0
 30
0
 70
128
 71
70
 72
49
 73
71
 74
92
 0
VERTEX
 8
STEEL
 10
0
 20
0
 30
0
 70
128
 71
74
 72
73
 73
95
 74
93
 0
VERTEX
 8
STEEL
 10
0
 20
0
 30
0
 70
128
 71
93
 72
94
 73
79
 74
80
 0
VERTEX
 8
STEEL
 10
0
 20
0
 30
0
 70
128
 71
94
 72
78
 73
60
 74
79
 0
VERTEX
 8
STEEL
 10
0
 20
0
 30
0
 70
128
 71
73
 72
59
 73
75
 74
95
 0
VERTEX
 8
STEEL
 10
0
 20
0
 30
0
 70
128
 71
95
 72
96
 73
94
 74
93
 0
VERTEX
 8
STEEL
 10
0
 20
0
 30
0
 70
128
 71
96
 72
77
 73
78
 74
94
 0
VERTEX
 8
STEEL
 10
0
 20
0
 30
0
 70
128
 71
75
 72
76
 73
96
 74
95
 0
VERTEX
 8
STEEL
 10
0
 20
0
 30
0
 70
128
 71
76
 72
41
 73
77
 74
96
 0
VERTEX
 8
STEEL
 10
0
 20
0
 30
0
 70
128
 71
80
 72
79
 73
99
 74
97
 0
VERTEX
 8
STEEL
 10
0
 20
0
 30
0
 70
128
 71
97
 72
98
 73
62
 74
61
 0
VERTEX
 8
STEEL
 10
0
 20
0
 30
0
 70
128
 71
98
 72
84
 73
57
 74
62
 0
VERTEX
 8
STEEL
 10
0
 20
0
 30
0
 70
128
 71
79
 72
60
 73
81
 74
99
 0
VERTEX
 8
STEEL
 10
0
 20
0
 30
0
 70
128
 71
99
 72
100
 73
98
 74
97
 0
VERTEX
 8
STEEL
 10
0
 20
0
 30
0
 70
128
 71
100
 72
83
 73
84
 74
98
 0
VERTEX
 8
STEEL
 10
0
 20
0
 30
0
 70
128
 71
81
 72
82
 73
100
 74
99
 0
VERTEX
 8
STEEL
 10
0
 20
0
 30
0
 70
128
 71
82
 72
50
 73
83
 74
100
 0
VERTEX
 8
STEEL
 10
0
 20
0
 30
0
 70
128
 71
56
 72
112
 73
133
 74
118
 0
VERTEX
 8
STEEL
 10
0
 20
0
 30
0
 70
128
 71
56
 72
118
 73
137
 74
124
 0
VERTEX
 8
STEEL
 10
0
 20
0
 30
0
 70
128
 71
56
 72
124
 73
141
 74
105
 0
VERTEX
 8
STEEL
 10
0
 20
0
 30
0
 70
128
 71
105
 72
106
 73
131
 74
129
 0
VERTEX
 8
STEEL
 10
0
 20
0
 30
0
 70
128
 71
129
 72
130
 73
111
 74
112
 0
VERTEX
 8
STEEL
 10
0
 20
0
 30
0
 70
128
 71
130
 72
110
 73
102
 74
111
 0
VERTEX
 8
STEEL
 10
0
 20
0
 30
0
 70
128
 71
106
 72
101
 73
107
 74
131
 0
VERTEX
 8
STEEL
 10
0
 20
0
 30
0
 70
128
 71
131
 72
132
 73
130
 74
129
 0
VERTEX
 8
STEEL
 10
0
 20
0
 30
0
 70
128
 71
132
 72
109
 73
110
 74
130
 0
VERTEX
 8
STEEL
 10
0
 20
0
 30
0
 70
128
 71
107
 72
108
 73
132
 74
131
 0
VERTEX
 8
STEEL
 10
0
 20
0
 30
0
 70
128
 71
108
 72
53
 73
109
 74
132
 0
VERTEX
 8
STEEL
 10
0
 20
0
 30
0
 70
128
 71
112
 72
111
 73
135
 74
133
 0
VERTEX
 8
STEEL
 10
0
 20
0
 30
0
 70
128
 71
133
 72
134
 73
117
 74
118
 0
VERTEX
 8
STEEL
 10
0
 20
0
 30
0
 70
128
 71
134
 72
116
 73
103
 74
117
 0
VERTEX
 8
STEEL
 10
0
 20
0
 30
0
 70
128
 71
111
 72
102
 73
113
 74
135
 0
VERTEX
 8
STEEL
 10
0
 20
0
 30
0
 70
128
 71
135
 72
136
 73
134
 74
133
 0
VERTEX
 8
STEEL
 10
0
 20
0
 30
0
 70
128
 71
136
 72
115
 73
116
 74
134
 0
VERTEX
 8
STEEL
 10
0
 20
0
 30
0
 70
128
 71
113
 72
114
 73
136
 74
135
 0
VERTEX
 8
STEEL
 10
0
 20
0
 30
0
 70
128
 71
114
 72
51
 73
115
 74
136
 0
VERTEX
 8
STEEL
 10
0
 20
0
 30
0
 70
128
 71
118
 72
117
 73
139
 74
137
 0
VERTEX
 8
STEEL
 10
0
 20
0
 30
0
 70
128
 71
137
 72
138
 73
123
 74
124
 0
VERTEX
 8
STEEL
 10
0
 20
0
 30
0
 70
128
 71
138
 72
122
 73
104
 74
123
 0
VERTEX
 8
STEEL
 10
0
 20
0
 30
0
 70
128
 71
117
 72
103
 73
119
 74
139
 0
VERTEX
 8
STEEL
 10
0
 20
0
 30
0
 70
128
 71
139
 72
140
 73
138
 74
137
 0
VERTEX
 8
STEEL
 10
0
 20
0
 30
0
 70
128
 71
140
 72
121
 73
122
 74
138
 0
VERTEX
 8
STEEL
 10
0
 20
0
 30
0
 70
128
 71
119
 72
120
 73
140
 74
139
 0
VERTEX
 8
STEEL
 10
0
 20
0
 30
0
 70
128
 71
120
 72
52
 73
121
 74
140
 0
VERTEX
 8
STEEL
 10
0
 20
0
 30
0
 70
128
 71
124
 72
123
 73
143
 74
141
 0
VERTEX
 8
STEEL
 10
0
 20
0
 30
0
 70
128
 71
141
 72
142
 73
106
 74
105
 0
VERTEX
 8
STEEL
 10
0
 20
0
 30
0
 70
128
 71
142
 72
128
 73
101
 74
106
 0
VERTEX
 8
STEEL
 10
0
 20
0
 30
0
 70
128
 71
123
 72
104
 73
125
 74
143
 0
VERTEX
 8
STEEL
 10
0
 20
0
 30
0
 70
128
 71
143
 72
144
 73
142
 74
141
 0
VERTEX
 8
STEEL
 10
0
 20
0
 30
0
 70
128
 71
144
 72
127
 73
128
 74
142
 0
VERTEX
 8
STEEL
 10
0
 20
0
 30
0
 70
128
 71
125
 72
126
 73
144
 74
143
 0
VERTEX
 8
STEEL
 10
0
 20
0
 30
0
 70
128
 71
126
 72
54
 73
127
 74
144
 0
VERTEX
 8
STEEL
 10
0
 20
0
 30
0
 70
128
 71
178
 72
162
 73
161
 74
177
 0
VERTEX
 8
STEEL
 10
0
 20
0
 30
0
 70
128
 71
177
 72
161
 73
166
 74
182
 0
VERTEX
 8
STEEL
 10
0
 20
0
 30
0
 70
128
 71
182
 72
166
 73
176
 74
192
 0
VERTEX
 8
STEEL
 10
0
 20
0
 30
0
 70
128
 71
192
 72
176
 73
175
 74
191
 0
VERTEX
 8
STEEL
 10
0
 20
0
 30
0
 70
128
 71
191
 72
175
 73
172
 74
188
 0
VERTEX
 8
STEEL
 10
0
 20
0
 30
0
 70
128
 71
188
 72
172
 73
174
 74
190
 0
VERTEX
 8
STEEL
 10
0
 20
0
 30
0
 70
128
 71
190
 72
174
 73
173
 74
189
 0
VERTEX
 8
STEEL
 10
0
 20
0
 30
0
 70
128
 71
189
 72
173
 73
165
 74
181
 0
VERTEX
 8
STEEL
 10
0
 20
0
 30
0
 70
128
 71
181
 72
165
 73
164
 74
180
 0
VERTEX
 8
STEEL
 10
0
 20
0
 30
0
 70
128
 71
180
 72
164
 73
171
 74
187
 0
VERTEX
 8
STEEL
 10
0
 20
0
 30
0
 70
128
 71
187
 72
171
 73
170
 74
186
 0
VERTEX
 8
STEEL
 10
0
 20
0
 30
0
 70
128
 71
186
 72
170
 73
167
 74
183
 0
VERTEX
 8
STEEL
 10
0
 20
0
 30
0
 70
128
 71
183
 72
167
 73
169
 74
185
 0
VERTEX
 8
STEEL
 10
0
 20
0
 30
0
 70
128
 71
185
 72
169
 73
168
 74
184
 0
VERTEX
 8
STEEL
 10
0
 20
0
 30
0
 70
128
 71
184
 72
168
 73
163
 74
179
 0
VERTEX
 8
STEEL
 10
0
 20
0
 30
0
 70
128
 71
179
 72
163
 73
162
 74
178
 0
VERTEX
 8
STEEL
 10
0
 20
0
 30
0
 70
128
 71
162
 72
10
 73
7
 74
161
 0
VERTEX
 8
STEEL
 10
0
 20
0
 30
0
 70
128
 71
177
 72
145
 73
146
 74
178
 0
VERTEX
 8
STEEL
 10
0
 20
0
 30
0
 70
128
 71
161
 72
7
 73
52
 74
166
 0
VERTEX
 8
STEEL
 10
0
 20
0
 30
0
 70
128
 71
182
 72
150
 73
145
 74
177
 0
VERTEX
 8
STEEL
 10
0
 20
0
 30
0
 70
128
 71
166
 72
52
 73
120
 74
176
 0
VERTEX
 8
STEEL
 10
0
 20
0
 30
0
 70
128
 71
192
 72
160
 73
150
 74
182
 0
VERTEX
 8
STEEL
 10
0
 20
0
 30
0
 70
128
 71
176
 72
120
 73
119
 74
175
 0
VERTEX
 8
STEEL
 10
0
 20
0
 30
0
 70
128
 71
191
 72
159
 73
160
 74
192
 0
VERTEX
 8
STEEL
 10
0
 20
0
 30
0
 70
128
 71
175
 72
119
 73
103
 74
172
 0
VERTEX
 8
STEEL
 10
0
 20
0
 30
0
 70
128
 71
188
 72
156
 73
159
 74
191
 0
VERTEX
 8
STEEL
 10
0
 20
0
 30
0
 70
128
 71
172
 72
103
 73
116
 74
174
 0
VERTEX
 8
STEEL
 10
0
 20
0
 30
0
 70
128
 71
190
 72
158
 73
156
 74
188
 0
VERTEX
 8
STEEL
 10
0
 20
0
 30
0
 70
128
 71
174
 72
116
 73
115
 74
173
 0
VERTEX
 8
STEEL
 10
0
 20
0
 30
0
 70
128
 71
189
 72
157
 73
158
 74
190
 0
VERTEX
 8
STEEL
 10
0
 20
0
 30
0
 70
128
 71
173
 72
115
 73
51
 74
165
 0
VERTEX
 8
STEEL
 10
0
 20
0
 30
0
 70
128
 71
181
 72
149
 73
157
 74
189
 0
VERTEX
 8
STEEL
 10
0
 20
0
 30
0
 70
128
 71
165
 72
51
 73
50
 74
164
 0
VERTEX
 8
STEEL
 10
0
 20
0
 30
0
 70
128
 71
180
 72
148
 73
149
 74
181
 0
VERTEX
 8
STEEL
 10
0
 20
0
 30
0
 70
128
 71
164
 72
50
 73
82
 74
171
 0
VERTEX
 8
STEEL
 10
0
 20
0
 30
0
 70
128
 71
187
 72
155
 73
148
 74
180
 0
VERTEX
 8
STEEL
 10
0
 20
0
 30
0
 70
128
 71
171
 72
82
 73
81
 74
170
 0
VERTEX
 8
STEEL
 10
0
 20
0
 30
0
 70
128
 71
186
 72
154
 73
155
 74
187
 0
VERTEX
 8
STEEL
 10
0
 20
0
 30
0
 70
128
 71
170
 72
81
 73
60
 74
167
 0
VERTEX
 8
STEEL
 10
0
 20
0
 30
0
 70
128
 71
183
 72
151
 73
154
 74
186
 0
VERTEX
 8
STEEL
 10
0
 20
0
 30
0
 70
128
 71
167
 72
60
 73
78
 74
169
 0
VERTEX
 8
STEEL
 10
0
 20
0
 30
0
 70
128
 71
185
 72
153
 73
151
 74
183
 0
VERTEX
 8
STEEL
 10
0
 20
0
 30
0
 70
128
 71
169
 72
78
 73
77
 74
168
 0
VERTEX
 8
STEEL
 10
0
 20
0
 30
0
 70
128
 71
184
 72
152
 73
153
 74
185
 0
VERTEX
 8
STEEL
 10
0
 20
0
 30
0
 70
128
 71
168
 72
77
 73
41
 74
163
 0
VERTEX
 8
STEEL
 10
0
 20
0
 30
0
 70
128
 71
179
 72
147
 73
152
 74
184
 0
VERTEX
 8
STEEL
 10
0
 20
0
 30
0
 70
128
 71
163
 72
41
 73
10
 74
162
 0
VERTEX
 8
STEEL
 10
0
 20
0
 30
0
 70
128
 71
178
 72
146
 73
147
 74
179
 0
SEQEND
 0
POLYLINE
 8
STEEL_1
 66
1
 10
0.0
 20
0.0
 30
0.0
 70
64
 71
20
 72
19
 0
VERTEX
 8
STEEL_1
 10
22.85
 20
-21.59
 30
1.9999
 70
192
 0
VERTEX
 8
STEEL_1
 10
22.85
 20
-21.59
 30
8.8
 70
192
 0
VERTEX
 8
STEEL_1
 10
22.85
 20
-16.8785
 30
1.9999
 70
192
 0
VERTEX
 8
STEEL_1
 10
22.85
 20
-16.8785
 30
8.8
 70
192
 0
VERTEX
 8
STEEL_1
 10
-37.95
 20
-16.8785
 30
1.9999
 70
192
 0
VERTEX
 8
STEEL_1
 10
-37.95
 20
-16.8785
 30
8.8
 70
192
 0
VERTEX
 8
STEEL_1
 10
-37.95
 20
-19.79
 30
8.8
 70
192
 0
VERTEX
 8
STEEL_1
 10
-37.95
 20
-19.79
 30
1.9999
 70
192
 0
VERTEX
 8
STEEL_1
 10
-36.15
 20
-21.59
 30
1.9999
 70
192
 0
VERTEX
 8
STEEL_1
 10
-36.15
 20
-21.59
 30
8.8
 70
192
 0
VERTEX
 8
STEEL_1
 10
-37.8956
 20
-20.2293
 30
8.8
 70
192
 0
VERTEX
 8
STEEL_1
 10
-37.7201
 20
-20.6703
 30
8.8
 70
192
 0
VERTEX
 8
STEEL_1
 10
-37.4228
 20
-21.0628
 30
8.8
 70
192
 0
VERTEX
 8
STEEL_1
 10
-37.0303
 20
-21.3601
 30
8.8
 70
192
 0
VERTEX
 8
STEEL_1
 10
-36.5893
 20
-21.5356
 30
8.8
 70
192
 0
VERTEX
 8
STEEL_1
 10
-37.8956
 20
-20.2293
 30
1.9999
 70
192
 0
VERTEX
 8
STEEL_1
 10
-37.7201
 20
-20.6703
 30
1.9999
 70
192
 0
VERTEX
 8
STEEL_1
 10
-37.4228
 20
-21.0628
 30
1.9999
 70
192
 0
VERTEX
 8
STEEL_1
 10
-37.0303
 20
-21.3601
 30
1.9999
 70
192
 0
VERTEX
 8
STEEL_1
 10
-36.5893
 20
-21.5356
 30
1.9999
 70
192
 0
VERTEX
 8
STEEL_1
 10
0
 20
0
 30
0
 70
128
 71
9
 72
10
 73
2
 74
1
 0
VERTEX
 8
STEEL_1
 10
0
 20
0
 30
0
 70
128
 71
1
 72
2
 73
4
 74
3
 0
VERTEX
 8
STEEL_1
 10
0
 20
0
 30
0
 70
128
 71
3
 72
4
 73
6
 74
5
 0
VERTEX
 8
STEEL_1
 10
0
 20
0
 30
0
 70
128
 71
5
 72
6
 73
7
 74
8
 0
VERTEX
 8
STEEL_1
 10
0
 20
0
 30
0
 70
128
 71
10
 72
15
 73
14
 74
14
 0
VERTEX
 8
STEEL_1
 10
0
 20
0
 30
0
 70
128
 71
16
 72
17
 73
20
 74
9
 0
VERTEX
 8
STEEL_1
 10
0
 20
0
 30
0
 70
128
 71
10
 72
6
 73
4
 74
2
 0
VERTEX
 8
STEEL_1
 10
0
 20
0
 30
0
 70
128
 71
14
 72
13
 73
12
 74
12
 0
VERTEX
 8
STEEL_1
 10
0
 20
0
 30
0
 70
128
 71
11
 72
10
 73
14
 74
12
 0
VERTEX
 8
STEEL_1
 10
0
 20
0
 30
0
 70
128
 71
10
 72
11
 73
7
 74
6
 0
VERTEX
 8
STEEL_1
 10
0
 20
0
 30
0
 70
128
 71
20
 72
17
 73
18
 74
19
 0
VERTEX
 8
STEEL_1
 10
0
 20
0
 30
0
 70
128
 71
9
 72
5
 73
8
 74
16
 0
VERTEX
 8
STEEL_1
 10
0
 20
0
 30
0
 70
128
 71
3
 72
5
 73
9
 74
1
 0
VERTEX
 8
STEEL_1
 10
0
 20
0
 30
0
 70
128
 71
7
 72
11
 73
16
 74
8
 0
VERTEX
 8
STEEL_1
 10
0
 20
0
 30
0
 70
128
 71
11
 72
12
 73
17
 74
16
 0
VERTEX
 8
STEEL_1
 10
0
 20
0
 30
0
 70
128
 71
12
 72
13
 73
18
 74
17
 0
VERTEX
 8
STEEL_1
 10
0
 20
0
 30
0
 70
128
 71
13
 72
14
 73
19
 74
18
 0
VERTEX
 8
STEEL_1
 10
0
 20
0
 30
0
 70
128
 71
14
 72
15
 73
20
 74
19
 0
VERTEX
 8
STEEL_1
 10
0
 20
0
 30
0
 70
128
 71
15
 72
10
 73
9
 74
20
 0
SEQEND
 0
POLYLINE
 8
STEEL_4
 66
1
 10
0.0
 20
0.0
 30
0.0
 70
64
 71
20
 72
19
 0
VERTEX
 8
STEEL_4
 10
23.05
 20
-21.59
 30
34
 70
192
 0
VERTEX
 8
STEEL_4
 10
23.05
 20
-21.59
 30
42.1999
 70
192
 0
VERTEX
 8
STEEL_4
 10
37.9501
 20
-16.8785
 30
34
 70
192
 0
VERTEX
 8
STEEL_4
 10
37.9501
 20
-16.8785
 30
42.1999
 70
192
 0
VERTEX
 8
STEEL_4
 10
23.05
 20
-16.8785
 30
34
 70
192
 0
VERTEX
 8
STEEL_4
 10
23.05
 20
-16.8785
 30
42.1999
 70
192
 0
VERTEX
 8
STEEL_4
 10
37.9501
 20
-19.79
 30
34
 70
192
 0
VERTEX
 8
STEEL_4
 10
37.9501
 20
-19.79
 30
42.1999
 70
192
 0
VERTEX
 8
STEEL_4
 10
36.1501
 20
-21.59
 30
42.1999
 70
192
 0
VERTEX
 8
STEEL_4
 10
36.1501
 20
-21.59
 30
34
 70
192
 0
VERTEX
 8
STEEL_4
 10
37.8957
 20
-20.2293
 30
34
 70
192
 0
VERTEX
 8
STEEL_4
 10
37.7202
 20
-20.6703
 30
34
 70
192
 0
VERTEX
 8
STEEL_4
 10
37.4229
 20
-21.0628
 30
34
 70
192
 0
VERTEX
 8
STEEL_4
 10
37.0304
 20
-21.3601
 30
34
 70
192
 0
VERTEX
 8
STEEL_4
 10
36.5894
 20
-21.5356
 30
34
 70
192
 0
VERTEX
 8
STEEL_4
 10
37.8957
 20
-20.2293
 30
42.1999
 70
192
 0
VERTEX
 8
STEEL_4
 10
37.7202
 20
-20.6703
 30
42.1999
 70
192
 0
VERTEX
 8
STEEL_4
 10
37.4229
 20
-21.0628
 30
42.1999
 70
192
 0
VERTEX
 8
STEEL_4
 10
37.0304
 20
-21.3601
 30
42.1999
 70
192
 0
VERTEX
 8
STEEL_4
 10
36.5894
 20
-21.5356
 30
42.1999
 70
192
 0
VERTEX
 8
STEEL_4
 10
0
 20
0
 30
0
 70
128
 71
1
 72
2
 73
9
 74
10
 0
VERTEX
 8
STEEL_4
 10
0
 20
0
 30
0
 70
128
 71
7
 72
8
 73
4
 74
3
 0
VERTEX
 8
STEEL_4
 10
0
 20
0
 30
0
 70
128
 71
3
 72
4
 73
6
 74
5
 0
VERTEX
 8
STEEL_4
 10
0
 20
0
 30
0
 70
128
 71
5
 72
6
 73
2
 74
1
 0
VERTEX
 8
STEEL_4
 10
0
 20
0
 30
0
 70
128
 71
9
 72
2
 73
6
 74
4
 0
VERTEX
 8
STEEL_4
 10
0
 20
0
 30
0
 70
128
 71
10
 72
11
 73
7
 74
3
 0
VERTEX
 8
STEEL_4
 10
0
 20
0
 30
0
 70
128
 71
17
 72
18
 73
19
 74
19
 0
VERTEX
 8
STEEL_4
 10
0
 20
0
 30
0
 70
128
 71
17
 72
19
 73
20
 74
9
 0
VERTEX
 8
STEEL_4
 10
0
 20
0
 30
0
 70
128
 71
9
 72
4
 73
8
 74
17
 0
VERTEX
 8
STEEL_4
 10
0
 20
0
 30
0
 70
128
 71
8
 72
16
 73
17
 74
17
 0
VERTEX
 8
STEEL_4
 10
0
 20
0
 30
0
 70
128
 71
15
 72
14
 73
13
 74
12
 0
VERTEX
 8
STEEL_4
 10
0
 20
0
 30
0
 70
128
 71
5
 72
1
 73
10
 74
3
 0
VERTEX
 8
STEEL_4
 10
0
 20
0
 30
0
 70
128
 71
10
 72
15
 73
12
 74
11
 0
VERTEX
 8
STEEL_4
 10
0
 20
0
 30
0
 70
128
 71
7
 72
11
 73
16
 74
8
 0
VERTEX
 8
STEEL_4
 10
0
 20
0
 30
0
 70
128
 71
11
 72
12
 73
17
 74
16
 0
VERTEX
 8
STEEL_4
 10
0
 20
0
 30
0
 70
128
 71
12
 72
13
 73
18
 74
17
 0
VERTEX
 8
STEEL_4
 10
0
 20
0
 30
0
 70
128
 71
13
 72
14
 73
19
 74
18
 0
VERTEX
 8
STEEL_4
 10
0
 20
0
 30
0
 70
128
 71
14
 72
15
 73
20
 74
19
 0
VERTEX
 8
STEEL_4
 10
0
 20
0
 30
0
 70
128
 71
15
 72
10
 73
9
 74
20
 0
SEQEND
 0
POLYLINE
 8
STEEL_5
 66
1
 10
0.0
 20
0.0
 30
0.0
 70
64
 71
20
 72
19
 0
VERTEX
 8
STEEL_5
 10
22.85
 20
-21.59
 30
34
 70
192
 0
VERTEX
 8
STEEL_5
 10
22.85
 20
-21.59
 30
42.1999
 70
192
 0
VERTEX
 8
STEEL_5
 10
22.85
 20
-16.8785
 30
34
 70
192
 0
VERTEX
 8
STEEL_5
 10
22.85
 20
-16.8785
 30
42.1999
 70
192
 0
VERTEX
 8
STEEL_5
 10
-37.95
 20
-16.8785
 30
34
 70
192
 0
VERTEX
 8
STEEL_5
 10
-37.95
 20
-16.8785
 30
42.1999
 70
192
 0
VERTEX
 8
STEEL_5
 10
-37.95
 20
-19.79
 30
42.1999
 70
192
 0
VERTEX
 8
STEEL_5
 10
-37.95
 20
-19.79
 30
34
 70
192
 0
VERTEX
 8
STEEL_5
 10
-36.15
 20
-21.59
 30
34
 70
192
 0
VERTEX
 8
STEEL_5
 10
-36.15
 20
-21.59
 30
42.1999
 70
192
 0
VERTEX
 8
STEEL_5
 10
-37.8956
 20
-20.2293
 30
42.1999
 70
192
 0
VERTEX
 8
STEEL_5
 10
-37.7201
 20
-20.6703
 30
42.1999
 70
192
 0
VERTEX
 8
STEEL_5
 10
-37.4228
 20
-21.0628
 30
42.1999
 70
192
 0
VERTEX
 8
STEEL_5
 10
-37.0303
 20
-21.3601
 30
42.1999
 70
192
 0
VERTEX
 8
STEEL_5
 10
-36.5893
 20
-21.5356
 30
42.1999
 70
192
 0
VERTEX
 8
STEEL_5
 10
-37.8956
 20
-20.2293
 30
34
 70
192
 0
VERTEX
 8
STEEL_5
 10
-37.7201
 20
-20.6703
 30
34
 70
192
 0
VERTEX
 8
STEEL_5
 10
-37.4228
 20
-21.0628
 30
34
 70
192
 0
VERTEX
 8
STEEL_5
 10
-37.0303
 20
-21.3601
 30
34
 70
192
 0
VERTEX
 8
STEEL_5
 10
-36.5893
 20
-21.5356
 30
34
 70
192
 0
VERTEX
 8
STEEL_5
 10
0
 20
0
 30
0
 70
128
 71
9
 72
10
 73
2
 74
1
 0
VERTEX
 8
STEEL_5
 10
0
 20
0
 30
0
 70
128
 71
1
 72
2
 73
4
 74
3
 0
VERTEX
 8
STEEL_5
 10
0
 20
0
 30
0
 70
128
 71
3
 72
4
 73
6
 74
5
 0
VERTEX
 8
STEEL_5
 10
0
 20
0
 30
0
 70
128
 71
5
 72
6
 73
7
 74
8
 0
VERTEX
 8
STEEL_5
 10
0
 20
0
 30
0
 70
128
 71
10
 72
15
 73
14
 74
14
 0
VERTEX
 8
STEEL_5
 10
0
 20
0
 30
0
 70
128
 71
16
 72
17
 73
20
 74
9
 0
VERTEX
 8
STEEL_5
 10
0
 20
0
 30
0
 70
128
 71
10
 72
6
 73
4
 74
2
 0
VERTEX
 8
STEEL_5
 10
0
 20
0
 30
0
 70
128
 71
14
 72
13
 73
12
 74
12
 0
VERTEX
 8
STEEL_5
 10
0
 20
0
 30
0
 70
128
 71
11
 72
10
 73
14
 74
12
 0
VERTEX
 8
STEEL_5
 10
0
 20
0
 30
0
 70
128
 71
10
 72
11
 73
7
 74
6
 0
VERTEX
 8
STEEL_5
 10
0
 20
0
 30
0
 70
128
 71
20
 72
17
 73
18
 74
19
 0
VERTEX
 8
STEEL_5
 10
0
 20
0
 30
0
 70
128
 71
9
 72
5
 73
8
 74
16
 0
VERTEX
 8
STEEL_5
 10
0
 20
0
 30
0
 70
128
 71
3
 72
5
 73
9
 74
1
 0
VERTEX
 8
STEEL_5
 10
0
 20
0
 30
0
 70
128
 71
7
 72
11
 73
16
 74
8
 0
VERTEX
 8
STEEL_5
 10
0
 20
0
 30
0
 70
128
 71
11
 72
12
 73
17
 74
16
 0
VERTEX
 8
STEEL_5
 10
0
 20
0
 30
0
 70
128
 71
12
 72
13
 73
18
 74
17
 0
VERTEX
 8
STEEL_5
 10
0
 20
0
 30
0
 70
128
 71
13
 72
14
 73
19
 74
18
 0
VERTEX
 8
STEEL_5
 10
0
 20
0
 30
0
 70
128
 71
14
 72
15
 73
20
 74
19
 0
VERTEX
 8
STEEL_5
 10
0
 20
0
 30
0
 70
128
 71
15
 72
10
 73
9
 74
20
 0
SEQEND
 0
POLYLINE
 8
OVEN
 66
1
 10
0.0
 20
0.0
 30
0.0
 70
64
 71
8
 72
6
 0
VERTEX
 8
OVEN
 10
-37.95
 20
-16.8784
 30
1.9999
 70
192
 0
VERTEX
 8
OVEN
 10
-37.95
 20
-16.8784
 30
42.1999
 70
192
 0
VERTEX
 8
OVEN
 10
37.95
 20
-16.8784
 30
1.9999
 70
192
 0
VERTEX
 8
OVEN
 10
37.95
 20
-16.8784
 30
42.1999
 70
192
 0
VERTEX
 8
OVEN
 10
37.95
 20
18.79
 30
1.9999
 70
192
 0
VERTEX
 8
OVEN
 10
37.95
 20
18.79
 30
42.1999
 70
192
 0
VERTEX
 8
OVEN
 10
-37.95
 20
18.79
 30
1.9999
 70
192
 0
VERTEX
 8
OVEN
 10
-37.95
 20
18.79
 30
42.1999
 70
192
 0
VERTEX
 8
OVEN
 10
0
 20
0
 30
0
 70
128
 71
1
 72
2
 73
4
 74
3
 0
VERTEX
 8
OVEN
 10
0
 20
0
 30
0
 70
128
 71
3
 72
4
 73
6
 74
5
 0
VERTEX
 8
OVEN
 10
0
 20
0
 30
0
 70
128
 71
5
 72
6
 73
8
 74
7
 0
VERTEX
 8
OVEN
 10
0
 20
0
 30
0
 70
128
 71
7
 72
8
 73
2
 74
1
 0
VERTEX
 8
OVEN
 10
0
 20
0
 30
0
 70
128
 71
2
 72
8
 73
6
 74
4
 0
VERTEX
 8
OVEN
 10
0
 20
0
 30
0
 70
128
 71
7
 72
1
 73
3
 74
5
 0
SEQEND
 0
ENDSEC
 0
EOF
