 0
SECTION
 2
HEADER
 9
$ACADVER
 1
AC1009
 0
ENDSEC
 0
SECTION
 2
TABLES
 0
TABLE
 2
LTYPE
 70
1
 0
LTYPE
 2
CONTINUOUS
 70
64
 3
solid line
 72
65
 73
0
 40
0.0
 0
ENDTAB
 0
TABLE
 2
LAYER
 70
6
 0
LAYER
 2
0
 70
0
 62
7
 6
CONTINUOUS
 0
LAYER
 2
F4CW36S1_-_DISTINTO_CHIMNEY_WA
 70
64
 62
7
 6
CONTINUOUS
 0
LAYER
 2
LIGHT_1
 70
64
 62
7
 6
CONTINUOUS
 0
LAYER
 2
FARETTO1
 70
64
 62
253
 6
CONTINUOUS
 0
LAYER
 2
LUCE1
 70
64
 62
7
 6
CONTINUOUS
 0
LAYER
 2
LIGHT_2
 70
64
 62
7
 6
CONTINUOUS
 0
LAYER
 2
FARETTO1_1
 70
64
 62
253
 6
CONTINUOUS
 0
LAYER
 2
LUCE1_1
 70
64
 62
7
 6
CONTINUOUS
 0
LAYER
 2
CUBO_4
 70
64
 62
253
 6
CONTINUOUS
 0
LAYER
 2
CUBO_3
 70
64
 62
253
 6
CONTINUOUS
 0
LAYER
 2
CUBO_2
 70
64
 62
253
 6
CONTINUOUS
 0
LAYER
 2
GRIGLIA
 70
64
 62
253
 6
CONTINUOUS
 0
LAYER
 2
GRIGLIA_1
 70
64
 62
253
 6
CONTINUOUS
 0
LAYER
 2
GRIGLIA_2
 70
64
 62
253
 6
CONTINUOUS
 0
LAYER
 2
CUBO
 70
64
 62
253
 6
CONTINUOUS
 0
LAYER
 2
CUBO_1
 70
64
 62
253
 6
CONTINUOUS
 0
LAYER
 2
PULSANTE
 70
64
 62
253
 6
CONTINUOUS
 0
LAYER
 2
PULSANTE_1
 70
64
 62
253
 6
CONTINUOUS
 0
LAYER
 2
PULSANTE_2
 70
64
 62
253
 6
CONTINUOUS
 0
LAYER
 2
PULSANTE_3
 70
64
 62
253
 6
CONTINUOUS
 0
LAYER
 2
PULSANTE_4
 70
64
 62
253
 6
CONTINUOUS
 0
ENDTAB
 0
ENDSEC
 0
SECTION
 2
BLOCKS
 0
ENDSEC
 0
SECTION
 2
ENTITIES
 0
POLYLINE
 8
FARETTO1
 66
1
 10
0.0
 20
0.0
 30
0.0
 70
64
 71
32
 72
30
 0
VERTEX
 8
FARETTO1
 10
-30.2521
 20
-54.9759
 30
-3.3245
 70
192
 0
VERTEX
 8
FARETTO1
 10
-30.2521
 20
-54.9759
 30
-3.2893
 70
192
 0
VERTEX
 8
FARETTO1
 10
-30.0452
 20
-54.9759
 30
-3.3245
 70
192
 0
VERTEX
 8
FARETTO1
 10
-30.0452
 20
-54.9759
 30
-3.2893
 70
192
 0
VERTEX
 8
FARETTO1
 10
-25.659
 20
-54.9759
 30
-3.3245
 70
192
 0
VERTEX
 8
FARETTO1
 10
-25.659
 20
-54.9759
 30
-3.2893
 70
192
 0
VERTEX
 8
FARETTO1
 10
-25.4521
 20
-54.9759
 30
-3.3245
 70
192
 0
VERTEX
 8
FARETTO1
 10
-25.4521
 20
-54.9759
 30
-3.2893
 70
192
 0
VERTEX
 8
FARETTO1
 10
-25.4521
 20
-54.7644
 30
-3.3245
 70
192
 0
VERTEX
 8
FARETTO1
 10
-25.4521
 20
-54.7644
 30
-3.2893
 70
192
 0
VERTEX
 8
FARETTO1
 10
-25.4521
 20
-52.6874
 30
-3.3245
 70
192
 0
VERTEX
 8
FARETTO1
 10
-25.4521
 20
-52.6874
 30
-3.2893
 70
192
 0
VERTEX
 8
FARETTO1
 10
-25.4521
 20
-52.4759
 30
-3.3245
 70
192
 0
VERTEX
 8
FARETTO1
 10
-25.4521
 20
-52.4759
 30
-3.2893
 70
192
 0
VERTEX
 8
FARETTO1
 10
-25.659
 20
-52.4759
 30
-3.3245
 70
192
 0
VERTEX
 8
FARETTO1
 10
-25.659
 20
-52.4759
 30
-3.2893
 70
192
 0
VERTEX
 8
FARETTO1
 10
-30.0452
 20
-52.4759
 30
-3.3245
 70
192
 0
VERTEX
 8
FARETTO1
 10
-30.0452
 20
-52.4759
 30
-3.2893
 70
192
 0
VERTEX
 8
FARETTO1
 10
-30.2521
 20
-52.4759
 30
-3.3245
 70
192
 0
VERTEX
 8
FARETTO1
 10
-30.2521
 20
-52.4759
 30
-3.2893
 70
192
 0
VERTEX
 8
FARETTO1
 10
-30.2521
 20
-52.6874
 30
-3.3245
 70
192
 0
VERTEX
 8
FARETTO1
 10
-30.2521
 20
-52.6874
 30
-3.2893
 70
192
 0
VERTEX
 8
FARETTO1
 10
-30.2521
 20
-54.7644
 30
-3.3245
 70
192
 0
VERTEX
 8
FARETTO1
 10
-30.2521
 20
-54.7644
 30
-3.2893
 70
192
 0
VERTEX
 8
FARETTO1
 10
-30.0452
 20
-54.7644
 30
-3.2893
 70
192
 0
VERTEX
 8
FARETTO1
 10
-30.0452
 20
-52.6874
 30
-3.2893
 70
192
 0
VERTEX
 8
FARETTO1
 10
-25.659
 20
-54.7644
 30
-3.2893
 70
192
 0
VERTEX
 8
FARETTO1
 10
-25.659
 20
-52.6874
 30
-3.2893
 70
192
 0
VERTEX
 8
FARETTO1
 10
-30.0452
 20
-52.6874
 30
-3.3793
 70
192
 0
VERTEX
 8
FARETTO1
 10
-30.0452
 20
-54.7644
 30
-3.3793
 70
192
 0
VERTEX
 8
FARETTO1
 10
-25.659
 20
-52.6874
 30
-3.3793
 70
192
 0
VERTEX
 8
FARETTO1
 10
-25.659
 20
-54.7644
 30
-3.3793
 70
192
 0
VERTEX
 8
FARETTO1
 10
0
 20
0
 30
0
 70
128
 71
1
 72
2
 73
4
 74
3
 0
VERTEX
 8
FARETTO1
 10
0
 20
0
 30
0
 70
128
 71
3
 72
4
 73
6
 74
5
 0
VERTEX
 8
FARETTO1
 10
0
 20
0
 30
0
 70
128
 71
5
 72
6
 73
8
 74
7
 0
VERTEX
 8
FARETTO1
 10
0
 20
0
 30
0
 70
128
 71
7
 72
8
 73
10
 74
9
 0
VERTEX
 8
FARETTO1
 10
0
 20
0
 30
0
 70
128
 71
9
 72
10
 73
12
 74
11
 0
VERTEX
 8
FARETTO1
 10
0
 20
0
 30
0
 70
128
 71
11
 72
12
 73
14
 74
13
 0
VERTEX
 8
FARETTO1
 10
0
 20
0
 30
0
 70
128
 71
13
 72
14
 73
16
 74
15
 0
VERTEX
 8
FARETTO1
 10
0
 20
0
 30
0
 70
128
 71
15
 72
16
 73
18
 74
17
 0
VERTEX
 8
FARETTO1
 10
0
 20
0
 30
0
 70
128
 71
17
 72
18
 73
20
 74
19
 0
VERTEX
 8
FARETTO1
 10
0
 20
0
 30
0
 70
128
 71
19
 72
20
 73
22
 74
21
 0
VERTEX
 8
FARETTO1
 10
0
 20
0
 30
0
 70
128
 71
21
 72
22
 73
24
 74
23
 0
VERTEX
 8
FARETTO1
 10
0
 20
0
 30
0
 70
128
 71
23
 72
24
 73
2
 74
1
 0
VERTEX
 8
FARETTO1
 10
0
 20
0
 30
0
 70
128
 71
2
 72
24
 73
25
 74
4
 0
VERTEX
 8
FARETTO1
 10
0
 20
0
 30
0
 70
128
 71
4
 72
25
 73
27
 74
6
 0
VERTEX
 8
FARETTO1
 10
0
 20
0
 30
0
 70
128
 71
6
 72
27
 73
10
 74
8
 0
VERTEX
 8
FARETTO1
 10
0
 20
0
 30
0
 70
128
 71
24
 72
22
 73
26
 74
25
 0
VERTEX
 8
FARETTO1
 10
0
 20
0
 30
0
 70
128
 71
25
 72
26
 73
28
 74
27
 0
VERTEX
 8
FARETTO1
 10
0
 20
0
 30
0
 70
128
 71
27
 72
28
 73
12
 74
10
 0
VERTEX
 8
FARETTO1
 10
0
 20
0
 30
0
 70
128
 71
22
 72
20
 73
18
 74
26
 0
VERTEX
 8
FARETTO1
 10
0
 20
0
 30
0
 70
128
 71
26
 72
18
 73
16
 74
28
 0
VERTEX
 8
FARETTO1
 10
0
 20
0
 30
0
 70
128
 71
28
 72
16
 73
14
 74
12
 0
VERTEX
 8
FARETTO1
 10
0
 20
0
 30
0
 70
128
 71
19
 72
21
 73
29
 74
17
 0
VERTEX
 8
FARETTO1
 10
0
 20
0
 30
0
 70
128
 71
17
 72
29
 73
31
 74
15
 0
VERTEX
 8
FARETTO1
 10
0
 20
0
 30
0
 70
128
 71
15
 72
31
 73
11
 74
13
 0
VERTEX
 8
FARETTO1
 10
0
 20
0
 30
0
 70
128
 71
21
 72
23
 73
30
 74
29
 0
VERTEX
 8
FARETTO1
 10
0
 20
0
 30
0
 70
128
 71
29
 72
30
 73
32
 74
31
 0
VERTEX
 8
FARETTO1
 10
0
 20
0
 30
0
 70
128
 71
31
 72
32
 73
9
 74
11
 0
VERTEX
 8
FARETTO1
 10
0
 20
0
 30
0
 70
128
 71
23
 72
1
 73
3
 74
30
 0
VERTEX
 8
FARETTO1
 10
0
 20
0
 30
0
 70
128
 71
30
 72
3
 73
5
 74
32
 0
VERTEX
 8
FARETTO1
 10
0
 20
0
 30
0
 70
128
 71
32
 72
5
 73
7
 74
9
 0
SEQEND
 0
POLYLINE
 8
LUCE1
 66
1
 10
0.0
 20
0.0
 30
0.0
 70
64
 71
8
 72
6
 0
VERTEX
 8
LUCE1
 10
-29.9197
 20
-54.6397
 30
-3.4106
 70
192
 0
VERTEX
 8
LUCE1
 10
-29.9197
 20
-54.6397
 30
-3.3206
 70
192
 0
VERTEX
 8
LUCE1
 10
-25.7845
 20
-54.6397
 30
-3.4106
 70
192
 0
VERTEX
 8
LUCE1
 10
-25.7845
 20
-54.6397
 30
-3.3206
 70
192
 0
VERTEX
 8
LUCE1
 10
-25.7845
 20
-52.8121
 30
-3.4106
 70
192
 0
VERTEX
 8
LUCE1
 10
-25.7845
 20
-52.8121
 30
-3.3206
 70
192
 0
VERTEX
 8
LUCE1
 10
-29.9197
 20
-52.8121
 30
-3.4106
 70
192
 0
VERTEX
 8
LUCE1
 10
-29.9197
 20
-52.8121
 30
-3.3206
 70
192
 0
VERTEX
 8
LUCE1
 10
0
 20
0
 30
0
 70
128
 71
1
 72
2
 73
4
 74
3
 0
VERTEX
 8
LUCE1
 10
0
 20
0
 30
0
 70
128
 71
3
 72
4
 73
6
 74
5
 0
VERTEX
 8
LUCE1
 10
0
 20
0
 30
0
 70
128
 71
5
 72
6
 73
8
 74
7
 0
VERTEX
 8
LUCE1
 10
0
 20
0
 30
0
 70
128
 71
7
 72
8
 73
2
 74
1
 0
VERTEX
 8
LUCE1
 10
0
 20
0
 30
0
 70
128
 71
2
 72
8
 73
6
 74
4
 0
VERTEX
 8
LUCE1
 10
0
 20
0
 30
0
 70
128
 71
7
 72
1
 73
3
 74
5
 0
SEQEND
 0
POLYLINE
 8
FARETTO1_1
 66
1
 10
0.0
 20
0.0
 30
0.0
 70
64
 71
32
 72
30
 0
VERTEX
 8
FARETTO1_1
 10
25.452
 20
-54.9759
 30
-3.3245
 70
192
 0
VERTEX
 8
FARETTO1_1
 10
25.452
 20
-54.9759
 30
-3.2893
 70
192
 0
VERTEX
 8
FARETTO1_1
 10
25.6589
 20
-54.9759
 30
-3.3245
 70
192
 0
VERTEX
 8
FARETTO1_1
 10
25.6589
 20
-54.9759
 30
-3.2893
 70
192
 0
VERTEX
 8
FARETTO1_1
 10
30.0451
 20
-54.9759
 30
-3.3245
 70
192
 0
VERTEX
 8
FARETTO1_1
 10
30.0451
 20
-54.9759
 30
-3.2893
 70
192
 0
VERTEX
 8
FARETTO1_1
 10
30.252
 20
-54.9759
 30
-3.3245
 70
192
 0
VERTEX
 8
FARETTO1_1
 10
30.252
 20
-54.9759
 30
-3.2893
 70
192
 0
VERTEX
 8
FARETTO1_1
 10
30.252
 20
-54.7644
 30
-3.3245
 70
192
 0
VERTEX
 8
FARETTO1_1
 10
30.252
 20
-54.7644
 30
-3.2893
 70
192
 0
VERTEX
 8
FARETTO1_1
 10
30.252
 20
-52.6874
 30
-3.3245
 70
192
 0
VERTEX
 8
FARETTO1_1
 10
30.252
 20
-52.6874
 30
-3.2893
 70
192
 0
VERTEX
 8
FARETTO1_1
 10
30.252
 20
-52.4759
 30
-3.3245
 70
192
 0
VERTEX
 8
FARETTO1_1
 10
30.252
 20
-52.4759
 30
-3.2893
 70
192
 0
VERTEX
 8
FARETTO1_1
 10
30.0451
 20
-52.4759
 30
-3.3245
 70
192
 0
VERTEX
 8
FARETTO1_1
 10
30.0451
 20
-52.4759
 30
-3.2893
 70
192
 0
VERTEX
 8
FARETTO1_1
 10
25.6589
 20
-52.4759
 30
-3.3245
 70
192
 0
VERTEX
 8
FARETTO1_1
 10
25.6589
 20
-52.4759
 30
-3.2893
 70
192
 0
VERTEX
 8
FARETTO1_1
 10
25.452
 20
-52.4759
 30
-3.3245
 70
192
 0
VERTEX
 8
FARETTO1_1
 10
25.452
 20
-52.4759
 30
-3.2893
 70
192
 0
VERTEX
 8
FARETTO1_1
 10
25.452
 20
-52.6874
 30
-3.3245
 70
192
 0
VERTEX
 8
FARETTO1_1
 10
25.452
 20
-52.6874
 30
-3.2893
 70
192
 0
VERTEX
 8
FARETTO1_1
 10
25.452
 20
-54.7644
 30
-3.3245
 70
192
 0
VERTEX
 8
FARETTO1_1
 10
25.452
 20
-54.7644
 30
-3.2893
 70
192
 0
VERTEX
 8
FARETTO1_1
 10
25.6589
 20
-54.7644
 30
-3.2893
 70
192
 0
VERTEX
 8
FARETTO1_1
 10
25.6589
 20
-52.6874
 30
-3.2893
 70
192
 0
VERTEX
 8
FARETTO1_1
 10
30.0451
 20
-54.7644
 30
-3.2893
 70
192
 0
VERTEX
 8
FARETTO1_1
 10
30.0451
 20
-52.6874
 30
-3.2893
 70
192
 0
VERTEX
 8
FARETTO1_1
 10
25.6589
 20
-52.6874
 30
-3.3793
 70
192
 0
VERTEX
 8
FARETTO1_1
 10
25.6589
 20
-54.7644
 30
-3.3793
 70
192
 0
VERTEX
 8
FARETTO1_1
 10
30.0451
 20
-52.6874
 30
-3.3793
 70
192
 0
VERTEX
 8
FARETTO1_1
 10
30.0451
 20
-54.7644
 30
-3.3793
 70
192
 0
VERTEX
 8
FARETTO1_1
 10
0
 20
0
 30
0
 70
128
 71
1
 72
2
 73
4
 74
3
 0
VERTEX
 8
FARETTO1_1
 10
0
 20
0
 30
0
 70
128
 71
3
 72
4
 73
6
 74
5
 0
VERTEX
 8
FARETTO1_1
 10
0
 20
0
 30
0
 70
128
 71
5
 72
6
 73
8
 74
7
 0
VERTEX
 8
FARETTO1_1
 10
0
 20
0
 30
0
 70
128
 71
7
 72
8
 73
10
 74
9
 0
VERTEX
 8
FARETTO1_1
 10
0
 20
0
 30
0
 70
128
 71
9
 72
10
 73
12
 74
11
 0
VERTEX
 8
FARETTO1_1
 10
0
 20
0
 30
0
 70
128
 71
11
 72
12
 73
14
 74
13
 0
VERTEX
 8
FARETTO1_1
 10
0
 20
0
 30
0
 70
128
 71
13
 72
14
 73
16
 74
15
 0
VERTEX
 8
FARETTO1_1
 10
0
 20
0
 30
0
 70
128
 71
15
 72
16
 73
18
 74
17
 0
VERTEX
 8
FARETTO1_1
 10
0
 20
0
 30
0
 70
128
 71
17
 72
18
 73
20
 74
19
 0
VERTEX
 8
FARETTO1_1
 10
0
 20
0
 30
0
 70
128
 71
19
 72
20
 73
22
 74
21
 0
VERTEX
 8
FARETTO1_1
 10
0
 20
0
 30
0
 70
128
 71
21
 72
22
 73
24
 74
23
 0
VERTEX
 8
FARETTO1_1
 10
0
 20
0
 30
0
 70
128
 71
23
 72
24
 73
2
 74
1
 0
VERTEX
 8
FARETTO1_1
 10
0
 20
0
 30
0
 70
128
 71
2
 72
24
 73
25
 74
4
 0
VERTEX
 8
FARETTO1_1
 10
0
 20
0
 30
0
 70
128
 71
4
 72
25
 73
27
 74
6
 0
VERTEX
 8
FARETTO1_1
 10
0
 20
0
 30
0
 70
128
 71
6
 72
27
 73
10
 74
8
 0
VERTEX
 8
FARETTO1_1
 10
0
 20
0
 30
0
 70
128
 71
24
 72
22
 73
26
 74
25
 0
VERTEX
 8
FARETTO1_1
 10
0
 20
0
 30
0
 70
128
 71
25
 72
26
 73
28
 74
27
 0
VERTEX
 8
FARETTO1_1
 10
0
 20
0
 30
0
 70
128
 71
27
 72
28
 73
12
 74
10
 0
VERTEX
 8
FARETTO1_1
 10
0
 20
0
 30
0
 70
128
 71
22
 72
20
 73
18
 74
26
 0
VERTEX
 8
FARETTO1_1
 10
0
 20
0
 30
0
 70
128
 71
26
 72
18
 73
16
 74
28
 0
VERTEX
 8
FARETTO1_1
 10
0
 20
0
 30
0
 70
128
 71
28
 72
16
 73
14
 74
12
 0
VERTEX
 8
FARETTO1_1
 10
0
 20
0
 30
0
 70
128
 71
19
 72
21
 73
29
 74
17
 0
VERTEX
 8
FARETTO1_1
 10
0
 20
0
 30
0
 70
128
 71
17
 72
29
 73
31
 74
15
 0
VERTEX
 8
FARETTO1_1
 10
0
 20
0
 30
0
 70
128
 71
15
 72
31
 73
11
 74
13
 0
VERTEX
 8
FARETTO1_1
 10
0
 20
0
 30
0
 70
128
 71
21
 72
23
 73
30
 74
29
 0
VERTEX
 8
FARETTO1_1
 10
0
 20
0
 30
0
 70
128
 71
29
 72
30
 73
32
 74
31
 0
VERTEX
 8
FARETTO1_1
 10
0
 20
0
 30
0
 70
128
 71
31
 72
32
 73
9
 74
11
 0
VERTEX
 8
FARETTO1_1
 10
0
 20
0
 30
0
 70
128
 71
23
 72
1
 73
3
 74
30
 0
VERTEX
 8
FARETTO1_1
 10
0
 20
0
 30
0
 70
128
 71
30
 72
3
 73
5
 74
32
 0
VERTEX
 8
FARETTO1_1
 10
0
 20
0
 30
0
 70
128
 71
32
 72
5
 73
7
 74
9
 0
SEQEND
 0
POLYLINE
 8
LUCE1_1
 66
1
 10
0.0
 20
0.0
 30
0.0
 70
64
 71
8
 72
6
 0
VERTEX
 8
LUCE1_1
 10
25.7844
 20
-54.6397
 30
-3.4106
 70
192
 0
VERTEX
 8
LUCE1_1
 10
25.7844
 20
-54.6397
 30
-3.3206
 70
192
 0
VERTEX
 8
LUCE1_1
 10
29.9196
 20
-54.6397
 30
-3.4106
 70
192
 0
VERTEX
 8
LUCE1_1
 10
29.9196
 20
-54.6397
 30
-3.3206
 70
192
 0
VERTEX
 8
LUCE1_1
 10
29.9196
 20
-52.8121
 30
-3.4106
 70
192
 0
VERTEX
 8
LUCE1_1
 10
29.9196
 20
-52.8121
 30
-3.3206
 70
192
 0
VERTEX
 8
LUCE1_1
 10
25.7844
 20
-52.8121
 30
-3.4106
 70
192
 0
VERTEX
 8
LUCE1_1
 10
25.7844
 20
-52.8121
 30
-3.3206
 70
192
 0
VERTEX
 8
LUCE1_1
 10
0
 20
0
 30
0
 70
128
 71
1
 72
2
 73
4
 74
3
 0
VERTEX
 8
LUCE1_1
 10
0
 20
0
 30
0
 70
128
 71
3
 72
4
 73
6
 74
5
 0
VERTEX
 8
LUCE1_1
 10
0
 20
0
 30
0
 70
128
 71
5
 72
6
 73
8
 74
7
 0
VERTEX
 8
LUCE1_1
 10
0
 20
0
 30
0
 70
128
 71
7
 72
8
 73
2
 74
1
 0
VERTEX
 8
LUCE1_1
 10
0
 20
0
 30
0
 70
128
 71
2
 72
8
 73
6
 74
4
 0
VERTEX
 8
LUCE1_1
 10
0
 20
0
 30
0
 70
128
 71
7
 72
1
 73
3
 74
5
 0
SEQEND
 0
POLYLINE
 8
CUBO_4
 66
1
 10
0.0
 20
0.0
 30
0.0
 70
64
 71
8
 72
6
 0
VERTEX
 8
CUBO_4
 10
-13.04
 20
-36.851
 30
54.221
 70
192
 0
VERTEX
 8
CUBO_4
 10
-13.04
 20
-36.851
 30
106.221
 70
192
 0
VERTEX
 8
CUBO_4
 10
13.04
 20
-36.851
 30
54.221
 70
192
 0
VERTEX
 8
CUBO_4
 10
13.04
 20
-36.851
 30
106.221
 70
192
 0
VERTEX
 8
CUBO_4
 10
13.04
 20
-10.971
 30
54.221
 70
192
 0
VERTEX
 8
CUBO_4
 10
13.04
 20
-10.971
 30
106.221
 70
192
 0
VERTEX
 8
CUBO_4
 10
-13.04
 20
-10.971
 30
54.221
 70
192
 0
VERTEX
 8
CUBO_4
 10
-13.04
 20
-10.971
 30
106.221
 70
192
 0
VERTEX
 8
CUBO_4
 10
0
 20
0
 30
0
 70
128
 71
1
 72
2
 73
4
 74
3
 0
VERTEX
 8
CUBO_4
 10
0
 20
0
 30
0
 70
128
 71
3
 72
4
 73
6
 74
5
 0
VERTEX
 8
CUBO_4
 10
0
 20
0
 30
0
 70
128
 71
5
 72
6
 73
8
 74
7
 0
VERTEX
 8
CUBO_4
 10
0
 20
0
 30
0
 70
128
 71
7
 72
8
 73
2
 74
1
 0
VERTEX
 8
CUBO_4
 10
0
 20
0
 30
0
 70
128
 71
2
 72
8
 73
6
 74
4
 0
VERTEX
 8
CUBO_4
 10
0
 20
0
 30
0
 70
128
 71
7
 72
1
 73
3
 74
5
 0
SEQEND
 0
POLYLINE
 8
CUBO_3
 66
1
 10
0.0
 20
0.0
 30
0.0
 70
64
 71
8
 72
6
 0
VERTEX
 8
CUBO_3
 10
-13.15
 20
-36.911
 30
8.2215
 70
192
 0
VERTEX
 8
CUBO_3
 10
-13.15
 20
-36.911
 30
56.2215
 70
192
 0
VERTEX
 8
CUBO_3
 10
13.15
 20
-36.911
 30
8.2215
 70
192
 0
VERTEX
 8
CUBO_3
 10
13.15
 20
-36.911
 30
56.2215
 70
192
 0
VERTEX
 8
CUBO_3
 10
13.15
 20
-10.911
 30
8.2215
 70
192
 0
VERTEX
 8
CUBO_3
 10
13.15
 20
-10.911
 30
56.2215
 70
192
 0
VERTEX
 8
CUBO_3
 10
-13.15
 20
-10.911
 30
8.2215
 70
192
 0
VERTEX
 8
CUBO_3
 10
-13.15
 20
-10.911
 30
56.2215
 70
192
 0
VERTEX
 8
CUBO_3
 10
0
 20
0
 30
0
 70
128
 71
1
 72
2
 73
4
 74
3
 0
VERTEX
 8
CUBO_3
 10
0
 20
0
 30
0
 70
128
 71
3
 72
4
 73
6
 74
5
 0
VERTEX
 8
CUBO_3
 10
0
 20
0
 30
0
 70
128
 71
5
 72
6
 73
8
 74
7
 0
VERTEX
 8
CUBO_3
 10
0
 20
0
 30
0
 70
128
 71
7
 72
8
 73
2
 74
1
 0
VERTEX
 8
CUBO_3
 10
0
 20
0
 30
0
 70
128
 71
2
 72
8
 73
6
 74
4
 0
VERTEX
 8
CUBO_3
 10
0
 20
0
 30
0
 70
128
 71
7
 72
1
 73
3
 74
5
 0
SEQEND
 0
POLYLINE
 8
CUBO_2
 66
1
 10
0.0
 20
0.0
 30
0.0
 70
64
 71
8
 72
6
 0
VERTEX
 8
CUBO_2
 10
-41.775
 20
-57.8632
 30
-3.2735
 70
192
 0
VERTEX
 8
CUBO_2
 10
-41.775
 20
-57.8632
 30
-1.7735
 70
192
 0
VERTEX
 8
CUBO_2
 10
41.775
 20
-57.8632
 30
-3.2735
 70
192
 0
VERTEX
 8
CUBO_2
 10
41.775
 20
-57.8632
 30
-1.7735
 70
192
 0
VERTEX
 8
CUBO_2
 10
41.775
 20
-49.551
 30
-3.2735
 70
192
 0
VERTEX
 8
CUBO_2
 10
41.775
 20
-49.551
 30
-1.7735
 70
192
 0
VERTEX
 8
CUBO_2
 10
-41.775
 20
-49.551
 30
-3.2735
 70
192
 0
VERTEX
 8
CUBO_2
 10
-41.775
 20
-49.551
 30
-1.7735
 70
192
 0
VERTEX
 8
CUBO_2
 10
0
 20
0
 30
0
 70
128
 71
1
 72
2
 73
4
 74
3
 0
VERTEX
 8
CUBO_2
 10
0
 20
0
 30
0
 70
128
 71
3
 72
4
 73
6
 74
5
 0
VERTEX
 8
CUBO_2
 10
0
 20
0
 30
0
 70
128
 71
5
 72
6
 73
8
 74
7
 0
VERTEX
 8
CUBO_2
 10
0
 20
0
 30
0
 70
128
 71
7
 72
8
 73
2
 74
1
 0
VERTEX
 8
CUBO_2
 10
0
 20
0
 30
0
 70
128
 71
2
 72
8
 73
6
 74
4
 0
VERTEX
 8
CUBO_2
 10
0
 20
0
 30
0
 70
128
 71
7
 72
1
 73
3
 74
5
 0
SEQEND
 0
POLYLINE
 8
GRIGLIA
 66
1
 10
0.0
 20
0.0
 30
0.0
 70
64
 71
290
 72
414
 0
VERTEX
 8
GRIGLIA
 10
13.9711
 20
-49.4868
 30
-3.1217
 70
192
 0
VERTEX
 8
GRIGLIA
 10
13.9711
 20
-49.4868
 30
-2.2216
 70
192
 0
VERTEX
 8
GRIGLIA
 10
41.7825
 20
-49.4868
 30
-3.1217
 70
192
 0
VERTEX
 8
GRIGLIA
 10
41.7825
 20
-49.4868
 30
-2.2216
 70
192
 0
VERTEX
 8
GRIGLIA
 10
41.7825
 20
-19.3946
 30
-3.1217
 70
192
 0
VERTEX
 8
GRIGLIA
 10
41.7825
 20
-19.3946
 30
-2.2216
 70
192
 0
VERTEX
 8
GRIGLIA
 10
13.9711
 20
-19.3946
 30
-3.1217
 70
192
 0
VERTEX
 8
GRIGLIA
 10
13.9711
 20
-19.3946
 30
-2.2216
 70
192
 0
VERTEX
 8
GRIGLIA
 10
17.6033
 20
-49.4868
 30
-2.2216
 70
192
 0
VERTEX
 8
GRIGLIA
 10
17.6033
 20
-49.4868
 30
-3.1217
 70
192
 0
VERTEX
 8
GRIGLIA
 10
17.6033
 20
-19.3946
 30
-2.2216
 70
192
 0
VERTEX
 8
GRIGLIA
 10
17.6033
 20
-19.3946
 30
-3.1217
 70
192
 0
VERTEX
 8
GRIGLIA
 10
18.29
 20
-19.3946
 30
-2.2216
 70
192
 0
VERTEX
 8
GRIGLIA
 10
18.29
 20
-19.3946
 30
-3.1217
 70
192
 0
VERTEX
 8
GRIGLIA
 10
18.29
 20
-49.4868
 30
-2.2216
 70
192
 0
VERTEX
 8
GRIGLIA
 10
18.29
 20
-49.4868
 30
-3.1217
 70
192
 0
VERTEX
 8
GRIGLIA
 10
41.7825
 20
-48.4834
 30
-2.2216
 70
192
 0
VERTEX
 8
GRIGLIA
 10
41.7825
 20
-48.4834
 30
-3.1217
 70
192
 0
VERTEX
 8
GRIGLIA
 10
13.9711
 20
-48.4834
 30
-2.2216
 70
192
 0
VERTEX
 8
GRIGLIA
 10
13.9711
 20
-48.4834
 30
-3.1217
 70
192
 0
VERTEX
 8
GRIGLIA
 10
37.6035
 20
-20.3986
 30
-2.4232
 70
192
 0
VERTEX
 8
GRIGLIA
 10
17.6033
 20
-48.4834
 30
-3.1217
 70
192
 0
VERTEX
 8
GRIGLIA
 10
37.6035
 20
-48.4834
 30
-2.4232
 70
192
 0
VERTEX
 8
GRIGLIA
 10
18.29
 20
-48.4834
 30
-3.1217
 70
192
 0
VERTEX
 8
GRIGLIA
 10
13.9711
 20
-20.3986
 30
-2.2216
 70
192
 0
VERTEX
 8
GRIGLIA
 10
13.9711
 20
-20.3986
 30
-3.1217
 70
192
 0
VERTEX
 8
GRIGLIA
 10
17.6033
 20
-20.3986
 30
-3.1217
 70
192
 0
VERTEX
 8
GRIGLIA
 10
38.2913
 20
-20.3986
 30
-2.4232
 70
192
 0
VERTEX
 8
GRIGLIA
 10
38.2913
 20
-48.4834
 30
-2.4232
 70
192
 0
VERTEX
 8
GRIGLIA
 10
41.7825
 20
-20.3986
 30
-2.2216
 70
192
 0
VERTEX
 8
GRIGLIA
 10
41.7825
 20
-20.3986
 30
-3.1217
 70
192
 0
VERTEX
 8
GRIGLIA
 10
18.29
 20
-20.3986
 30
-3.1217
 70
192
 0
VERTEX
 8
GRIGLIA
 10
17.6032
 20
-48.4834
 30
-2.4232
 70
192
 0
VERTEX
 8
GRIGLIA
 10
18.29
 20
-48.4834
 30
-2.4232
 70
192
 0
VERTEX
 8
GRIGLIA
 10
17.6032
 20
-20.3986
 30
-2.4232
 70
192
 0
VERTEX
 8
GRIGLIA
 10
18.29
 20
-20.3986
 30
-2.4232
 70
192
 0
VERTEX
 8
GRIGLIA
 10
20.1038
 20
-19.3946
 30
-2.2216
 70
192
 0
VERTEX
 8
GRIGLIA
 10
20.1038
 20
-19.3946
 30
-3.1217
 70
192
 0
VERTEX
 8
GRIGLIA
 10
20.1038
 20
-49.4868
 30
-2.2216
 70
192
 0
VERTEX
 8
GRIGLIA
 10
20.1038
 20
-49.4868
 30
-3.1217
 70
192
 0
VERTEX
 8
GRIGLIA
 10
20.1038
 20
-48.4834
 30
-3.1217
 70
192
 0
VERTEX
 8
GRIGLIA
 10
20.1038
 20
-20.3986
 30
-3.1217
 70
192
 0
VERTEX
 8
GRIGLIA
 10
20.7908
 20
-19.3946
 30
-2.2216
 70
192
 0
VERTEX
 8
GRIGLIA
 10
20.7908
 20
-19.3946
 30
-3.1217
 70
192
 0
VERTEX
 8
GRIGLIA
 10
20.7908
 20
-20.3986
 30
-3.1217
 70
192
 0
VERTEX
 8
GRIGLIA
 10
20.7908
 20
-48.4834
 30
-3.1217
 70
192
 0
VERTEX
 8
GRIGLIA
 10
20.7908
 20
-49.4868
 30
-2.2216
 70
192
 0
VERTEX
 8
GRIGLIA
 10
20.7908
 20
-49.4868
 30
-3.1217
 70
192
 0
VERTEX
 8
GRIGLIA
 10
22.6032
 20
-19.3946
 30
-2.2216
 70
192
 0
VERTEX
 8
GRIGLIA
 10
22.6032
 20
-19.3946
 30
-3.1217
 70
192
 0
VERTEX
 8
GRIGLIA
 10
22.6032
 20
-20.3986
 30
-3.1217
 70
192
 0
VERTEX
 8
GRIGLIA
 10
22.6032
 20
-48.4834
 30
-3.1217
 70
192
 0
VERTEX
 8
GRIGLIA
 10
22.6032
 20
-49.4868
 30
-2.2216
 70
192
 0
VERTEX
 8
GRIGLIA
 10
22.6032
 20
-49.4868
 30
-3.1217
 70
192
 0
VERTEX
 8
GRIGLIA
 10
23.2911
 20
-19.3946
 30
-2.2216
 70
192
 0
VERTEX
 8
GRIGLIA
 10
23.2911
 20
-19.3946
 30
-3.1217
 70
192
 0
VERTEX
 8
GRIGLIA
 10
23.2911
 20
-20.3986
 30
-3.1217
 70
192
 0
VERTEX
 8
GRIGLIA
 10
23.2911
 20
-48.4834
 30
-3.1217
 70
192
 0
VERTEX
 8
GRIGLIA
 10
23.2911
 20
-49.4868
 30
-2.2216
 70
192
 0
VERTEX
 8
GRIGLIA
 10
23.2911
 20
-49.4868
 30
-3.1217
 70
192
 0
VERTEX
 8
GRIGLIA
 10
25.1034
 20
-19.3946
 30
-2.2216
 70
192
 0
VERTEX
 8
GRIGLIA
 10
25.1034
 20
-19.3946
 30
-3.1217
 70
192
 0
VERTEX
 8
GRIGLIA
 10
25.1034
 20
-20.3986
 30
-3.1217
 70
192
 0
VERTEX
 8
GRIGLIA
 10
25.1034
 20
-48.4834
 30
-3.1217
 70
192
 0
VERTEX
 8
GRIGLIA
 10
25.1034
 20
-49.4868
 30
-2.2216
 70
192
 0
VERTEX
 8
GRIGLIA
 10
25.1034
 20
-49.4868
 30
-3.1217
 70
192
 0
VERTEX
 8
GRIGLIA
 10
25.7916
 20
-19.3946
 30
-2.2216
 70
192
 0
VERTEX
 8
GRIGLIA
 10
25.7916
 20
-19.3946
 30
-3.1217
 70
192
 0
VERTEX
 8
GRIGLIA
 10
25.7916
 20
-20.3986
 30
-3.1217
 70
192
 0
VERTEX
 8
GRIGLIA
 10
25.7916
 20
-48.4834
 30
-3.1217
 70
192
 0
VERTEX
 8
GRIGLIA
 10
25.7916
 20
-49.4868
 30
-2.2216
 70
192
 0
VERTEX
 8
GRIGLIA
 10
25.7916
 20
-49.4868
 30
-3.1217
 70
192
 0
VERTEX
 8
GRIGLIA
 10
27.6031
 20
-19.3946
 30
-2.2216
 70
192
 0
VERTEX
 8
GRIGLIA
 10
27.6031
 20
-19.3946
 30
-3.1217
 70
192
 0
VERTEX
 8
GRIGLIA
 10
27.6031
 20
-20.3986
 30
-3.1217
 70
192
 0
VERTEX
 8
GRIGLIA
 10
27.6031
 20
-48.4834
 30
-3.1217
 70
192
 0
VERTEX
 8
GRIGLIA
 10
27.6031
 20
-49.4868
 30
-2.2216
 70
192
 0
VERTEX
 8
GRIGLIA
 10
27.6031
 20
-49.4868
 30
-3.1217
 70
192
 0
VERTEX
 8
GRIGLIA
 10
28.2908
 20
-19.3946
 30
-2.2216
 70
192
 0
VERTEX
 8
GRIGLIA
 10
28.2908
 20
-19.3946
 30
-3.1217
 70
192
 0
VERTEX
 8
GRIGLIA
 10
28.2908
 20
-49.4868
 30
-2.2216
 70
192
 0
VERTEX
 8
GRIGLIA
 10
28.2908
 20
-49.4868
 30
-3.1217
 70
192
 0
VERTEX
 8
GRIGLIA
 10
28.2908
 20
-20.3986
 30
-3.1217
 70
192
 0
VERTEX
 8
GRIGLIA
 10
28.2908
 20
-48.4834
 30
-3.1217
 70
192
 0
VERTEX
 8
GRIGLIA
 10
30.1032
 20
-19.3946
 30
-2.2216
 70
192
 0
VERTEX
 8
GRIGLIA
 10
30.1032
 20
-19.3946
 30
-3.1217
 70
192
 0
VERTEX
 8
GRIGLIA
 10
30.1032
 20
-20.3986
 30
-3.1217
 70
192
 0
VERTEX
 8
GRIGLIA
 10
30.1032
 20
-48.4834
 30
-3.1217
 70
192
 0
VERTEX
 8
GRIGLIA
 10
30.1032
 20
-49.4868
 30
-3.1217
 70
192
 0
VERTEX
 8
GRIGLIA
 10
30.1032
 20
-49.4868
 30
-2.2216
 70
192
 0
VERTEX
 8
GRIGLIA
 10
30.7914
 20
-19.3946
 30
-2.2216
 70
192
 0
VERTEX
 8
GRIGLIA
 10
30.7914
 20
-19.3946
 30
-3.1217
 70
192
 0
VERTEX
 8
GRIGLIA
 10
30.7914
 20
-20.3986
 30
-3.1217
 70
192
 0
VERTEX
 8
GRIGLIA
 10
30.7914
 20
-48.4834
 30
-3.1217
 70
192
 0
VERTEX
 8
GRIGLIA
 10
30.7914
 20
-49.4868
 30
-3.1217
 70
192
 0
VERTEX
 8
GRIGLIA
 10
30.7914
 20
-49.4868
 30
-2.2216
 70
192
 0
VERTEX
 8
GRIGLIA
 10
32.6032
 20
-19.3946
 30
-2.2216
 70
192
 0
VERTEX
 8
GRIGLIA
 10
32.6032
 20
-19.3946
 30
-3.1217
 70
192
 0
VERTEX
 8
GRIGLIA
 10
32.6032
 20
-20.3986
 30
-3.1217
 70
192
 0
VERTEX
 8
GRIGLIA
 10
32.6032
 20
-48.4834
 30
-3.1217
 70
192
 0
VERTEX
 8
GRIGLIA
 10
32.6032
 20
-49.4868
 30
-3.1217
 70
192
 0
VERTEX
 8
GRIGLIA
 10
32.6032
 20
-49.4868
 30
-2.2216
 70
192
 0
VERTEX
 8
GRIGLIA
 10
33.291
 20
-19.3946
 30
-2.2216
 70
192
 0
VERTEX
 8
GRIGLIA
 10
33.291
 20
-19.3946
 30
-3.1217
 70
192
 0
VERTEX
 8
GRIGLIA
 10
33.291
 20
-20.3986
 30
-3.1217
 70
192
 0
VERTEX
 8
GRIGLIA
 10
33.291
 20
-48.4834
 30
-3.1217
 70
192
 0
VERTEX
 8
GRIGLIA
 10
33.291
 20
-49.4868
 30
-3.1217
 70
192
 0
VERTEX
 8
GRIGLIA
 10
33.291
 20
-49.4868
 30
-2.2216
 70
192
 0
VERTEX
 8
GRIGLIA
 10
35.1081
 20
-19.3946
 30
-2.2216
 70
192
 0
VERTEX
 8
GRIGLIA
 10
35.1081
 20
-19.3946
 30
-3.1217
 70
192
 0
VERTEX
 8
GRIGLIA
 10
35.1081
 20
-20.3986
 30
-3.1217
 70
192
 0
VERTEX
 8
GRIGLIA
 10
35.1081
 20
-48.4834
 30
-3.1217
 70
192
 0
VERTEX
 8
GRIGLIA
 10
35.1081
 20
-49.4868
 30
-3.1217
 70
192
 0
VERTEX
 8
GRIGLIA
 10
35.1081
 20
-49.4868
 30
-2.2216
 70
192
 0
VERTEX
 8
GRIGLIA
 10
35.7901
 20
-19.3946
 30
-2.2216
 70
192
 0
VERTEX
 8
GRIGLIA
 10
35.7901
 20
-19.3946
 30
-3.1217
 70
192
 0
VERTEX
 8
GRIGLIA
 10
35.7901
 20
-20.3986
 30
-3.1217
 70
192
 0
VERTEX
 8
GRIGLIA
 10
35.7901
 20
-48.4834
 30
-3.1217
 70
192
 0
VERTEX
 8
GRIGLIA
 10
35.7901
 20
-49.4868
 30
-3.1217
 70
192
 0
VERTEX
 8
GRIGLIA
 10
35.7901
 20
-49.4868
 30
-2.2216
 70
192
 0
VERTEX
 8
GRIGLIA
 10
37.6036
 20
-19.3946
 30
-2.2216
 70
192
 0
VERTEX
 8
GRIGLIA
 10
37.6036
 20
-19.3946
 30
-3.1217
 70
192
 0
VERTEX
 8
GRIGLIA
 10
37.6036
 20
-20.3986
 30
-3.1217
 70
192
 0
VERTEX
 8
GRIGLIA
 10
37.6036
 20
-48.4834
 30
-3.1217
 70
192
 0
VERTEX
 8
GRIGLIA
 10
37.6036
 20
-49.4868
 30
-3.1217
 70
192
 0
VERTEX
 8
GRIGLIA
 10
37.6036
 20
-49.4868
 30
-2.2216
 70
192
 0
VERTEX
 8
GRIGLIA
 10
38.2913
 20
-19.3946
 30
-2.2216
 70
192
 0
VERTEX
 8
GRIGLIA
 10
38.2913
 20
-19.3946
 30
-3.1217
 70
192
 0
VERTEX
 8
GRIGLIA
 10
38.2913
 20
-20.3986
 30
-3.1217
 70
192
 0
VERTEX
 8
GRIGLIA
 10
38.2913
 20
-48.4834
 30
-3.1217
 70
192
 0
VERTEX
 8
GRIGLIA
 10
38.2913
 20
-49.4868
 30
-3.1217
 70
192
 0
VERTEX
 8
GRIGLIA
 10
38.2913
 20
-49.4868
 30
-2.2216
 70
192
 0
VERTEX
 8
GRIGLIA
 10
25.1034
 20
-43.3429
 30
-3.1217
 70
192
 0
VERTEX
 8
GRIGLIA
 10
25.7916
 20
-43.3429
 30
-3.1217
 70
192
 0
VERTEX
 8
GRIGLIA
 10
27.6031
 20
-43.3429
 30
-3.1217
 70
192
 0
VERTEX
 8
GRIGLIA
 10
28.2908
 20
-43.3429
 30
-3.1217
 70
192
 0
VERTEX
 8
GRIGLIA
 10
30.1032
 20
-43.3429
 30
-3.1217
 70
192
 0
VERTEX
 8
GRIGLIA
 10
30.7914
 20
-43.3429
 30
-3.1217
 70
192
 0
VERTEX
 8
GRIGLIA
 10
20.1038
 20
-48.4834
 30
-2.4232
 70
192
 0
VERTEX
 8
GRIGLIA
 10
20.1038
 20
-20.3986
 30
-2.4232
 70
192
 0
VERTEX
 8
GRIGLIA
 10
20.7908
 20
-20.3986
 30
-2.4232
 70
192
 0
VERTEX
 8
GRIGLIA
 10
20.7908
 20
-48.4834
 30
-2.4232
 70
192
 0
VERTEX
 8
GRIGLIA
 10
22.6032
 20
-20.3986
 30
-2.4232
 70
192
 0
VERTEX
 8
GRIGLIA
 10
22.6032
 20
-48.4834
 30
-2.4232
 70
192
 0
VERTEX
 8
GRIGLIA
 10
23.291
 20
-20.3986
 30
-2.4232
 70
192
 0
VERTEX
 8
GRIGLIA
 10
23.291
 20
-48.4834
 30
-2.4232
 70
192
 0
VERTEX
 8
GRIGLIA
 10
25.1033
 20
-20.3986
 30
-2.4232
 70
192
 0
VERTEX
 8
GRIGLIA
 10
25.7916
 20
-20.3986
 30
-2.4232
 70
192
 0
VERTEX
 8
GRIGLIA
 10
25.1033
 20
-43.3428
 30
-2.4232
 70
192
 0
VERTEX
 8
GRIGLIA
 10
25.7916
 20
-43.3428
 30
-2.4232
 70
192
 0
VERTEX
 8
GRIGLIA
 10
27.603
 20
-20.3986
 30
-2.4232
 70
192
 0
VERTEX
 8
GRIGLIA
 10
28.2908
 20
-20.3986
 30
-2.4232
 70
192
 0
VERTEX
 8
GRIGLIA
 10
27.603
 20
-43.3428
 30
-2.4232
 70
192
 0
VERTEX
 8
GRIGLIA
 10
28.2908
 20
-43.3428
 30
-2.4232
 70
192
 0
VERTEX
 8
GRIGLIA
 10
30.1032
 20
-20.3986
 30
-2.4232
 70
192
 0
VERTEX
 8
GRIGLIA
 10
30.7913
 20
-20.3986
 30
-2.4232
 70
192
 0
VERTEX
 8
GRIGLIA
 10
30.1032
 20
-43.3428
 30
-2.4232
 70
192
 0
VERTEX
 8
GRIGLIA
 10
30.7913
 20
-43.3428
 30
-2.4232
 70
192
 0
VERTEX
 8
GRIGLIA
 10
32.6032
 20
-20.3986
 30
-2.4232
 70
192
 0
VERTEX
 8
GRIGLIA
 10
32.6032
 20
-48.4834
 30
-2.4232
 70
192
 0
VERTEX
 8
GRIGLIA
 10
33.291
 20
-20.3986
 30
-2.4232
 70
192
 0
VERTEX
 8
GRIGLIA
 10
33.291
 20
-48.4834
 30
-2.4232
 70
192
 0
VERTEX
 8
GRIGLIA
 10
35.108
 20
-20.3986
 30
-2.4232
 70
192
 0
VERTEX
 8
GRIGLIA
 10
35.108
 20
-48.4834
 30
-2.4232
 70
192
 0
VERTEX
 8
GRIGLIA
 10
35.79
 20
-20.3986
 30
-2.4232
 70
192
 0
VERTEX
 8
GRIGLIA
 10
35.79
 20
-48.4834
 30
-2.4232
 70
192
 0
VERTEX
 8
GRIGLIA
 10
16.9874
 20
-49.4868
 30
-2.2216
 70
192
 0
VERTEX
 8
GRIGLIA
 10
41.7825
 20
-48.9851
 30
-2.2216
 70
192
 0
VERTEX
 8
GRIGLIA
 10
38.9068
 20
-19.3946
 30
-2.2216
 70
192
 0
VERTEX
 8
GRIGLIA
 10
13.9711
 20
-19.8966
 30
-2.2216
 70
192
 0
VERTEX
 8
GRIGLIA
 10
17.9466
 20
-49.4868
 30
-2.2216
 70
192
 0
VERTEX
 8
GRIGLIA
 10
16.9874
 20
-19.3946
 30
-2.2216
 70
192
 0
VERTEX
 8
GRIGLIA
 10
17.9466
 20
-19.3946
 30
-2.2216
 70
192
 0
VERTEX
 8
GRIGLIA
 10
19.1969
 20
-49.4868
 30
-2.2216
 70
192
 0
VERTEX
 8
GRIGLIA
 10
41.7825
 20
-36.6136
 30
-2.2216
 70
192
 0
VERTEX
 8
GRIGLIA
 10
13.9711
 20
-48.9851
 30
-2.2216
 70
192
 0
VERTEX
 8
GRIGLIA
 10
13.9711
 20
-36.6136
 30
-2.2216
 70
192
 0
VERTEX
 8
GRIGLIA
 10
41.7825
 20
-19.8966
 30
-2.2216
 70
192
 0
VERTEX
 8
GRIGLIA
 10
19.1969
 20
-19.3946
 30
-2.2216
 70
192
 0
VERTEX
 8
GRIGLIA
 10
20.4473
 20
-49.4868
 30
-2.2216
 70
192
 0
VERTEX
 8
GRIGLIA
 10
20.4473
 20
-19.3946
 30
-2.2216
 70
192
 0
VERTEX
 8
GRIGLIA
 10
21.697
 20
-49.4868
 30
-2.2216
 70
192
 0
VERTEX
 8
GRIGLIA
 10
21.697
 20
-19.3946
 30
-2.2216
 70
192
 0
VERTEX
 8
GRIGLIA
 10
22.9472
 20
-49.4868
 30
-2.2216
 70
192
 0
VERTEX
 8
GRIGLIA
 10
22.9472
 20
-19.3946
 30
-2.2216
 70
192
 0
VERTEX
 8
GRIGLIA
 10
24.1972
 20
-49.4868
 30
-2.2216
 70
192
 0
VERTEX
 8
GRIGLIA
 10
24.1972
 20
-19.3946
 30
-2.2216
 70
192
 0
VERTEX
 8
GRIGLIA
 10
25.4475
 20
-49.4868
 30
-2.2216
 70
192
 0
VERTEX
 8
GRIGLIA
 10
25.4475
 20
-19.3946
 30
-2.2216
 70
192
 0
VERTEX
 8
GRIGLIA
 10
26.6973
 20
-49.4868
 30
-2.2216
 70
192
 0
VERTEX
 8
GRIGLIA
 10
26.6973
 20
-19.3946
 30
-2.2216
 70
192
 0
VERTEX
 8
GRIGLIA
 10
27.9469
 20
-49.4868
 30
-2.2216
 70
192
 0
VERTEX
 8
GRIGLIA
 10
27.9469
 20
-19.3946
 30
-2.2216
 70
192
 0
VERTEX
 8
GRIGLIA
 10
29.197
 20
-49.4868
 30
-2.2216
 70
192
 0
VERTEX
 8
GRIGLIA
 10
29.197
 20
-19.3946
 30
-2.2216
 70
192
 0
VERTEX
 8
GRIGLIA
 10
30.4473
 20
-49.4868
 30
-2.2216
 70
192
 0
VERTEX
 8
GRIGLIA
 10
30.4473
 20
-19.3946
 30
-2.2216
 70
192
 0
VERTEX
 8
GRIGLIA
 10
31.6973
 20
-49.4868
 30
-2.2216
 70
192
 0
VERTEX
 8
GRIGLIA
 10
31.6973
 20
-19.3946
 30
-2.2216
 70
192
 0
VERTEX
 8
GRIGLIA
 10
32.9471
 20
-49.4868
 30
-2.2216
 70
192
 0
VERTEX
 8
GRIGLIA
 10
32.9471
 20
-19.3946
 30
-2.2216
 70
192
 0
VERTEX
 8
GRIGLIA
 10
34.1995
 20
-49.4868
 30
-2.2216
 70
192
 0
VERTEX
 8
GRIGLIA
 10
34.1995
 20
-19.3946
 30
-2.2216
 70
192
 0
VERTEX
 8
GRIGLIA
 10
35.4491
 20
-49.4868
 30
-2.2216
 70
192
 0
VERTEX
 8
GRIGLIA
 10
35.4491
 20
-19.3946
 30
-2.2216
 70
192
 0
VERTEX
 8
GRIGLIA
 10
36.6968
 20
-49.4868
 30
-2.2216
 70
192
 0
VERTEX
 8
GRIGLIA
 10
36.6968
 20
-19.3946
 30
-2.2216
 70
192
 0
VERTEX
 8
GRIGLIA
 10
37.9475
 20
-49.4868
 30
-2.2216
 70
192
 0
VERTEX
 8
GRIGLIA
 10
37.9475
 20
-19.3946
 30
-2.2216
 70
192
 0
VERTEX
 8
GRIGLIA
 10
38.9068
 20
-49.4868
 30
-2.2216
 70
192
 0
VERTEX
 8
GRIGLIA
 10
29.4966
 20
-44.3383
 30
-3.1217
 70
192
 0
VERTEX
 8
GRIGLIA
 10
26.3963
 20
-44.3383
 30
-3.1217
 70
192
 0
VERTEX
 8
GRIGLIA
 10
26.3963
 20
-48.3573
 30
-3.1217
 70
192
 0
VERTEX
 8
GRIGLIA
 10
29.4966
 20
-48.3573
 30
-3.1217
 70
192
 0
VERTEX
 8
GRIGLIA
 10
29.4966
 20
-44.3383
 30
-3.2314
 70
192
 0
VERTEX
 8
GRIGLIA
 10
26.3963
 20
-44.3384
 30
-3.2314
 70
192
 0
VERTEX
 8
GRIGLIA
 10
26.3963
 20
-48.3573
 30
-3.2314
 70
192
 0
VERTEX
 8
GRIGLIA
 10
29.4966
 20
-48.3573
 30
-3.2314
 70
192
 0
VERTEX
 8
GRIGLIA
 10
28.9562
 20
-44.8881
 30
-3.2314
 70
192
 0
VERTEX
 8
GRIGLIA
 10
26.937
 20
-44.8881
 30
-3.2314
 70
192
 0
VERTEX
 8
GRIGLIA
 10
26.937
 20
-45.7893
 30
-3.2314
 70
192
 0
VERTEX
 8
GRIGLIA
 10
28.9562
 20
-45.7893
 30
-3.2314
 70
192
 0
VERTEX
 8
GRIGLIA
 10
28.7562
 20
-44.9513
 30
-3.1292
 70
192
 0
VERTEX
 8
GRIGLIA
 10
27.137
 20
-44.9514
 30
-3.1292
 70
192
 0
VERTEX
 8
GRIGLIA
 10
27.137
 20
-45.7892
 30
-3.1292
 70
192
 0
VERTEX
 8
GRIGLIA
 10
28.7562
 20
-45.7892
 30
-3.1292
 70
192
 0
VERTEX
 8
GRIGLIA
 10
40.1026
 20
-49.4868
 30
-2.4122
 70
192
 0
VERTEX
 8
GRIGLIA
 10
40.1026
 20
-49.4868
 30
-3.1217
 70
192
 0
VERTEX
 8
GRIGLIA
 10
40.1026
 20
-19.3946
 30
-2.2216
 70
192
 0
VERTEX
 8
GRIGLIA
 10
40.1026
 20
-19.3946
 30
-2.4122
 70
192
 0
VERTEX
 8
GRIGLIA
 10
40.1026
 20
-48.4834
 30
-3.1217
 70
192
 0
VERTEX
 8
GRIGLIA
 10
40.1026
 20
-19.3946
 30
-3.1217
 70
192
 0
VERTEX
 8
GRIGLIA
 10
40.1026
 20
-49.4868
 30
-2.2216
 70
192
 0
VERTEX
 8
GRIGLIA
 10
40.1026
 20
-20.3986
 30
-3.1217
 70
192
 0
VERTEX
 8
GRIGLIA
 10
40.7908
 20
-19.3946
 30
-3.1217
 70
192
 0
VERTEX
 8
GRIGLIA
 10
40.7908
 20
-19.3946
 30
-2.6909
 70
192
 0
VERTEX
 8
GRIGLIA
 10
40.7908
 20
-20.3986
 30
-3.1217
 70
192
 0
VERTEX
 8
GRIGLIA
 10
40.7908
 20
-48.4834
 30
-3.1217
 70
192
 0
VERTEX
 8
GRIGLIA
 10
40.7908
 20
-19.3946
 30
-2.2216
 70
192
 0
VERTEX
 8
GRIGLIA
 10
40.7908
 20
-49.4868
 30
-2.2216
 70
192
 0
VERTEX
 8
GRIGLIA
 10
40.7908
 20
-49.4868
 30
-2.6909
 70
192
 0
VERTEX
 8
GRIGLIA
 10
40.7908
 20
-49.4868
 30
-3.1217
 70
192
 0
VERTEX
 8
GRIGLIA
 10
15.1026
 20
-49.4868
 30
-2.2216
 70
192
 0
VERTEX
 8
GRIGLIA
 10
15.1026
 20
-49.4868
 30
-2.7235
 70
192
 0
VERTEX
 8
GRIGLIA
 10
15.1026
 20
-19.3946
 30
-2.2216
 70
192
 0
VERTEX
 8
GRIGLIA
 10
15.1026
 20
-49.4868
 30
-3.1217
 70
192
 0
VERTEX
 8
GRIGLIA
 10
15.1026
 20
-20.3986
 30
-3.1217
 70
192
 0
VERTEX
 8
GRIGLIA
 10
15.1026
 20
-19.3946
 30
-3.1217
 70
192
 0
VERTEX
 8
GRIGLIA
 10
15.1026
 20
-19.3946
 30
-2.7235
 70
192
 0
VERTEX
 8
GRIGLIA
 10
15.1026
 20
-48.4834
 30
-3.1217
 70
192
 0
VERTEX
 8
GRIGLIA
 10
15.7908
 20
-19.3946
 30
-2.2216
 70
192
 0
VERTEX
 8
GRIGLIA
 10
15.7908
 20
-49.4868
 30
-2.2216
 70
192
 0
VERTEX
 8
GRIGLIA
 10
15.7908
 20
-49.4868
 30
-2.5663
 70
192
 0
VERTEX
 8
GRIGLIA
 10
15.7908
 20
-19.3946
 30
-2.5663
 70
192
 0
VERTEX
 8
GRIGLIA
 10
15.7908
 20
-49.4868
 30
-3.1217
 70
192
 0
VERTEX
 8
GRIGLIA
 10
15.7908
 20
-20.3986
 30
-3.1217
 70
192
 0
VERTEX
 8
GRIGLIA
 10
15.7908
 20
-19.3946
 30
-3.1217
 70
192
 0
VERTEX
 8
GRIGLIA
 10
15.7908
 20
-48.4834
 30
-3.1217
 70
192
 0
VERTEX
 8
GRIGLIA
 10
15.1028
 20
-20.3983
 30
-2.4236
 70
192
 0
VERTEX
 8
GRIGLIA
 10
15.1028
 20
-48.4835
 30
-2.4236
 70
192
 0
VERTEX
 8
GRIGLIA
 10
15.7908
 20
-20.3983
 30
-2.4236
 70
192
 0
VERTEX
 8
GRIGLIA
 10
15.7908
 20
-48.4835
 30
-2.4236
 70
192
 0
VERTEX
 8
GRIGLIA
 10
40.1028
 20
-48.4835
 30
-2.4236
 70
192
 0
VERTEX
 8
GRIGLIA
 10
40.1028
 20
-20.3983
 30
-2.4236
 70
192
 0
VERTEX
 8
GRIGLIA
 10
40.7908
 20
-20.3983
 30
-2.4236
 70
192
 0
VERTEX
 8
GRIGLIA
 10
40.7908
 20
-48.4835
 30
-2.4236
 70
192
 0
VERTEX
 8
GRIGLIA
 10
40.981
 20
-49.4868
 30
-2.2216
 70
192
 0
VERTEX
 8
GRIGLIA
 10
40.981
 20
-19.3946
 30
-2.2216
 70
192
 0
VERTEX
 8
GRIGLIA
 10
40.981
 20
-49.4868
 30
-3.1217
 70
192
 0
VERTEX
 8
GRIGLIA
 10
41.081
 20
-49.4868
 30
-2.2216
 70
192
 0
VERTEX
 8
GRIGLIA
 10
41.081
 20
-49.4868
 30
-3.1217
 70
192
 0
VERTEX
 8
GRIGLIA
 10
41.081
 20
-19.3946
 30
-2.2216
 70
192
 0
VERTEX
 8
GRIGLIA
 10
14.3708
 20
-19.3946
 30
-2.2216
 70
192
 0
VERTEX
 8
GRIGLIA
 10
14.3708
 20
-49.4868
 30
-2.2216
 70
192
 0
VERTEX
 8
GRIGLIA
 10
14.3708
 20
-49.4868
 30
-3.1217
 70
192
 0
VERTEX
 8
GRIGLIA
 10
14.2708
 20
-49.4868
 30
-3.1217
 70
192
 0
VERTEX
 8
GRIGLIA
 10
14.2708
 20
-49.4868
 30
-2.2216
 70
192
 0
VERTEX
 8
GRIGLIA
 10
14.2708
 20
-19.3946
 30
-2.2216
 70
192
 0
VERTEX
 8
GRIGLIA
 10
14.2708
 20
-20.3986
 30
-3.1217
 70
192
 0
VERTEX
 8
GRIGLIA
 10
14.2708
 20
-19.3946
 30
-3.1217
 70
192
 0
VERTEX
 8
GRIGLIA
 10
14.2708
 20
-48.4834
 30
-3.1217
 70
192
 0
VERTEX
 8
GRIGLIA
 10
14.3708
 20
-20.3986
 30
-3.1217
 70
192
 0
VERTEX
 8
GRIGLIA
 10
14.3708
 20
-19.3946
 30
-3.1217
 70
192
 0
VERTEX
 8
GRIGLIA
 10
14.3708
 20
-48.4834
 30
-3.1217
 70
192
 0
VERTEX
 8
GRIGLIA
 10
40.981
 20
-20.3986
 30
-3.1217
 70
192
 0
VERTEX
 8
GRIGLIA
 10
40.981
 20
-48.4834
 30
-3.1217
 70
192
 0
VERTEX
 8
GRIGLIA
 10
40.981
 20
-19.3946
 30
-3.1217
 70
192
 0
VERTEX
 8
GRIGLIA
 10
41.081
 20
-19.3946
 30
-3.1217
 70
192
 0
VERTEX
 8
GRIGLIA
 10
41.081
 20
-20.3986
 30
-3.1217
 70
192
 0
VERTEX
 8
GRIGLIA
 10
41.081
 20
-48.4834
 30
-3.1217
 70
192
 0
VERTEX
 8
GRIGLIA
 10
0
 20
0
 30
0
 70
128
 71
167
 72
9
 73
10
 74
10
 0
VERTEX
 8
GRIGLIA
 10
0
 20
0
 30
0
 70
128
 71
167
 72
10
 73
255
 74
253
 0
VERTEX
 8
GRIGLIA
 10
0
 20
0
 30
0
 70
128
 71
167
 72
253
 73
252
 74
252
 0
VERTEX
 8
GRIGLIA
 10
0
 20
0
 30
0
 70
128
 71
253
 72
244
 73
243
 74
252
 0
VERTEX
 8
GRIGLIA
 10
0
 20
0
 30
0
 70
128
 71
244
 72
253
 73
255
 74
246
 0
VERTEX
 8
GRIGLIA
 10
0
 20
0
 30
0
 70
128
 71
274
 72
243
 73
244
 74
275
 0
VERTEX
 8
GRIGLIA
 10
0
 20
0
 30
0
 70
128
 71
244
 72
246
 73
275
 74
275
 0
VERTEX
 8
GRIGLIA
 10
0
 20
0
 30
0
 70
128
 71
210
 72
233
 73
227
 74
227
 0
VERTEX
 8
GRIGLIA
 10
0
 20
0
 30
0
 70
128
 71
210
 72
227
 73
228
 74
131
 0
VERTEX
 8
GRIGLIA
 10
0
 20
0
 30
0
 70
128
 71
210
 72
131
 73
132
 74
132
 0
VERTEX
 8
GRIGLIA
 10
0
 20
0
 30
0
 70
128
 71
227
 72
233
 73
240
 74
241
 0
VERTEX
 8
GRIGLIA
 10
0
 20
0
 30
0
 70
128
 71
241
 72
242
 73
228
 74
227
 0
VERTEX
 8
GRIGLIA
 10
0
 20
0
 30
0
 70
128
 71
230
 72
236
 73
239
 74
229
 0
VERTEX
 8
GRIGLIA
 10
0
 20
0
 30
0
 70
128
 71
236
 72
230
 73
232
 74
235
 0
VERTEX
 8
GRIGLIA
 10
0
 20
0
 30
0
 70
128
 71
268
 72
239
 73
236
 74
287
 0
VERTEX
 8
GRIGLIA
 10
0
 20
0
 30
0
 70
128
 71
236
 72
235
 73
287
 74
287
 0
VERTEX
 8
GRIGLIA
 10
0
 20
0
 30
0
 70
128
 71
169
 72
127
 73
128
 74
128
 0
VERTEX
 8
GRIGLIA
 10
0
 20
0
 30
0
 70
128
 71
232
 72
230
 73
169
 74
128
 0
VERTEX
 8
GRIGLIA
 10
0
 20
0
 30
0
 70
128
 71
169
 72
230
 73
229
 74
229
 0
VERTEX
 8
GRIGLIA
 10
0
 20
0
 30
0
 70
128
 71
283
 72
248
 73
249
 74
249
 0
VERTEX
 8
GRIGLIA
 10
0
 20
0
 30
0
 70
128
 71
273
 72
283
 73
249
 74
245
 0
VERTEX
 8
GRIGLIA
 10
0
 20
0
 30
0
 70
128
 71
172
 72
251
 73
254
 74
254
 0
VERTEX
 8
GRIGLIA
 10
0
 20
0
 30
0
 70
128
 71
172
 72
254
 73
257
 74
12
 0
VERTEX
 8
GRIGLIA
 10
0
 20
0
 30
0
 70
128
 71
172
 72
12
 73
11
 74
11
 0
VERTEX
 8
GRIGLIA
 10
0
 20
0
 30
0
 70
128
 71
249
 72
248
 73
257
 74
254
 0
VERTEX
 8
GRIGLIA
 10
0
 20
0
 30
0
 70
128
 71
254
 72
251
 73
245
 74
249
 0
VERTEX
 8
GRIGLIA
 10
0
 20
0
 30
0
 70
128
 71
269
 72
242
 73
241
 74
241
 0
VERTEX
 8
GRIGLIA
 10
0
 20
0
 30
0
 70
128
 71
267
 72
269
 73
241
 74
240
 0
VERTEX
 8
GRIGLIA
 10
0
 20
0
 30
0
 70
128
 71
275
 72
276
 73
277
 74
274
 0
VERTEX
 8
GRIGLIA
 10
0
 20
0
 30
0
 70
128
 71
4
 72
168
 73
3
 74
3
 0
VERTEX
 8
GRIGLIA
 10
0
 20
0
 30
0
 70
128
 71
168
 72
17
 73
18
 74
18
 0
VERTEX
 8
GRIGLIA
 10
0
 20
0
 30
0
 70
128
 71
168
 72
18
 73
3
 74
3
 0
VERTEX
 8
GRIGLIA
 10
0
 20
0
 30
0
 70
128
 71
285
 72
237
 73
238
 74
286
 0
VERTEX
 8
GRIGLIA
 10
0
 20
0
 30
0
 70
128
 71
8
 72
170
 73
7
 74
7
 0
VERTEX
 8
GRIGLIA
 10
0
 20
0
 30
0
 70
128
 71
170
 72
25
 73
26
 74
26
 0
VERTEX
 8
GRIGLIA
 10
0
 20
0
 30
0
 70
128
 71
170
 72
26
 73
7
 74
7
 0
VERTEX
 8
GRIGLIA
 10
0
 20
0
 30
0
 70
128
 71
7
 72
26
 73
279
 74
280
 0
VERTEX
 8
GRIGLIA
 10
0
 20
0
 30
0
 70
128
 71
9
 72
171
 73
10
 74
10
 0
VERTEX
 8
GRIGLIA
 10
0
 20
0
 30
0
 70
128
 71
171
 72
15
 73
16
 74
16
 0
VERTEX
 8
GRIGLIA
 10
0
 20
0
 30
0
 70
128
 71
171
 72
16
 73
10
 74
10
 0
VERTEX
 8
GRIGLIA
 10
0
 20
0
 30
0
 70
128
 71
278
 72
8
 73
7
 74
280
 0
VERTEX
 8
GRIGLIA
 10
0
 20
0
 30
0
 70
128
 71
10
 72
16
 73
24
 74
22
 0
VERTEX
 8
GRIGLIA
 10
0
 20
0
 30
0
 70
128
 71
13
 72
173
 73
14
 74
14
 0
VERTEX
 8
GRIGLIA
 10
0
 20
0
 30
0
 70
128
 71
173
 72
11
 73
12
 74
12
 0
VERTEX
 8
GRIGLIA
 10
0
 20
0
 30
0
 70
128
 71
173
 72
12
 73
14
 74
14
 0
VERTEX
 8
GRIGLIA
 10
0
 20
0
 30
0
 70
128
 71
15
 72
174
 73
16
 74
16
 0
VERTEX
 8
GRIGLIA
 10
0
 20
0
 30
0
 70
128
 71
174
 72
39
 73
40
 74
40
 0
VERTEX
 8
GRIGLIA
 10
0
 20
0
 30
0
 70
128
 71
174
 72
40
 73
16
 74
16
 0
VERTEX
 8
GRIGLIA
 10
0
 20
0
 30
0
 70
128
 71
16
 72
40
 73
41
 74
24
 0
VERTEX
 8
GRIGLIA
 10
0
 20
0
 30
0
 70
128
 71
17
 72
175
 73
18
 74
18
 0
VERTEX
 8
GRIGLIA
 10
0
 20
0
 30
0
 70
128
 71
175
 72
30
 73
31
 74
31
 0
VERTEX
 8
GRIGLIA
 10
0
 20
0
 30
0
 70
128
 71
175
 72
31
 73
18
 74
18
 0
VERTEX
 8
GRIGLIA
 10
0
 20
0
 30
0
 70
128
 71
19
 72
176
 73
20
 74
20
 0
VERTEX
 8
GRIGLIA
 10
0
 20
0
 30
0
 70
128
 71
176
 72
2
 73
1
 74
1
 0
VERTEX
 8
GRIGLIA
 10
0
 20
0
 30
0
 70
128
 71
176
 72
1
 73
20
 74
20
 0
VERTEX
 8
GRIGLIA
 10
0
 20
0
 30
0
 70
128
 71
20
 72
1
 73
276
 74
281
 0
VERTEX
 8
GRIGLIA
 10
0
 20
0
 30
0
 70
128
 71
34
 72
36
 73
35
 74
33
 0
VERTEX
 8
GRIGLIA
 10
0
 20
0
 30
0
 70
128
 71
18
 72
31
 73
289
 74
290
 0
VERTEX
 8
GRIGLIA
 10
0
 20
0
 30
0
 70
128
 71
25
 72
177
 73
26
 74
26
 0
VERTEX
 8
GRIGLIA
 10
0
 20
0
 30
0
 70
128
 71
177
 72
19
 73
20
 74
20
 0
VERTEX
 8
GRIGLIA
 10
0
 20
0
 30
0
 70
128
 71
177
 72
20
 73
26
 74
26
 0
VERTEX
 8
GRIGLIA
 10
0
 20
0
 30
0
 70
128
 71
26
 72
20
 73
281
 74
279
 0
VERTEX
 8
GRIGLIA
 10
0
 20
0
 30
0
 70
128
 71
30
 72
178
 73
31
 74
31
 0
VERTEX
 8
GRIGLIA
 10
0
 20
0
 30
0
 70
128
 71
178
 72
6
 73
5
 74
5
 0
VERTEX
 8
GRIGLIA
 10
0
 20
0
 30
0
 70
128
 71
178
 72
5
 73
31
 74
31
 0
VERTEX
 8
GRIGLIA
 10
0
 20
0
 30
0
 70
128
 71
32
 72
14
 73
12
 74
27
 0
VERTEX
 8
GRIGLIA
 10
0
 20
0
 30
0
 70
128
 71
31
 72
5
 73
288
 74
289
 0
VERTEX
 8
GRIGLIA
 10
0
 20
0
 30
0
 70
128
 71
24
 72
34
 73
33
 74
22
 0
VERTEX
 8
GRIGLIA
 10
0
 20
0
 30
0
 70
128
 71
22
 72
33
 73
35
 74
27
 0
VERTEX
 8
GRIGLIA
 10
0
 20
0
 30
0
 70
128
 71
27
 72
35
 73
36
 74
32
 0
VERTEX
 8
GRIGLIA
 10
0
 20
0
 30
0
 70
128
 71
32
 72
36
 73
34
 74
24
 0
VERTEX
 8
GRIGLIA
 10
0
 20
0
 30
0
 70
128
 71
37
 72
179
 73
38
 74
38
 0
VERTEX
 8
GRIGLIA
 10
0
 20
0
 30
0
 70
128
 71
179
 72
13
 73
14
 74
14
 0
VERTEX
 8
GRIGLIA
 10
0
 20
0
 30
0
 70
128
 71
179
 72
14
 73
38
 74
38
 0
VERTEX
 8
GRIGLIA
 10
0
 20
0
 30
0
 70
128
 71
39
 72
180
 73
40
 74
40
 0
VERTEX
 8
GRIGLIA
 10
0
 20
0
 30
0
 70
128
 71
180
 72
47
 73
48
 74
48
 0
VERTEX
 8
GRIGLIA
 10
0
 20
0
 30
0
 70
128
 71
180
 72
48
 73
40
 74
40
 0
VERTEX
 8
GRIGLIA
 10
0
 20
0
 30
0
 70
128
 71
40
 72
48
 73
46
 74
41
 0
VERTEX
 8
GRIGLIA
 10
0
 20
0
 30
0
 70
128
 71
42
 72
32
 73
24
 74
41
 0
VERTEX
 8
GRIGLIA
 10
0
 20
0
 30
0
 70
128
 71
38
 72
14
 73
32
 74
42
 0
VERTEX
 8
GRIGLIA
 10
0
 20
0
 30
0
 70
128
 71
43
 72
181
 73
44
 74
44
 0
VERTEX
 8
GRIGLIA
 10
0
 20
0
 30
0
 70
128
 71
181
 72
37
 73
38
 74
38
 0
VERTEX
 8
GRIGLIA
 10
0
 20
0
 30
0
 70
128
 71
181
 72
38
 73
44
 74
44
 0
VERTEX
 8
GRIGLIA
 10
0
 20
0
 30
0
 70
128
 71
141
 72
140
 73
139
 74
142
 0
VERTEX
 8
GRIGLIA
 10
0
 20
0
 30
0
 70
128
 71
44
 72
38
 73
42
 74
45
 0
VERTEX
 8
GRIGLIA
 10
0
 20
0
 30
0
 70
128
 71
47
 72
182
 73
48
 74
48
 0
VERTEX
 8
GRIGLIA
 10
0
 20
0
 30
0
 70
128
 71
182
 72
53
 73
54
 74
54
 0
VERTEX
 8
GRIGLIA
 10
0
 20
0
 30
0
 70
128
 71
182
 72
54
 73
48
 74
48
 0
VERTEX
 8
GRIGLIA
 10
0
 20
0
 30
0
 70
128
 71
48
 72
54
 73
52
 74
46
 0
VERTEX
 8
GRIGLIA
 10
0
 20
0
 30
0
 70
128
 71
49
 72
183
 73
50
 74
50
 0
VERTEX
 8
GRIGLIA
 10
0
 20
0
 30
0
 70
128
 71
183
 72
43
 73
44
 74
44
 0
VERTEX
 8
GRIGLIA
 10
0
 20
0
 30
0
 70
128
 71
183
 72
44
 73
50
 74
50
 0
VERTEX
 8
GRIGLIA
 10
0
 20
0
 30
0
 70
128
 71
51
 72
45
 73
46
 74
52
 0
VERTEX
 8
GRIGLIA
 10
0
 20
0
 30
0
 70
128
 71
50
 72
44
 73
45
 74
51
 0
VERTEX
 8
GRIGLIA
 10
0
 20
0
 30
0
 70
128
 71
53
 72
184
 73
54
 74
54
 0
VERTEX
 8
GRIGLIA
 10
0
 20
0
 30
0
 70
128
 71
184
 72
59
 73
60
 74
60
 0
VERTEX
 8
GRIGLIA
 10
0
 20
0
 30
0
 70
128
 71
184
 72
60
 73
54
 74
54
 0
VERTEX
 8
GRIGLIA
 10
0
 20
0
 30
0
 70
128
 71
54
 72
60
 73
58
 74
52
 0
VERTEX
 8
GRIGLIA
 10
0
 20
0
 30
0
 70
128
 71
55
 72
185
 73
56
 74
56
 0
VERTEX
 8
GRIGLIA
 10
0
 20
0
 30
0
 70
128
 71
185
 72
49
 73
50
 74
50
 0
VERTEX
 8
GRIGLIA
 10
0
 20
0
 30
0
 70
128
 71
185
 72
50
 73
56
 74
56
 0
VERTEX
 8
GRIGLIA
 10
0
 20
0
 30
0
 70
128
 71
145
 72
143
 73
144
 74
146
 0
VERTEX
 8
GRIGLIA
 10
0
 20
0
 30
0
 70
128
 71
56
 72
50
 73
51
 74
57
 0
VERTEX
 8
GRIGLIA
 10
0
 20
0
 30
0
 70
128
 71
59
 72
186
 73
60
 74
60
 0
VERTEX
 8
GRIGLIA
 10
0
 20
0
 30
0
 70
128
 71
186
 72
65
 73
66
 74
66
 0
VERTEX
 8
GRIGLIA
 10
0
 20
0
 30
0
 70
128
 71
186
 72
66
 73
60
 74
60
 0
VERTEX
 8
GRIGLIA
 10
0
 20
0
 30
0
 70
128
 71
60
 72
66
 73
64
 74
58
 0
VERTEX
 8
GRIGLIA
 10
0
 20
0
 30
0
 70
128
 71
61
 72
187
 73
62
 74
62
 0
VERTEX
 8
GRIGLIA
 10
0
 20
0
 30
0
 70
128
 71
187
 72
55
 73
56
 74
56
 0
VERTEX
 8
GRIGLIA
 10
0
 20
0
 30
0
 70
128
 71
187
 72
56
 73
62
 74
62
 0
VERTEX
 8
GRIGLIA
 10
0
 20
0
 30
0
 70
128
 71
62
 72
56
 73
57
 74
63
 0
VERTEX
 8
GRIGLIA
 10
0
 20
0
 30
0
 70
128
 71
65
 72
188
 73
66
 74
66
 0
VERTEX
 8
GRIGLIA
 10
0
 20
0
 30
0
 70
128
 71
188
 72
71
 73
72
 74
72
 0
VERTEX
 8
GRIGLIA
 10
0
 20
0
 30
0
 70
128
 71
188
 72
72
 73
66
 74
66
 0
VERTEX
 8
GRIGLIA
 10
0
 20
0
 30
0
 70
128
 71
66
 72
72
 73
70
 74
64
 0
VERTEX
 8
GRIGLIA
 10
0
 20
0
 30
0
 70
128
 71
67
 72
189
 73
68
 74
68
 0
VERTEX
 8
GRIGLIA
 10
0
 20
0
 30
0
 70
128
 71
189
 72
61
 73
62
 74
62
 0
VERTEX
 8
GRIGLIA
 10
0
 20
0
 30
0
 70
128
 71
189
 72
62
 73
68
 74
68
 0
VERTEX
 8
GRIGLIA
 10
0
 20
0
 30
0
 70
128
 71
148
 72
147
 73
149
 74
150
 0
VERTEX
 8
GRIGLIA
 10
0
 20
0
 30
0
 70
128
 71
68
 72
62
 73
63
 74
69
 0
VERTEX
 8
GRIGLIA
 10
0
 20
0
 30
0
 70
128
 71
71
 72
190
 73
72
 74
72
 0
VERTEX
 8
GRIGLIA
 10
0
 20
0
 30
0
 70
128
 71
190
 72
77
 73
78
 74
78
 0
VERTEX
 8
GRIGLIA
 10
0
 20
0
 30
0
 70
128
 71
190
 72
78
 73
72
 74
72
 0
VERTEX
 8
GRIGLIA
 10
0
 20
0
 30
0
 70
128
 71
72
 72
78
 73
76
 74
70
 0
VERTEX
 8
GRIGLIA
 10
0
 20
0
 30
0
 70
128
 71
73
 72
191
 73
74
 74
74
 0
VERTEX
 8
GRIGLIA
 10
0
 20
0
 30
0
 70
128
 71
191
 72
67
 73
68
 74
68
 0
VERTEX
 8
GRIGLIA
 10
0
 20
0
 30
0
 70
128
 71
191
 72
68
 73
74
 74
74
 0
VERTEX
 8
GRIGLIA
 10
0
 20
0
 30
0
 70
128
 71
75
 72
69
 73
134
 74
135
 0
VERTEX
 8
GRIGLIA
 10
0
 20
0
 30
0
 70
128
 71
74
 72
68
 73
69
 74
75
 0
VERTEX
 8
GRIGLIA
 10
0
 20
0
 30
0
 70
128
 71
77
 72
192
 73
78
 74
78
 0
VERTEX
 8
GRIGLIA
 10
0
 20
0
 30
0
 70
128
 71
192
 72
81
 73
82
 74
82
 0
VERTEX
 8
GRIGLIA
 10
0
 20
0
 30
0
 70
128
 71
192
 72
82
 73
78
 74
78
 0
VERTEX
 8
GRIGLIA
 10
0
 20
0
 30
0
 70
128
 71
78
 72
82
 73
84
 74
76
 0
VERTEX
 8
GRIGLIA
 10
0
 20
0
 30
0
 70
128
 71
79
 72
193
 73
80
 74
80
 0
VERTEX
 8
GRIGLIA
 10
0
 20
0
 30
0
 70
128
 71
193
 72
73
 73
74
 74
74
 0
VERTEX
 8
GRIGLIA
 10
0
 20
0
 30
0
 70
128
 71
193
 72
74
 73
80
 74
80
 0
VERTEX
 8
GRIGLIA
 10
0
 20
0
 30
0
 70
128
 71
81
 72
194
 73
82
 74
82
 0
VERTEX
 8
GRIGLIA
 10
0
 20
0
 30
0
 70
128
 71
194
 72
90
 73
89
 74
89
 0
VERTEX
 8
GRIGLIA
 10
0
 20
0
 30
0
 70
128
 71
194
 72
89
 73
82
 74
82
 0
VERTEX
 8
GRIGLIA
 10
0
 20
0
 30
0
 70
128
 71
152
 72
151
 73
153
 74
154
 0
VERTEX
 8
GRIGLIA
 10
0
 20
0
 30
0
 70
128
 71
80
 72
74
 73
75
 74
83
 0
VERTEX
 8
GRIGLIA
 10
0
 20
0
 30
0
 70
128
 71
82
 72
89
 73
88
 74
84
 0
VERTEX
 8
GRIGLIA
 10
0
 20
0
 30
0
 70
128
 71
85
 72
195
 73
86
 74
86
 0
VERTEX
 8
GRIGLIA
 10
0
 20
0
 30
0
 70
128
 71
195
 72
79
 73
80
 74
80
 0
VERTEX
 8
GRIGLIA
 10
0
 20
0
 30
0
 70
128
 71
195
 72
80
 73
86
 74
86
 0
VERTEX
 8
GRIGLIA
 10
0
 20
0
 30
0
 70
128
 71
87
 72
83
 73
136
 74
137
 0
VERTEX
 8
GRIGLIA
 10
0
 20
0
 30
0
 70
128
 71
89
 72
95
 73
94
 74
88
 0
VERTEX
 8
GRIGLIA
 10
0
 20
0
 30
0
 70
128
 71
86
 72
80
 73
83
 74
87
 0
VERTEX
 8
GRIGLIA
 10
0
 20
0
 30
0
 70
128
 71
90
 72
196
 73
89
 74
89
 0
VERTEX
 8
GRIGLIA
 10
0
 20
0
 30
0
 70
128
 71
196
 72
96
 73
95
 74
95
 0
VERTEX
 8
GRIGLIA
 10
0
 20
0
 30
0
 70
128
 71
196
 72
95
 73
89
 74
89
 0
VERTEX
 8
GRIGLIA
 10
0
 20
0
 30
0
 70
128
 71
91
 72
197
 73
92
 74
92
 0
VERTEX
 8
GRIGLIA
 10
0
 20
0
 30
0
 70
128
 71
197
 72
85
 73
86
 74
86
 0
VERTEX
 8
GRIGLIA
 10
0
 20
0
 30
0
 70
128
 71
197
 72
86
 73
92
 74
92
 0
VERTEX
 8
GRIGLIA
 10
0
 20
0
 30
0
 70
128
 71
156
 72
155
 73
157
 74
158
 0
VERTEX
 8
GRIGLIA
 10
0
 20
0
 30
0
 70
128
 71
92
 72
86
 73
87
 74
93
 0
VERTEX
 8
GRIGLIA
 10
0
 20
0
 30
0
 70
128
 71
95
 72
101
 73
100
 74
94
 0
VERTEX
 8
GRIGLIA
 10
0
 20
0
 30
0
 70
128
 71
96
 72
198
 73
95
 74
95
 0
VERTEX
 8
GRIGLIA
 10
0
 20
0
 30
0
 70
128
 71
198
 72
102
 73
101
 74
101
 0
VERTEX
 8
GRIGLIA
 10
0
 20
0
 30
0
 70
128
 71
198
 72
101
 73
95
 74
95
 0
VERTEX
 8
GRIGLIA
 10
0
 20
0
 30
0
 70
128
 71
97
 72
199
 73
98
 74
98
 0
VERTEX
 8
GRIGLIA
 10
0
 20
0
 30
0
 70
128
 71
199
 72
91
 73
92
 74
92
 0
VERTEX
 8
GRIGLIA
 10
0
 20
0
 30
0
 70
128
 71
199
 72
92
 73
98
 74
98
 0
VERTEX
 8
GRIGLIA
 10
0
 20
0
 30
0
 70
128
 71
98
 72
92
 73
93
 74
99
 0
VERTEX
 8
GRIGLIA
 10
0
 20
0
 30
0
 70
128
 71
101
 72
107
 73
106
 74
100
 0
VERTEX
 8
GRIGLIA
 10
0
 20
0
 30
0
 70
128
 71
102
 72
200
 73
101
 74
101
 0
VERTEX
 8
GRIGLIA
 10
0
 20
0
 30
0
 70
128
 71
200
 72
108
 73
107
 74
107
 0
VERTEX
 8
GRIGLIA
 10
0
 20
0
 30
0
 70
128
 71
200
 72
107
 73
101
 74
101
 0
VERTEX
 8
GRIGLIA
 10
0
 20
0
 30
0
 70
128
 71
100
 72
160
 73
159
 74
99
 0
VERTEX
 8
GRIGLIA
 10
0
 20
0
 30
0
 70
128
 71
99
 72
159
 73
161
 74
105
 0
VERTEX
 8
GRIGLIA
 10
0
 20
0
 30
0
 70
128
 71
103
 72
201
 73
104
 74
104
 0
VERTEX
 8
GRIGLIA
 10
0
 20
0
 30
0
 70
128
 71
201
 72
97
 73
98
 74
98
 0
VERTEX
 8
GRIGLIA
 10
0
 20
0
 30
0
 70
128
 71
201
 72
98
 73
104
 74
104
 0
VERTEX
 8
GRIGLIA
 10
0
 20
0
 30
0
 70
128
 71
161
 72
159
 73
160
 74
162
 0
VERTEX
 8
GRIGLIA
 10
0
 20
0
 30
0
 70
128
 71
104
 72
98
 73
99
 74
105
 0
VERTEX
 8
GRIGLIA
 10
0
 20
0
 30
0
 70
128
 71
107
 72
113
 73
112
 74
106
 0
VERTEX
 8
GRIGLIA
 10
0
 20
0
 30
0
 70
128
 71
108
 72
202
 73
107
 74
107
 0
VERTEX
 8
GRIGLIA
 10
0
 20
0
 30
0
 70
128
 71
202
 72
114
 73
113
 74
113
 0
VERTEX
 8
GRIGLIA
 10
0
 20
0
 30
0
 70
128
 71
202
 72
113
 73
107
 74
107
 0
VERTEX
 8
GRIGLIA
 10
0
 20
0
 30
0
 70
128
 71
117
 72
165
 73
166
 74
118
 0
VERTEX
 8
GRIGLIA
 10
0
 20
0
 30
0
 70
128
 71
118
 72
166
 73
164
 74
112
 0
VERTEX
 8
GRIGLIA
 10
0
 20
0
 30
0
 70
128
 71
109
 72
203
 73
110
 74
110
 0
VERTEX
 8
GRIGLIA
 10
0
 20
0
 30
0
 70
128
 71
203
 72
103
 73
104
 74
104
 0
VERTEX
 8
GRIGLIA
 10
0
 20
0
 30
0
 70
128
 71
203
 72
104
 73
110
 74
110
 0
VERTEX
 8
GRIGLIA
 10
0
 20
0
 30
0
 70
128
 71
111
 72
105
 73
106
 74
112
 0
VERTEX
 8
GRIGLIA
 10
0
 20
0
 30
0
 70
128
 71
110
 72
104
 73
105
 74
111
 0
VERTEX
 8
GRIGLIA
 10
0
 20
0
 30
0
 70
128
 71
113
 72
119
 73
118
 74
112
 0
VERTEX
 8
GRIGLIA
 10
0
 20
0
 30
0
 70
128
 71
114
 72
204
 73
113
 74
113
 0
VERTEX
 8
GRIGLIA
 10
0
 20
0
 30
0
 70
128
 71
204
 72
120
 73
119
 74
119
 0
VERTEX
 8
GRIGLIA
 10
0
 20
0
 30
0
 70
128
 71
204
 72
119
 73
113
 74
113
 0
VERTEX
 8
GRIGLIA
 10
0
 20
0
 30
0
 70
128
 71
112
 72
164
 73
163
 74
111
 0
VERTEX
 8
GRIGLIA
 10
0
 20
0
 30
0
 70
128
 71
111
 72
163
 73
165
 74
117
 0
VERTEX
 8
GRIGLIA
 10
0
 20
0
 30
0
 70
128
 71
115
 72
205
 73
116
 74
116
 0
VERTEX
 8
GRIGLIA
 10
0
 20
0
 30
0
 70
128
 71
205
 72
109
 73
110
 74
110
 0
VERTEX
 8
GRIGLIA
 10
0
 20
0
 30
0
 70
128
 71
205
 72
110
 73
116
 74
116
 0
VERTEX
 8
GRIGLIA
 10
0
 20
0
 30
0
 70
128
 71
165
 72
163
 73
164
 74
166
 0
VERTEX
 8
GRIGLIA
 10
0
 20
0
 30
0
 70
128
 71
116
 72
110
 73
111
 74
117
 0
VERTEX
 8
GRIGLIA
 10
0
 20
0
 30
0
 70
128
 71
119
 72
125
 73
124
 74
118
 0
VERTEX
 8
GRIGLIA
 10
0
 20
0
 30
0
 70
128
 71
120
 72
206
 73
119
 74
119
 0
VERTEX
 8
GRIGLIA
 10
0
 20
0
 30
0
 70
128
 71
206
 72
126
 73
125
 74
125
 0
VERTEX
 8
GRIGLIA
 10
0
 20
0
 30
0
 70
128
 71
206
 72
125
 73
119
 74
119
 0
VERTEX
 8
GRIGLIA
 10
0
 20
0
 30
0
 70
128
 71
129
 72
28
 73
29
 74
130
 0
VERTEX
 8
GRIGLIA
 10
0
 20
0
 30
0
 70
128
 71
130
 72
29
 73
23
 74
124
 0
VERTEX
 8
GRIGLIA
 10
0
 20
0
 30
0
 70
128
 71
121
 72
207
 73
122
 74
122
 0
VERTEX
 8
GRIGLIA
 10
0
 20
0
 30
0
 70
128
 71
207
 72
115
 73
116
 74
116
 0
VERTEX
 8
GRIGLIA
 10
0
 20
0
 30
0
 70
128
 71
207
 72
116
 73
122
 74
122
 0
VERTEX
 8
GRIGLIA
 10
0
 20
0
 30
0
 70
128
 71
123
 72
117
 73
118
 74
124
 0
VERTEX
 8
GRIGLIA
 10
0
 20
0
 30
0
 70
128
 71
122
 72
116
 73
117
 74
123
 0
VERTEX
 8
GRIGLIA
 10
0
 20
0
 30
0
 70
128
 71
125
 72
131
 73
130
 74
124
 0
VERTEX
 8
GRIGLIA
 10
0
 20
0
 30
0
 70
128
 71
126
 72
208
 73
125
 74
125
 0
VERTEX
 8
GRIGLIA
 10
0
 20
0
 30
0
 70
128
 71
208
 72
132
 73
131
 74
131
 0
VERTEX
 8
GRIGLIA
 10
0
 20
0
 30
0
 70
128
 71
208
 72
131
 73
125
 74
125
 0
VERTEX
 8
GRIGLIA
 10
0
 20
0
 30
0
 70
128
 71
124
 72
23
 73
21
 74
123
 0
VERTEX
 8
GRIGLIA
 10
0
 20
0
 30
0
 70
128
 71
123
 72
21
 73
28
 74
129
 0
VERTEX
 8
GRIGLIA
 10
0
 20
0
 30
0
 70
128
 71
127
 72
209
 73
128
 74
128
 0
VERTEX
 8
GRIGLIA
 10
0
 20
0
 30
0
 70
128
 71
209
 72
121
 73
122
 74
122
 0
VERTEX
 8
GRIGLIA
 10
0
 20
0
 30
0
 70
128
 71
209
 72
122
 73
128
 74
128
 0
VERTEX
 8
GRIGLIA
 10
0
 20
0
 30
0
 70
128
 71
28
 72
21
 73
23
 74
29
 0
VERTEX
 8
GRIGLIA
 10
0
 20
0
 30
0
 70
128
 71
128
 72
122
 73
123
 74
129
 0
VERTEX
 8
GRIGLIA
 10
0
 20
0
 30
0
 70
128
 71
131
 72
228
 73
231
 74
130
 0
VERTEX
 8
GRIGLIA
 10
0
 20
0
 30
0
 70
128
 71
267
 72
270
 73
271
 74
269
 0
VERTEX
 8
GRIGLIA
 10
0
 20
0
 30
0
 70
128
 71
133
 72
64
 73
70
 74
134
 0
VERTEX
 8
GRIGLIA
 10
0
 20
0
 30
0
 70
128
 71
134
 72
212
 73
135
 74
135
 0
VERTEX
 8
GRIGLIA
 10
0
 20
0
 30
0
 70
128
 71
70
 72
76
 73
213
 74
213
 0
VERTEX
 8
GRIGLIA
 10
0
 20
0
 30
0
 70
128
 71
212
 72
134
 73
70
 74
70
 0
VERTEX
 8
GRIGLIA
 10
0
 20
0
 30
0
 70
128
 71
137
 72
88
 73
94
 74
138
 0
VERTEX
 8
GRIGLIA
 10
0
 20
0
 30
0
 70
128
 71
45
 72
141
 73
142
 74
46
 0
VERTEX
 8
GRIGLIA
 10
0
 20
0
 30
0
 70
128
 71
46
 72
142
 73
139
 74
41
 0
VERTEX
 8
GRIGLIA
 10
0
 20
0
 30
0
 70
128
 71
41
 72
139
 73
140
 74
42
 0
VERTEX
 8
GRIGLIA
 10
0
 20
0
 30
0
 70
128
 71
42
 72
140
 73
141
 74
45
 0
VERTEX
 8
GRIGLIA
 10
0
 20
0
 30
0
 70
128
 71
57
 72
145
 73
146
 74
58
 0
VERTEX
 8
GRIGLIA
 10
0
 20
0
 30
0
 70
128
 71
58
 72
146
 73
144
 74
52
 0
VERTEX
 8
GRIGLIA
 10
0
 20
0
 30
0
 70
128
 71
52
 72
144
 73
143
 74
51
 0
VERTEX
 8
GRIGLIA
 10
0
 20
0
 30
0
 70
128
 71
51
 72
143
 73
145
 74
57
 0
VERTEX
 8
GRIGLIA
 10
0
 20
0
 30
0
 70
128
 71
69
 72
148
 73
150
 74
134
 0
VERTEX
 8
GRIGLIA
 10
0
 20
0
 30
0
 70
128
 71
134
 72
150
 73
149
 74
133
 0
VERTEX
 8
GRIGLIA
 10
0
 20
0
 30
0
 70
128
 71
133
 72
149
 73
147
 74
63
 0
VERTEX
 8
GRIGLIA
 10
0
 20
0
 30
0
 70
128
 71
63
 72
147
 73
148
 74
69
 0
VERTEX
 8
GRIGLIA
 10
0
 20
0
 30
0
 70
128
 71
83
 72
152
 73
154
 74
136
 0
VERTEX
 8
GRIGLIA
 10
0
 20
0
 30
0
 70
128
 71
136
 72
154
 73
153
 74
135
 0
VERTEX
 8
GRIGLIA
 10
0
 20
0
 30
0
 70
128
 71
135
 72
153
 73
151
 74
75
 0
VERTEX
 8
GRIGLIA
 10
0
 20
0
 30
0
 70
128
 71
75
 72
151
 73
152
 74
83
 0
VERTEX
 8
GRIGLIA
 10
0
 20
0
 30
0
 70
128
 71
93
 72
156
 73
158
 74
138
 0
VERTEX
 8
GRIGLIA
 10
0
 20
0
 30
0
 70
128
 71
138
 72
158
 73
157
 74
137
 0
VERTEX
 8
GRIGLIA
 10
0
 20
0
 30
0
 70
128
 71
137
 72
157
 73
155
 74
87
 0
VERTEX
 8
GRIGLIA
 10
0
 20
0
 30
0
 70
128
 71
87
 72
155
 73
156
 74
93
 0
VERTEX
 8
GRIGLIA
 10
0
 20
0
 30
0
 70
128
 71
105
 72
161
 73
162
 74
106
 0
VERTEX
 8
GRIGLIA
 10
0
 20
0
 30
0
 70
128
 71
106
 72
162
 73
160
 74
100
 0
VERTEX
 8
GRIGLIA
 10
0
 20
0
 30
0
 70
128
 71
265
 72
264
 73
263
 74
266
 0
VERTEX
 8
GRIGLIA
 10
0
 20
0
 30
0
 70
128
 71
235
 72
232
 73
234
 74
237
 0
VERTEX
 8
GRIGLIA
 10
0
 20
0
 30
0
 70
128
 71
287
 72
235
 73
237
 74
285
 0
VERTEX
 8
GRIGLIA
 10
0
 20
0
 30
0
 70
128
 71
228
 72
242
 73
238
 74
231
 0
VERTEX
 8
GRIGLIA
 10
0
 20
0
 30
0
 70
128
 71
279
 72
282
 73
283
 74
280
 0
VERTEX
 8
GRIGLIA
 10
0
 20
0
 30
0
 70
128
 71
288
 72
5
 73
6
 74
272
 0
VERTEX
 8
GRIGLIA
 10
0
 20
0
 30
0
 70
128
 71
269
 72
271
 73
290
 74
286
 0
VERTEX
 8
GRIGLIA
 10
0
 20
0
 30
0
 70
128
 71
272
 72
268
 73
287
 74
288
 0
VERTEX
 8
GRIGLIA
 10
0
 20
0
 30
0
 70
128
 71
17
 72
270
 73
267
 74
267
 0
VERTEX
 8
GRIGLIA
 10
0
 20
0
 30
0
 70
128
 71
274
 72
19
 73
243
 74
243
 0
VERTEX
 8
GRIGLIA
 10
0
 20
0
 30
0
 70
128
 71
277
 72
2
 73
176
 74
176
 0
VERTEX
 8
GRIGLIA
 10
0
 20
0
 30
0
 70
128
 71
243
 72
19
 73
177
 74
177
 0
VERTEX
 8
GRIGLIA
 10
0
 20
0
 30
0
 70
128
 71
270
 72
4
 73
3
 74
271
 0
VERTEX
 8
GRIGLIA
 10
0
 20
0
 30
0
 70
128
 71
177
 72
25
 73
251
 74
251
 0
VERTEX
 8
GRIGLIA
 10
0
 20
0
 30
0
 70
128
 71
177
 72
172
 73
11
 74
11
 0
VERTEX
 8
GRIGLIA
 10
0
 20
0
 30
0
 70
128
 71
177
 72
11
 73
173
 74
173
 0
VERTEX
 8
GRIGLIA
 10
0
 20
0
 30
0
 70
128
 71
177
 72
173
 73
13
 74
13
 0
VERTEX
 8
GRIGLIA
 10
0
 20
0
 30
0
 70
128
 71
177
 72
13
 73
179
 74
179
 0
VERTEX
 8
GRIGLIA
 10
0
 20
0
 30
0
 70
128
 71
177
 72
179
 73
37
 74
37
 0
VERTEX
 8
GRIGLIA
 10
0
 20
0
 30
0
 70
128
 71
282
 72
247
 73
248
 74
283
 0
VERTEX
 8
GRIGLIA
 10
0
 20
0
 30
0
 70
128
 71
19
 72
274
 73
277
 74
277
 0
VERTEX
 8
GRIGLIA
 10
0
 20
0
 30
0
 70
128
 71
99
 72
93
 73
138
 74
138
 0
VERTEX
 8
GRIGLIA
 10
0
 20
0
 30
0
 70
128
 71
138
 72
94
 73
100
 74
100
 0
VERTEX
 8
GRIGLIA
 10
0
 20
0
 30
0
 70
128
 71
133
 72
63
 73
57
 74
57
 0
VERTEX
 8
GRIGLIA
 10
0
 20
0
 30
0
 70
128
 71
58
 72
64
 73
133
 74
133
 0
VERTEX
 8
GRIGLIA
 10
0
 20
0
 30
0
 70
128
 71
99
 72
138
 73
100
 74
100
 0
VERTEX
 8
GRIGLIA
 10
0
 20
0
 30
0
 70
128
 71
133
 72
57
 73
58
 74
58
 0
VERTEX
 8
GRIGLIA
 10
0
 20
0
 30
0
 70
128
 71
276
 72
275
 73
284
 74
281
 0
VERTEX
 8
GRIGLIA
 10
0
 20
0
 30
0
 70
128
 71
177
 72
37
 73
181
 74
181
 0
VERTEX
 8
GRIGLIA
 10
0
 20
0
 30
0
 70
128
 71
276
 72
1
 73
2
 74
277
 0
VERTEX
 8
GRIGLIA
 10
0
 20
0
 30
0
 70
128
 71
177
 72
181
 73
43
 74
43
 0
VERTEX
 8
GRIGLIA
 10
0
 20
0
 30
0
 70
128
 71
177
 72
43
 73
183
 74
183
 0
VERTEX
 8
GRIGLIA
 10
0
 20
0
 30
0
 70
128
 71
177
 72
183
 73
49
 74
49
 0
VERTEX
 8
GRIGLIA
 10
0
 20
0
 30
0
 70
128
 71
177
 72
49
 73
185
 74
185
 0
VERTEX
 8
GRIGLIA
 10
0
 20
0
 30
0
 70
128
 71
177
 72
185
 73
55
 74
55
 0
VERTEX
 8
GRIGLIA
 10
0
 20
0
 30
0
 70
128
 71
177
 72
55
 73
187
 74
187
 0
VERTEX
 8
GRIGLIA
 10
0
 20
0
 30
0
 70
128
 71
177
 72
187
 73
61
 74
61
 0
VERTEX
 8
GRIGLIA
 10
0
 20
0
 30
0
 70
128
 71
177
 72
61
 73
189
 74
189
 0
VERTEX
 8
GRIGLIA
 10
0
 20
0
 30
0
 70
128
 71
213
 72
84
 73
214
 74
214
 0
VERTEX
 8
GRIGLIA
 10
0
 20
0
 30
0
 70
128
 71
136
 72
135
 73
212
 74
212
 0
VERTEX
 8
GRIGLIA
 10
0
 20
0
 30
0
 70
128
 71
88
 72
137
 73
211
 74
211
 0
VERTEX
 8
GRIGLIA
 10
0
 20
0
 30
0
 70
128
 71
137
 72
136
 73
211
 74
211
 0
VERTEX
 8
GRIGLIA
 10
0
 20
0
 30
0
 70
128
 71
213
 72
76
 73
84
 74
84
 0
VERTEX
 8
GRIGLIA
 10
0
 20
0
 30
0
 70
128
 71
84
 72
88
 73
214
 74
214
 0
VERTEX
 8
GRIGLIA
 10
0
 20
0
 30
0
 70
128
 71
224
 72
225
 73
226
 74
223
 0
VERTEX
 8
GRIGLIA
 10
0
 20
0
 30
0
 70
128
 71
212
 72
216
 73
215
 74
211
 0
VERTEX
 8
GRIGLIA
 10
0
 20
0
 30
0
 70
128
 71
211
 72
215
 73
218
 74
214
 0
VERTEX
 8
GRIGLIA
 10
0
 20
0
 30
0
 70
128
 71
214
 72
218
 73
217
 74
213
 0
VERTEX
 8
GRIGLIA
 10
0
 20
0
 30
0
 70
128
 71
213
 72
217
 73
216
 74
212
 0
VERTEX
 8
GRIGLIA
 10
0
 20
0
 30
0
 70
128
 71
216
 72
220
 73
219
 74
215
 0
VERTEX
 8
GRIGLIA
 10
0
 20
0
 30
0
 70
128
 71
215
 72
219
 73
222
 74
218
 0
VERTEX
 8
GRIGLIA
 10
0
 20
0
 30
0
 70
128
 71
218
 72
222
 73
221
 74
217
 0
VERTEX
 8
GRIGLIA
 10
0
 20
0
 30
0
 70
128
 71
217
 72
221
 73
220
 74
216
 0
VERTEX
 8
GRIGLIA
 10
0
 20
0
 30
0
 70
128
 71
220
 72
224
 73
223
 74
219
 0
VERTEX
 8
GRIGLIA
 10
0
 20
0
 30
0
 70
128
 71
219
 72
223
 73
226
 74
222
 0
VERTEX
 8
GRIGLIA
 10
0
 20
0
 30
0
 70
128
 71
222
 72
226
 73
225
 74
221
 0
VERTEX
 8
GRIGLIA
 10
0
 20
0
 30
0
 70
128
 71
221
 72
225
 73
224
 74
220
 0
VERTEX
 8
GRIGLIA
 10
0
 20
0
 30
0
 70
128
 71
212
 72
70
 73
213
 74
213
 0
VERTEX
 8
GRIGLIA
 10
0
 20
0
 30
0
 70
128
 71
136
 72
212
 73
211
 74
211
 0
VERTEX
 8
GRIGLIA
 10
0
 20
0
 30
0
 70
128
 71
88
 72
211
 73
214
 74
214
 0
VERTEX
 8
GRIGLIA
 10
0
 20
0
 30
0
 70
128
 71
177
 72
188
 73
65
 74
65
 0
VERTEX
 8
GRIGLIA
 10
0
 20
0
 30
0
 70
128
 71
177
 72
65
 73
186
 74
186
 0
VERTEX
 8
GRIGLIA
 10
0
 20
0
 30
0
 70
128
 71
177
 72
186
 73
59
 74
59
 0
VERTEX
 8
GRIGLIA
 10
0
 20
0
 30
0
 70
128
 71
177
 72
59
 73
184
 74
184
 0
VERTEX
 8
GRIGLIA
 10
0
 20
0
 30
0
 70
128
 71
177
 72
184
 73
53
 74
53
 0
VERTEX
 8
GRIGLIA
 10
0
 20
0
 30
0
 70
128
 71
247
 72
256
 73
257
 74
248
 0
VERTEX
 8
GRIGLIA
 10
0
 20
0
 30
0
 70
128
 71
280
 72
283
 73
273
 74
278
 0
VERTEX
 8
GRIGLIA
 10
0
 20
0
 30
0
 70
128
 71
246
 72
255
 73
258
 74
250
 0
VERTEX
 8
GRIGLIA
 10
0
 20
0
 30
0
 70
128
 71
260
 72
262
 73
261
 74
259
 0
VERTEX
 8
GRIGLIA
 10
0
 20
0
 30
0
 70
128
 71
232
 72
128
 73
129
 74
234
 0
VERTEX
 8
GRIGLIA
 10
0
 20
0
 30
0
 70
128
 71
177
 72
53
 73
182
 74
182
 0
VERTEX
 8
GRIGLIA
 10
0
 20
0
 30
0
 70
128
 71
284
 72
282
 73
279
 74
281
 0
VERTEX
 8
GRIGLIA
 10
0
 20
0
 30
0
 70
128
 71
242
 72
269
 73
286
 74
238
 0
VERTEX
 8
GRIGLIA
 10
0
 20
0
 30
0
 70
128
 71
177
 72
182
 73
47
 74
47
 0
VERTEX
 8
GRIGLIA
 10
0
 20
0
 30
0
 70
128
 71
234
 72
129
 73
130
 74
231
 0
VERTEX
 8
GRIGLIA
 10
0
 20
0
 30
0
 70
128
 71
177
 72
47
 73
180
 74
180
 0
VERTEX
 8
GRIGLIA
 10
0
 20
0
 30
0
 70
128
 71
256
 72
27
 73
12
 74
257
 0
VERTEX
 8
GRIGLIA
 10
0
 20
0
 30
0
 70
128
 71
255
 72
10
 73
22
 74
258
 0
VERTEX
 8
GRIGLIA
 10
0
 20
0
 30
0
 70
128
 71
258
 72
22
 73
27
 74
256
 0
VERTEX
 8
GRIGLIA
 10
0
 20
0
 30
0
 70
128
 71
250
 72
260
 73
259
 74
247
 0
VERTEX
 8
GRIGLIA
 10
0
 20
0
 30
0
 70
128
 71
247
 72
259
 73
261
 74
256
 0
VERTEX
 8
GRIGLIA
 10
0
 20
0
 30
0
 70
128
 71
256
 72
261
 73
262
 74
258
 0
VERTEX
 8
GRIGLIA
 10
0
 20
0
 30
0
 70
128
 71
258
 72
262
 73
260
 74
250
 0
VERTEX
 8
GRIGLIA
 10
0
 20
0
 30
0
 70
128
 71
237
 72
265
 73
266
 74
238
 0
VERTEX
 8
GRIGLIA
 10
0
 20
0
 30
0
 70
128
 71
238
 72
266
 73
263
 74
231
 0
VERTEX
 8
GRIGLIA
 10
0
 20
0
 30
0
 70
128
 71
231
 72
263
 73
264
 74
234
 0
VERTEX
 8
GRIGLIA
 10
0
 20
0
 30
0
 70
128
 71
234
 72
264
 73
265
 74
237
 0
VERTEX
 8
GRIGLIA
 10
0
 20
0
 30
0
 70
128
 71
177
 72
180
 73
39
 74
39
 0
VERTEX
 8
GRIGLIA
 10
0
 20
0
 30
0
 70
128
 71
177
 72
39
 73
174
 74
174
 0
VERTEX
 8
GRIGLIA
 10
0
 20
0
 30
0
 70
128
 71
177
 72
174
 73
15
 74
15
 0
VERTEX
 8
GRIGLIA
 10
0
 20
0
 30
0
 70
128
 71
177
 72
15
 73
171
 74
171
 0
VERTEX
 8
GRIGLIA
 10
0
 20
0
 30
0
 70
128
 71
177
 72
171
 73
9
 74
9
 0
VERTEX
 8
GRIGLIA
 10
0
 20
0
 30
0
 70
128
 71
177
 72
9
 73
167
 74
167
 0
VERTEX
 8
GRIGLIA
 10
0
 20
0
 30
0
 70
128
 71
177
 72
167
 73
252
 74
252
 0
VERTEX
 8
GRIGLIA
 10
0
 20
0
 30
0
 70
128
 71
25
 72
170
 73
278
 74
278
 0
VERTEX
 8
GRIGLIA
 10
0
 20
0
 30
0
 70
128
 71
25
 72
273
 73
245
 74
245
 0
VERTEX
 8
GRIGLIA
 10
0
 20
0
 30
0
 70
128
 71
25
 72
245
 73
251
 74
251
 0
VERTEX
 8
GRIGLIA
 10
0
 20
0
 30
0
 70
128
 71
170
 72
8
 73
278
 74
278
 0
VERTEX
 8
GRIGLIA
 10
0
 20
0
 30
0
 70
128
 71
189
 72
67
 73
71
 74
71
 0
VERTEX
 8
GRIGLIA
 10
0
 20
0
 30
0
 70
128
 71
71
 72
67
 73
191
 74
191
 0
VERTEX
 8
GRIGLIA
 10
0
 20
0
 30
0
 70
128
 71
191
 72
73
 73
77
 74
77
 0
VERTEX
 8
GRIGLIA
 10
0
 20
0
 30
0
 70
128
 71
73
 72
193
 73
192
 74
192
 0
VERTEX
 8
GRIGLIA
 10
0
 20
0
 30
0
 70
128
 71
192
 72
193
 73
79
 74
79
 0
VERTEX
 8
GRIGLIA
 10
0
 20
0
 30
0
 70
128
 71
79
 72
195
 73
194
 74
194
 0
VERTEX
 8
GRIGLIA
 10
0
 20
0
 30
0
 70
128
 71
194
 72
195
 73
85
 74
85
 0
VERTEX
 8
GRIGLIA
 10
0
 20
0
 30
0
 70
128
 71
90
 72
85
 73
197
 74
197
 0
VERTEX
 8
GRIGLIA
 10
0
 20
0
 30
0
 70
128
 71
197
 72
91
 73
175
 74
175
 0
VERTEX
 8
GRIGLIA
 10
0
 20
0
 30
0
 70
128
 71
91
 72
199
 73
175
 74
175
 0
VERTEX
 8
GRIGLIA
 10
0
 20
0
 30
0
 70
128
 71
199
 72
97
 73
175
 74
175
 0
VERTEX
 8
GRIGLIA
 10
0
 20
0
 30
0
 70
128
 71
97
 72
201
 73
175
 74
175
 0
VERTEX
 8
GRIGLIA
 10
0
 20
0
 30
0
 70
128
 71
201
 72
103
 73
175
 74
175
 0
VERTEX
 8
GRIGLIA
 10
0
 20
0
 30
0
 70
128
 71
103
 72
203
 73
175
 74
175
 0
VERTEX
 8
GRIGLIA
 10
0
 20
0
 30
0
 70
128
 71
203
 72
109
 73
175
 74
175
 0
VERTEX
 8
GRIGLIA
 10
0
 20
0
 30
0
 70
128
 71
109
 72
205
 73
175
 74
175
 0
VERTEX
 8
GRIGLIA
 10
0
 20
0
 30
0
 70
128
 71
205
 72
115
 73
175
 74
175
 0
VERTEX
 8
GRIGLIA
 10
0
 20
0
 30
0
 70
128
 71
115
 72
207
 73
175
 74
175
 0
VERTEX
 8
GRIGLIA
 10
0
 20
0
 30
0
 70
128
 71
284
 72
250
 73
247
 74
282
 0
VERTEX
 8
GRIGLIA
 10
0
 20
0
 30
0
 70
128
 71
275
 72
246
 73
250
 74
284
 0
VERTEX
 8
GRIGLIA
 10
0
 20
0
 30
0
 70
128
 71
288
 72
287
 73
285
 74
289
 0
VERTEX
 8
GRIGLIA
 10
0
 20
0
 30
0
 70
128
 71
271
 72
3
 73
18
 74
290
 0
VERTEX
 8
GRIGLIA
 10
0
 20
0
 30
0
 70
128
 71
175
 72
240
 73
233
 74
233
 0
VERTEX
 8
GRIGLIA
 10
0
 20
0
 30
0
 70
128
 71
30
 72
272
 73
178
 74
178
 0
VERTEX
 8
GRIGLIA
 10
0
 20
0
 30
0
 70
128
 71
175
 72
229
 73
30
 74
30
 0
VERTEX
 8
GRIGLIA
 10
0
 20
0
 30
0
 70
128
 71
197
 72
175
 73
196
 74
196
 0
VERTEX
 8
GRIGLIA
 10
0
 20
0
 30
0
 70
128
 71
90
 72
197
 73
196
 74
196
 0
VERTEX
 8
GRIGLIA
 10
0
 20
0
 30
0
 70
128
 71
194
 72
85
 73
90
 74
90
 0
VERTEX
 8
GRIGLIA
 10
0
 20
0
 30
0
 70
128
 71
79
 72
194
 73
81
 74
81
 0
VERTEX
 8
GRIGLIA
 10
0
 20
0
 30
0
 70
128
 71
192
 72
79
 73
81
 74
81
 0
VERTEX
 8
GRIGLIA
 10
0
 20
0
 30
0
 70
128
 71
207
 72
121
 73
175
 74
175
 0
VERTEX
 8
GRIGLIA
 10
0
 20
0
 30
0
 70
128
 71
121
 72
209
 73
175
 74
175
 0
VERTEX
 8
GRIGLIA
 10
0
 20
0
 30
0
 70
128
 71
209
 72
127
 73
175
 74
175
 0
VERTEX
 8
GRIGLIA
 10
0
 20
0
 30
0
 70
128
 71
127
 72
169
 73
175
 74
175
 0
VERTEX
 8
GRIGLIA
 10
0
 20
0
 30
0
 70
128
 71
175
 72
169
 73
229
 74
229
 0
VERTEX
 8
GRIGLIA
 10
0
 20
0
 30
0
 70
128
 71
229
 72
239
 73
30
 74
30
 0
VERTEX
 8
GRIGLIA
 10
0
 20
0
 30
0
 70
128
 71
239
 72
268
 73
30
 74
30
 0
VERTEX
 8
GRIGLIA
 10
0
 20
0
 30
0
 70
128
 71
30
 72
268
 73
272
 74
272
 0
VERTEX
 8
GRIGLIA
 10
0
 20
0
 30
0
 70
128
 71
272
 72
6
 73
178
 74
178
 0
VERTEX
 8
GRIGLIA
 10
0
 20
0
 30
0
 70
128
 71
175
 72
17
 73
240
 74
240
 0
VERTEX
 8
GRIGLIA
 10
0
 20
0
 30
0
 70
128
 71
175
 72
233
 73
210
 74
210
 0
VERTEX
 8
GRIGLIA
 10
0
 20
0
 30
0
 70
128
 71
175
 72
210
 73
132
 74
132
 0
VERTEX
 8
GRIGLIA
 10
0
 20
0
 30
0
 70
128
 71
175
 72
132
 73
208
 74
208
 0
VERTEX
 8
GRIGLIA
 10
0
 20
0
 30
0
 70
128
 71
175
 72
208
 73
126
 74
126
 0
VERTEX
 8
GRIGLIA
 10
0
 20
0
 30
0
 70
128
 71
175
 72
126
 73
206
 74
206
 0
VERTEX
 8
GRIGLIA
 10
0
 20
0
 30
0
 70
128
 71
175
 72
206
 73
120
 74
120
 0
VERTEX
 8
GRIGLIA
 10
0
 20
0
 30
0
 70
128
 71
175
 72
120
 73
204
 74
204
 0
VERTEX
 8
GRIGLIA
 10
0
 20
0
 30
0
 70
128
 71
175
 72
204
 73
114
 74
114
 0
VERTEX
 8
GRIGLIA
 10
0
 20
0
 30
0
 70
128
 71
175
 72
114
 73
202
 74
202
 0
VERTEX
 8
GRIGLIA
 10
0
 20
0
 30
0
 70
128
 71
175
 72
202
 73
108
 74
108
 0
VERTEX
 8
GRIGLIA
 10
0
 20
0
 30
0
 70
128
 71
175
 72
108
 73
200
 74
200
 0
VERTEX
 8
GRIGLIA
 10
0
 20
0
 30
0
 70
128
 71
175
 72
200
 73
102
 74
102
 0
VERTEX
 8
GRIGLIA
 10
0
 20
0
 30
0
 70
128
 71
175
 72
102
 73
198
 74
198
 0
VERTEX
 8
GRIGLIA
 10
0
 20
0
 30
0
 70
128
 71
175
 72
198
 73
96
 74
96
 0
VERTEX
 8
GRIGLIA
 10
0
 20
0
 30
0
 70
128
 71
175
 72
96
 73
196
 74
196
 0
VERTEX
 8
GRIGLIA
 10
0
 20
0
 30
0
 70
128
 71
17
 72
168
 73
270
 74
270
 0
VERTEX
 8
GRIGLIA
 10
0
 20
0
 30
0
 70
128
 71
17
 72
267
 73
240
 74
240
 0
VERTEX
 8
GRIGLIA
 10
0
 20
0
 30
0
 70
128
 71
168
 72
4
 73
270
 74
270
 0
VERTEX
 8
GRIGLIA
 10
0
 20
0
 30
0
 70
128
 71
243
 72
177
 73
252
 74
252
 0
VERTEX
 8
GRIGLIA
 10
0
 20
0
 30
0
 70
128
 71
177
 72
251
 73
172
 74
172
 0
VERTEX
 8
GRIGLIA
 10
0
 20
0
 30
0
 70
128
 71
19
 72
277
 73
176
 74
176
 0
VERTEX
 8
GRIGLIA
 10
0
 20
0
 30
0
 70
128
 71
177
 72
189
 73
188
 74
188
 0
VERTEX
 8
GRIGLIA
 10
0
 20
0
 30
0
 70
128
 71
25
 72
278
 73
273
 74
273
 0
VERTEX
 8
GRIGLIA
 10
0
 20
0
 30
0
 70
128
 71
189
 72
71
 73
188
 74
188
 0
VERTEX
 8
GRIGLIA
 10
0
 20
0
 30
0
 70
128
 71
71
 72
191
 73
190
 74
190
 0
VERTEX
 8
GRIGLIA
 10
0
 20
0
 30
0
 70
128
 71
191
 72
77
 73
190
 74
190
 0
VERTEX
 8
GRIGLIA
 10
0
 20
0
 30
0
 70
128
 71
73
 72
192
 73
77
 74
77
 0
VERTEX
 8
GRIGLIA
 10
0
 20
0
 30
0
 70
128
 71
285
 72
286
 73
290
 74
289
 0
SEQEND
 0
POLYLINE
 8
GRIGLIA_1
 66
1
 10
0.0
 20
0.0
 30
0.0
 70
64
 71
290
 72
414
 0
VERTEX
 8
GRIGLIA_1
 10
-13.9287
 20
-49.4868
 30
-3.1217
 70
192
 0
VERTEX
 8
GRIGLIA_1
 10
-13.9287
 20
-49.4868
 30
-2.2216
 70
192
 0
VERTEX
 8
GRIGLIA_1
 10
13.8827
 20
-49.4868
 30
-3.1217
 70
192
 0
VERTEX
 8
GRIGLIA_1
 10
13.8827
 20
-49.4868
 30
-2.2216
 70
192
 0
VERTEX
 8
GRIGLIA_1
 10
13.8827
 20
-19.3946
 30
-3.1217
 70
192
 0
VERTEX
 8
GRIGLIA_1
 10
13.8827
 20
-19.3946
 30
-2.2216
 70
192
 0
VERTEX
 8
GRIGLIA_1
 10
-13.9287
 20
-19.3946
 30
-3.1217
 70
192
 0
VERTEX
 8
GRIGLIA_1
 10
-13.9287
 20
-19.3946
 30
-2.2216
 70
192
 0
VERTEX
 8
GRIGLIA_1
 10
-10.2966
 20
-49.4868
 30
-2.2216
 70
192
 0
VERTEX
 8
GRIGLIA_1
 10
-10.2966
 20
-49.4868
 30
-3.1217
 70
192
 0
VERTEX
 8
GRIGLIA_1
 10
-10.2966
 20
-19.3946
 30
-2.2216
 70
192
 0
VERTEX
 8
GRIGLIA_1
 10
-10.2966
 20
-19.3946
 30
-3.1217
 70
192
 0
VERTEX
 8
GRIGLIA_1
 10
-9.6098
 20
-19.3946
 30
-2.2216
 70
192
 0
VERTEX
 8
GRIGLIA_1
 10
-9.6098
 20
-19.3946
 30
-3.1217
 70
192
 0
VERTEX
 8
GRIGLIA_1
 10
-9.6098
 20
-49.4868
 30
-2.2216
 70
192
 0
VERTEX
 8
GRIGLIA_1
 10
-9.6098
 20
-49.4868
 30
-3.1217
 70
192
 0
VERTEX
 8
GRIGLIA_1
 10
13.8827
 20
-48.4834
 30
-2.2216
 70
192
 0
VERTEX
 8
GRIGLIA_1
 10
13.8827
 20
-48.4834
 30
-3.1217
 70
192
 0
VERTEX
 8
GRIGLIA_1
 10
-13.9287
 20
-48.4834
 30
-2.2216
 70
192
 0
VERTEX
 8
GRIGLIA_1
 10
-13.9287
 20
-48.4834
 30
-3.1217
 70
192
 0
VERTEX
 8
GRIGLIA_1
 10
9.7037
 20
-20.3986
 30
-2.4232
 70
192
 0
VERTEX
 8
GRIGLIA_1
 10
-10.2966
 20
-48.4834
 30
-3.1217
 70
192
 0
VERTEX
 8
GRIGLIA_1
 10
9.7037
 20
-48.4834
 30
-2.4232
 70
192
 0
VERTEX
 8
GRIGLIA_1
 10
-9.6098
 20
-48.4834
 30
-3.1217
 70
192
 0
VERTEX
 8
GRIGLIA_1
 10
-13.9287
 20
-20.3986
 30
-2.2216
 70
192
 0
VERTEX
 8
GRIGLIA_1
 10
-13.9287
 20
-20.3986
 30
-3.1217
 70
192
 0
VERTEX
 8
GRIGLIA_1
 10
-10.2966
 20
-20.3986
 30
-3.1217
 70
192
 0
VERTEX
 8
GRIGLIA_1
 10
10.3915
 20
-20.3986
 30
-2.4232
 70
192
 0
VERTEX
 8
GRIGLIA_1
 10
10.3915
 20
-48.4834
 30
-2.4232
 70
192
 0
VERTEX
 8
GRIGLIA_1
 10
13.8827
 20
-20.3986
 30
-2.2216
 70
192
 0
VERTEX
 8
GRIGLIA_1
 10
13.8827
 20
-20.3986
 30
-3.1217
 70
192
 0
VERTEX
 8
GRIGLIA_1
 10
-9.6098
 20
-20.3986
 30
-3.1217
 70
192
 0
VERTEX
 8
GRIGLIA_1
 10
-10.2966
 20
-48.4834
 30
-2.4232
 70
192
 0
VERTEX
 8
GRIGLIA_1
 10
-9.6098
 20
-48.4834
 30
-2.4232
 70
192
 0
VERTEX
 8
GRIGLIA_1
 10
-10.2966
 20
-20.3986
 30
-2.4232
 70
192
 0
VERTEX
 8
GRIGLIA_1
 10
-9.6098
 20
-20.3986
 30
-2.4232
 70
192
 0
VERTEX
 8
GRIGLIA_1
 10
-7.796
 20
-19.3946
 30
-2.2216
 70
192
 0
VERTEX
 8
GRIGLIA_1
 10
-7.796
 20
-19.3946
 30
-3.1217
 70
192
 0
VERTEX
 8
GRIGLIA_1
 10
-7.796
 20
-49.4868
 30
-2.2216
 70
192
 0
VERTEX
 8
GRIGLIA_1
 10
-7.796
 20
-49.4868
 30
-3.1217
 70
192
 0
VERTEX
 8
GRIGLIA_1
 10
-7.796
 20
-48.4834
 30
-3.1217
 70
192
 0
VERTEX
 8
GRIGLIA_1
 10
-7.796
 20
-20.3986
 30
-3.1217
 70
192
 0
VERTEX
 8
GRIGLIA_1
 10
-7.109
 20
-19.3946
 30
-2.2216
 70
192
 0
VERTEX
 8
GRIGLIA_1
 10
-7.109
 20
-19.3946
 30
-3.1217
 70
192
 0
VERTEX
 8
GRIGLIA_1
 10
-7.109
 20
-20.3986
 30
-3.1217
 70
192
 0
VERTEX
 8
GRIGLIA_1
 10
-7.109
 20
-48.4834
 30
-3.1217
 70
192
 0
VERTEX
 8
GRIGLIA_1
 10
-7.109
 20
-49.4868
 30
-2.2216
 70
192
 0
VERTEX
 8
GRIGLIA_1
 10
-7.109
 20
-49.4868
 30
-3.1217
 70
192
 0
VERTEX
 8
GRIGLIA_1
 10
-5.2966
 20
-19.3946
 30
-2.2216
 70
192
 0
VERTEX
 8
GRIGLIA_1
 10
-5.2966
 20
-19.3946
 30
-3.1217
 70
192
 0
VERTEX
 8
GRIGLIA_1
 10
-5.2966
 20
-20.3986
 30
-3.1217
 70
192
 0
VERTEX
 8
GRIGLIA_1
 10
-5.2966
 20
-48.4834
 30
-3.1217
 70
192
 0
VERTEX
 8
GRIGLIA_1
 10
-5.2966
 20
-49.4868
 30
-2.2216
 70
192
 0
VERTEX
 8
GRIGLIA_1
 10
-5.2966
 20
-49.4868
 30
-3.1217
 70
192
 0
VERTEX
 8
GRIGLIA_1
 10
-4.6088
 20
-19.3946
 30
-2.2216
 70
192
 0
VERTEX
 8
GRIGLIA_1
 10
-4.6088
 20
-19.3946
 30
-3.1217
 70
192
 0
VERTEX
 8
GRIGLIA_1
 10
-4.6088
 20
-20.3986
 30
-3.1217
 70
192
 0
VERTEX
 8
GRIGLIA_1
 10
-4.6088
 20
-48.4834
 30
-3.1217
 70
192
 0
VERTEX
 8
GRIGLIA_1
 10
-4.6088
 20
-49.4868
 30
-2.2216
 70
192
 0
VERTEX
 8
GRIGLIA_1
 10
-4.6088
 20
-49.4868
 30
-3.1217
 70
192
 0
VERTEX
 8
GRIGLIA_1
 10
-2.7965
 20
-19.3946
 30
-2.2216
 70
192
 0
VERTEX
 8
GRIGLIA_1
 10
-2.7965
 20
-19.3946
 30
-3.1217
 70
192
 0
VERTEX
 8
GRIGLIA_1
 10
-2.7965
 20
-20.3986
 30
-3.1217
 70
192
 0
VERTEX
 8
GRIGLIA_1
 10
-2.7965
 20
-48.4834
 30
-3.1217
 70
192
 0
VERTEX
 8
GRIGLIA_1
 10
-2.7965
 20
-49.4868
 30
-2.2216
 70
192
 0
VERTEX
 8
GRIGLIA_1
 10
-2.7965
 20
-49.4868
 30
-3.1217
 70
192
 0
VERTEX
 8
GRIGLIA_1
 10
-2.1082
 20
-19.3946
 30
-2.2216
 70
192
 0
VERTEX
 8
GRIGLIA_1
 10
-2.1082
 20
-19.3946
 30
-3.1217
 70
192
 0
VERTEX
 8
GRIGLIA_1
 10
-2.1082
 20
-20.3986
 30
-3.1217
 70
192
 0
VERTEX
 8
GRIGLIA_1
 10
-2.1082
 20
-48.4834
 30
-3.1217
 70
192
 0
VERTEX
 8
GRIGLIA_1
 10
-2.1082
 20
-49.4868
 30
-2.2216
 70
192
 0
VERTEX
 8
GRIGLIA_1
 10
-2.1082
 20
-49.4868
 30
-3.1217
 70
192
 0
VERTEX
 8
GRIGLIA_1
 10
-0.2968
 20
-19.3946
 30
-2.2216
 70
192
 0
VERTEX
 8
GRIGLIA_1
 10
-0.2968
 20
-19.3946
 30
-3.1217
 70
192
 0
VERTEX
 8
GRIGLIA_1
 10
-0.2968
 20
-20.3986
 30
-3.1217
 70
192
 0
VERTEX
 8
GRIGLIA_1
 10
-0.2968
 20
-48.4834
 30
-3.1217
 70
192
 0
VERTEX
 8
GRIGLIA_1
 10
-0.2968
 20
-49.4868
 30
-2.2216
 70
192
 0
VERTEX
 8
GRIGLIA_1
 10
-0.2968
 20
-49.4868
 30
-3.1217
 70
192
 0
VERTEX
 8
GRIGLIA_1
 10
0.391
 20
-19.3946
 30
-2.2216
 70
192
 0
VERTEX
 8
GRIGLIA_1
 10
0.391
 20
-19.3946
 30
-3.1217
 70
192
 0
VERTEX
 8
GRIGLIA_1
 10
0.391
 20
-49.4868
 30
-2.2216
 70
192
 0
VERTEX
 8
GRIGLIA_1
 10
0.391
 20
-49.4868
 30
-3.1217
 70
192
 0
VERTEX
 8
GRIGLIA_1
 10
0.391
 20
-20.3986
 30
-3.1217
 70
192
 0
VERTEX
 8
GRIGLIA_1
 10
0.391
 20
-48.4834
 30
-3.1217
 70
192
 0
VERTEX
 8
GRIGLIA_1
 10
2.2034
 20
-19.3946
 30
-2.2216
 70
192
 0
VERTEX
 8
GRIGLIA_1
 10
2.2034
 20
-19.3946
 30
-3.1217
 70
192
 0
VERTEX
 8
GRIGLIA_1
 10
2.2034
 20
-20.3986
 30
-3.1217
 70
192
 0
VERTEX
 8
GRIGLIA_1
 10
2.2034
 20
-48.4834
 30
-3.1217
 70
192
 0
VERTEX
 8
GRIGLIA_1
 10
2.2034
 20
-49.4868
 30
-3.1217
 70
192
 0
VERTEX
 8
GRIGLIA_1
 10
2.2034
 20
-49.4868
 30
-2.2216
 70
192
 0
VERTEX
 8
GRIGLIA_1
 10
2.8915
 20
-19.3946
 30
-2.2216
 70
192
 0
VERTEX
 8
GRIGLIA_1
 10
2.8915
 20
-19.3946
 30
-3.1217
 70
192
 0
VERTEX
 8
GRIGLIA_1
 10
2.8915
 20
-20.3986
 30
-3.1217
 70
192
 0
VERTEX
 8
GRIGLIA_1
 10
2.8915
 20
-48.4834
 30
-3.1217
 70
192
 0
VERTEX
 8
GRIGLIA_1
 10
2.8915
 20
-49.4868
 30
-3.1217
 70
192
 0
VERTEX
 8
GRIGLIA_1
 10
2.8915
 20
-49.4868
 30
-2.2216
 70
192
 0
VERTEX
 8
GRIGLIA_1
 10
4.7034
 20
-19.3946
 30
-2.2216
 70
192
 0
VERTEX
 8
GRIGLIA_1
 10
4.7034
 20
-19.3946
 30
-3.1217
 70
192
 0
VERTEX
 8
GRIGLIA_1
 10
4.7034
 20
-20.3986
 30
-3.1217
 70
192
 0
VERTEX
 8
GRIGLIA_1
 10
4.7034
 20
-48.4834
 30
-3.1217
 70
192
 0
VERTEX
 8
GRIGLIA_1
 10
4.7034
 20
-49.4868
 30
-3.1217
 70
192
 0
VERTEX
 8
GRIGLIA_1
 10
4.7034
 20
-49.4868
 30
-2.2216
 70
192
 0
VERTEX
 8
GRIGLIA_1
 10
5.3912
 20
-19.3946
 30
-2.2216
 70
192
 0
VERTEX
 8
GRIGLIA_1
 10
5.3912
 20
-19.3946
 30
-3.1217
 70
192
 0
VERTEX
 8
GRIGLIA_1
 10
5.3912
 20
-20.3986
 30
-3.1217
 70
192
 0
VERTEX
 8
GRIGLIA_1
 10
5.3912
 20
-48.4834
 30
-3.1217
 70
192
 0
VERTEX
 8
GRIGLIA_1
 10
5.3912
 20
-49.4868
 30
-3.1217
 70
192
 0
VERTEX
 8
GRIGLIA_1
 10
5.3912
 20
-49.4868
 30
-2.2216
 70
192
 0
VERTEX
 8
GRIGLIA_1
 10
7.2082
 20
-19.3946
 30
-2.2216
 70
192
 0
VERTEX
 8
GRIGLIA_1
 10
7.2082
 20
-19.3946
 30
-3.1217
 70
192
 0
VERTEX
 8
GRIGLIA_1
 10
7.2082
 20
-20.3986
 30
-3.1217
 70
192
 0
VERTEX
 8
GRIGLIA_1
 10
7.2082
 20
-48.4834
 30
-3.1217
 70
192
 0
VERTEX
 8
GRIGLIA_1
 10
7.2082
 20
-49.4868
 30
-3.1217
 70
192
 0
VERTEX
 8
GRIGLIA_1
 10
7.2082
 20
-49.4868
 30
-2.2216
 70
192
 0
VERTEX
 8
GRIGLIA_1
 10
7.8902
 20
-19.3946
 30
-2.2216
 70
192
 0
VERTEX
 8
GRIGLIA_1
 10
7.8902
 20
-19.3946
 30
-3.1217
 70
192
 0
VERTEX
 8
GRIGLIA_1
 10
7.8902
 20
-20.3986
 30
-3.1217
 70
192
 0
VERTEX
 8
GRIGLIA_1
 10
7.8902
 20
-48.4834
 30
-3.1217
 70
192
 0
VERTEX
 8
GRIGLIA_1
 10
7.8902
 20
-49.4868
 30
-3.1217
 70
192
 0
VERTEX
 8
GRIGLIA_1
 10
7.8902
 20
-49.4868
 30
-2.2216
 70
192
 0
VERTEX
 8
GRIGLIA_1
 10
9.7037
 20
-19.3946
 30
-2.2216
 70
192
 0
VERTEX
 8
GRIGLIA_1
 10
9.7037
 20
-19.3946
 30
-3.1217
 70
192
 0
VERTEX
 8
GRIGLIA_1
 10
9.7037
 20
-20.3986
 30
-3.1217
 70
192
 0
VERTEX
 8
GRIGLIA_1
 10
9.7037
 20
-48.4834
 30
-3.1217
 70
192
 0
VERTEX
 8
GRIGLIA_1
 10
9.7037
 20
-49.4868
 30
-3.1217
 70
192
 0
VERTEX
 8
GRIGLIA_1
 10
9.7037
 20
-49.4868
 30
-2.2216
 70
192
 0
VERTEX
 8
GRIGLIA_1
 10
10.3915
 20
-19.3946
 30
-2.2216
 70
192
 0
VERTEX
 8
GRIGLIA_1
 10
10.3915
 20
-19.3946
 30
-3.1217
 70
192
 0
VERTEX
 8
GRIGLIA_1
 10
10.3915
 20
-20.3986
 30
-3.1217
 70
192
 0
VERTEX
 8
GRIGLIA_1
 10
10.3915
 20
-48.4834
 30
-3.1217
 70
192
 0
VERTEX
 8
GRIGLIA_1
 10
10.3915
 20
-49.4868
 30
-3.1217
 70
192
 0
VERTEX
 8
GRIGLIA_1
 10
10.3915
 20
-49.4868
 30
-2.2216
 70
192
 0
VERTEX
 8
GRIGLIA_1
 10
-2.7965
 20
-43.3429
 30
-3.1217
 70
192
 0
VERTEX
 8
GRIGLIA_1
 10
-2.1082
 20
-43.3429
 30
-3.1217
 70
192
 0
VERTEX
 8
GRIGLIA_1
 10
-0.2968
 20
-43.3429
 30
-3.1217
 70
192
 0
VERTEX
 8
GRIGLIA_1
 10
0.391
 20
-43.3429
 30
-3.1217
 70
192
 0
VERTEX
 8
GRIGLIA_1
 10
2.2034
 20
-43.3429
 30
-3.1217
 70
192
 0
VERTEX
 8
GRIGLIA_1
 10
2.8915
 20
-43.3429
 30
-3.1217
 70
192
 0
VERTEX
 8
GRIGLIA_1
 10
-7.796
 20
-48.4834
 30
-2.4232
 70
192
 0
VERTEX
 8
GRIGLIA_1
 10
-7.796
 20
-20.3986
 30
-2.4232
 70
192
 0
VERTEX
 8
GRIGLIA_1
 10
-7.109
 20
-20.3986
 30
-2.4232
 70
192
 0
VERTEX
 8
GRIGLIA_1
 10
-7.109
 20
-48.4834
 30
-2.4232
 70
192
 0
VERTEX
 8
GRIGLIA_1
 10
-5.2966
 20
-20.3986
 30
-2.4232
 70
192
 0
VERTEX
 8
GRIGLIA_1
 10
-5.2966
 20
-48.4834
 30
-2.4232
 70
192
 0
VERTEX
 8
GRIGLIA_1
 10
-4.6088
 20
-20.3986
 30
-2.4232
 70
192
 0
VERTEX
 8
GRIGLIA_1
 10
-4.6088
 20
-48.4834
 30
-2.4232
 70
192
 0
VERTEX
 8
GRIGLIA_1
 10
-2.7965
 20
-20.3986
 30
-2.4232
 70
192
 0
VERTEX
 8
GRIGLIA_1
 10
-2.1082
 20
-20.3986
 30
-2.4232
 70
192
 0
VERTEX
 8
GRIGLIA_1
 10
-2.7965
 20
-43.3428
 30
-2.4232
 70
192
 0
VERTEX
 8
GRIGLIA_1
 10
-2.1082
 20
-43.3428
 30
-2.4232
 70
192
 0
VERTEX
 8
GRIGLIA_1
 10
-0.2968
 20
-20.3986
 30
-2.4232
 70
192
 0
VERTEX
 8
GRIGLIA_1
 10
0.391
 20
-20.3986
 30
-2.4232
 70
192
 0
VERTEX
 8
GRIGLIA_1
 10
-0.2968
 20
-43.3428
 30
-2.4232
 70
192
 0
VERTEX
 8
GRIGLIA_1
 10
0.391
 20
-43.3428
 30
-2.4232
 70
192
 0
VERTEX
 8
GRIGLIA_1
 10
2.2034
 20
-20.3986
 30
-2.4232
 70
192
 0
VERTEX
 8
GRIGLIA_1
 10
2.8915
 20
-20.3986
 30
-2.4232
 70
192
 0
VERTEX
 8
GRIGLIA_1
 10
2.2034
 20
-43.3428
 30
-2.4232
 70
192
 0
VERTEX
 8
GRIGLIA_1
 10
2.8915
 20
-43.3428
 30
-2.4232
 70
192
 0
VERTEX
 8
GRIGLIA_1
 10
4.7034
 20
-20.3986
 30
-2.4232
 70
192
 0
VERTEX
 8
GRIGLIA_1
 10
4.7034
 20
-48.4834
 30
-2.4232
 70
192
 0
VERTEX
 8
GRIGLIA_1
 10
5.3912
 20
-20.3986
 30
-2.4232
 70
192
 0
VERTEX
 8
GRIGLIA_1
 10
5.3912
 20
-48.4834
 30
-2.4232
 70
192
 0
VERTEX
 8
GRIGLIA_1
 10
7.2082
 20
-20.3986
 30
-2.4232
 70
192
 0
VERTEX
 8
GRIGLIA_1
 10
7.2082
 20
-48.4834
 30
-2.4232
 70
192
 0
VERTEX
 8
GRIGLIA_1
 10
7.8902
 20
-20.3986
 30
-2.4232
 70
192
 0
VERTEX
 8
GRIGLIA_1
 10
7.8902
 20
-48.4834
 30
-2.4232
 70
192
 0
VERTEX
 8
GRIGLIA_1
 10
-10.9125
 20
-49.4868
 30
-2.2216
 70
192
 0
VERTEX
 8
GRIGLIA_1
 10
13.8827
 20
-48.9851
 30
-2.2216
 70
192
 0
VERTEX
 8
GRIGLIA_1
 10
11.007
 20
-19.3946
 30
-2.2216
 70
192
 0
VERTEX
 8
GRIGLIA_1
 10
-13.9287
 20
-19.8966
 30
-2.2216
 70
192
 0
VERTEX
 8
GRIGLIA_1
 10
-9.9532
 20
-49.4868
 30
-2.2216
 70
192
 0
VERTEX
 8
GRIGLIA_1
 10
-10.9125
 20
-19.3946
 30
-2.2216
 70
192
 0
VERTEX
 8
GRIGLIA_1
 10
-9.9532
 20
-19.3946
 30
-2.2216
 70
192
 0
VERTEX
 8
GRIGLIA_1
 10
-8.7029
 20
-49.4868
 30
-2.2216
 70
192
 0
VERTEX
 8
GRIGLIA_1
 10
13.8827
 20
-36.6136
 30
-2.2216
 70
192
 0
VERTEX
 8
GRIGLIA_1
 10
-13.9287
 20
-48.9851
 30
-2.2216
 70
192
 0
VERTEX
 8
GRIGLIA_1
 10
-13.9287
 20
-36.6136
 30
-2.2216
 70
192
 0
VERTEX
 8
GRIGLIA_1
 10
13.8827
 20
-19.8966
 30
-2.2216
 70
192
 0
VERTEX
 8
GRIGLIA_1
 10
-8.7029
 20
-19.3946
 30
-2.2216
 70
192
 0
VERTEX
 8
GRIGLIA_1
 10
-7.4525
 20
-49.4868
 30
-2.2216
 70
192
 0
VERTEX
 8
GRIGLIA_1
 10
-7.4525
 20
-19.3946
 30
-2.2216
 70
192
 0
VERTEX
 8
GRIGLIA_1
 10
-6.2028
 20
-49.4868
 30
-2.2216
 70
192
 0
VERTEX
 8
GRIGLIA_1
 10
-6.2028
 20
-19.3946
 30
-2.2216
 70
192
 0
VERTEX
 8
GRIGLIA_1
 10
-4.9527
 20
-49.4868
 30
-2.2216
 70
192
 0
VERTEX
 8
GRIGLIA_1
 10
-4.9527
 20
-19.3946
 30
-2.2216
 70
192
 0
VERTEX
 8
GRIGLIA_1
 10
-3.7026
 20
-49.4868
 30
-2.2216
 70
192
 0
VERTEX
 8
GRIGLIA_1
 10
-3.7026
 20
-19.3946
 30
-2.2216
 70
192
 0
VERTEX
 8
GRIGLIA_1
 10
-2.4523
 20
-49.4868
 30
-2.2216
 70
192
 0
VERTEX
 8
GRIGLIA_1
 10
-2.4523
 20
-19.3946
 30
-2.2216
 70
192
 0
VERTEX
 8
GRIGLIA_1
 10
-1.2025
 20
-49.4868
 30
-2.2216
 70
192
 0
VERTEX
 8
GRIGLIA_1
 10
-1.2025
 20
-19.3946
 30
-2.2216
 70
192
 0
VERTEX
 8
GRIGLIA_1
 10
0.0471
 20
-49.4868
 30
-2.2216
 70
192
 0
VERTEX
 8
GRIGLIA_1
 10
0.0471
 20
-19.3946
 30
-2.2216
 70
192
 0
VERTEX
 8
GRIGLIA_1
 10
1.2972
 20
-49.4868
 30
-2.2216
 70
192
 0
VERTEX
 8
GRIGLIA_1
 10
1.2972
 20
-19.3946
 30
-2.2216
 70
192
 0
VERTEX
 8
GRIGLIA_1
 10
2.5474
 20
-49.4868
 30
-2.2216
 70
192
 0
VERTEX
 8
GRIGLIA_1
 10
2.5474
 20
-19.3946
 30
-2.2216
 70
192
 0
VERTEX
 8
GRIGLIA_1
 10
3.7975
 20
-49.4868
 30
-2.2216
 70
192
 0
VERTEX
 8
GRIGLIA_1
 10
3.7975
 20
-19.3946
 30
-2.2216
 70
192
 0
VERTEX
 8
GRIGLIA_1
 10
5.0473
 20
-49.4868
 30
-2.2216
 70
192
 0
VERTEX
 8
GRIGLIA_1
 10
5.0473
 20
-19.3946
 30
-2.2216
 70
192
 0
VERTEX
 8
GRIGLIA_1
 10
6.2997
 20
-49.4868
 30
-2.2216
 70
192
 0
VERTEX
 8
GRIGLIA_1
 10
6.2997
 20
-19.3946
 30
-2.2216
 70
192
 0
VERTEX
 8
GRIGLIA_1
 10
7.5492
 20
-49.4868
 30
-2.2216
 70
192
 0
VERTEX
 8
GRIGLIA_1
 10
7.5492
 20
-19.3946
 30
-2.2216
 70
192
 0
VERTEX
 8
GRIGLIA_1
 10
8.797
 20
-49.4868
 30
-2.2216
 70
192
 0
VERTEX
 8
GRIGLIA_1
 10
8.797
 20
-19.3946
 30
-2.2216
 70
192
 0
VERTEX
 8
GRIGLIA_1
 10
10.0476
 20
-49.4868
 30
-2.2216
 70
192
 0
VERTEX
 8
GRIGLIA_1
 10
10.0476
 20
-19.3946
 30
-2.2216
 70
192
 0
VERTEX
 8
GRIGLIA_1
 10
11.007
 20
-49.4868
 30
-2.2216
 70
192
 0
VERTEX
 8
GRIGLIA_1
 10
1.5968
 20
-44.3383
 30
-3.1217
 70
192
 0
VERTEX
 8
GRIGLIA_1
 10
-1.5035
 20
-44.3383
 30
-3.1217
 70
192
 0
VERTEX
 8
GRIGLIA_1
 10
-1.5035
 20
-48.3573
 30
-3.1217
 70
192
 0
VERTEX
 8
GRIGLIA_1
 10
1.5968
 20
-48.3573
 30
-3.1217
 70
192
 0
VERTEX
 8
GRIGLIA_1
 10
1.5968
 20
-44.3383
 30
-3.2314
 70
192
 0
VERTEX
 8
GRIGLIA_1
 10
-1.5035
 20
-44.3384
 30
-3.2314
 70
192
 0
VERTEX
 8
GRIGLIA_1
 10
-1.5035
 20
-48.3573
 30
-3.2314
 70
192
 0
VERTEX
 8
GRIGLIA_1
 10
1.5968
 20
-48.3573
 30
-3.2314
 70
192
 0
VERTEX
 8
GRIGLIA_1
 10
1.0563
 20
-44.8881
 30
-3.2314
 70
192
 0
VERTEX
 8
GRIGLIA_1
 10
-0.9628
 20
-44.8881
 30
-3.2314
 70
192
 0
VERTEX
 8
GRIGLIA_1
 10
-0.9628
 20
-45.7893
 30
-3.2314
 70
192
 0
VERTEX
 8
GRIGLIA_1
 10
1.0563
 20
-45.7893
 30
-3.2314
 70
192
 0
VERTEX
 8
GRIGLIA_1
 10
0.8563
 20
-44.9513
 30
-3.1292
 70
192
 0
VERTEX
 8
GRIGLIA_1
 10
-0.7628
 20
-44.9514
 30
-3.1292
 70
192
 0
VERTEX
 8
GRIGLIA_1
 10
-0.7628
 20
-45.7892
 30
-3.1292
 70
192
 0
VERTEX
 8
GRIGLIA_1
 10
0.8563
 20
-45.7892
 30
-3.1292
 70
192
 0
VERTEX
 8
GRIGLIA_1
 10
12.2027
 20
-49.4868
 30
-2.4122
 70
192
 0
VERTEX
 8
GRIGLIA_1
 10
12.2027
 20
-49.4868
 30
-3.1217
 70
192
 0
VERTEX
 8
GRIGLIA_1
 10
12.2027
 20
-19.3946
 30
-2.2216
 70
192
 0
VERTEX
 8
GRIGLIA_1
 10
12.2027
 20
-19.3946
 30
-2.4122
 70
192
 0
VERTEX
 8
GRIGLIA_1
 10
12.2027
 20
-48.4834
 30
-3.1217
 70
192
 0
VERTEX
 8
GRIGLIA_1
 10
12.2027
 20
-19.3946
 30
-3.1217
 70
192
 0
VERTEX
 8
GRIGLIA_1
 10
12.2027
 20
-49.4868
 30
-2.2216
 70
192
 0
VERTEX
 8
GRIGLIA_1
 10
12.2027
 20
-20.3986
 30
-3.1217
 70
192
 0
VERTEX
 8
GRIGLIA_1
 10
12.891
 20
-19.3946
 30
-3.1217
 70
192
 0
VERTEX
 8
GRIGLIA_1
 10
12.891
 20
-19.3946
 30
-2.6909
 70
192
 0
VERTEX
 8
GRIGLIA_1
 10
12.891
 20
-20.3986
 30
-3.1217
 70
192
 0
VERTEX
 8
GRIGLIA_1
 10
12.891
 20
-48.4834
 30
-3.1217
 70
192
 0
VERTEX
 8
GRIGLIA_1
 10
12.891
 20
-19.3946
 30
-2.2216
 70
192
 0
VERTEX
 8
GRIGLIA_1
 10
12.891
 20
-49.4868
 30
-2.2216
 70
192
 0
VERTEX
 8
GRIGLIA_1
 10
12.891
 20
-49.4868
 30
-2.6909
 70
192
 0
VERTEX
 8
GRIGLIA_1
 10
12.891
 20
-49.4868
 30
-3.1217
 70
192
 0
VERTEX
 8
GRIGLIA_1
 10
-12.7973
 20
-49.4868
 30
-2.2216
 70
192
 0
VERTEX
 8
GRIGLIA_1
 10
-12.7973
 20
-49.4868
 30
-2.7235
 70
192
 0
VERTEX
 8
GRIGLIA_1
 10
-12.7973
 20
-19.3946
 30
-2.2216
 70
192
 0
VERTEX
 8
GRIGLIA_1
 10
-12.7973
 20
-49.4868
 30
-3.1217
 70
192
 0
VERTEX
 8
GRIGLIA_1
 10
-12.7973
 20
-20.3986
 30
-3.1217
 70
192
 0
VERTEX
 8
GRIGLIA_1
 10
-12.7973
 20
-19.3946
 30
-3.1217
 70
192
 0
VERTEX
 8
GRIGLIA_1
 10
-12.7973
 20
-19.3946
 30
-2.7235
 70
192
 0
VERTEX
 8
GRIGLIA_1
 10
-12.7973
 20
-48.4834
 30
-3.1217
 70
192
 0
VERTEX
 8
GRIGLIA_1
 10
-12.109
 20
-19.3946
 30
-2.2216
 70
192
 0
VERTEX
 8
GRIGLIA_1
 10
-12.109
 20
-49.4868
 30
-2.2216
 70
192
 0
VERTEX
 8
GRIGLIA_1
 10
-12.109
 20
-49.4868
 30
-2.5663
 70
192
 0
VERTEX
 8
GRIGLIA_1
 10
-12.109
 20
-19.3946
 30
-2.5663
 70
192
 0
VERTEX
 8
GRIGLIA_1
 10
-12.109
 20
-49.4868
 30
-3.1217
 70
192
 0
VERTEX
 8
GRIGLIA_1
 10
-12.109
 20
-20.3986
 30
-3.1217
 70
192
 0
VERTEX
 8
GRIGLIA_1
 10
-12.109
 20
-19.3946
 30
-3.1217
 70
192
 0
VERTEX
 8
GRIGLIA_1
 10
-12.109
 20
-48.4834
 30
-3.1217
 70
192
 0
VERTEX
 8
GRIGLIA_1
 10
-12.797
 20
-20.3983
 30
-2.4236
 70
192
 0
VERTEX
 8
GRIGLIA_1
 10
-12.797
 20
-48.4835
 30
-2.4236
 70
192
 0
VERTEX
 8
GRIGLIA_1
 10
-12.109
 20
-20.3983
 30
-2.4236
 70
192
 0
VERTEX
 8
GRIGLIA_1
 10
-12.109
 20
-48.4835
 30
-2.4236
 70
192
 0
VERTEX
 8
GRIGLIA_1
 10
12.203
 20
-48.4835
 30
-2.4236
 70
192
 0
VERTEX
 8
GRIGLIA_1
 10
12.203
 20
-20.3983
 30
-2.4236
 70
192
 0
VERTEX
 8
GRIGLIA_1
 10
12.891
 20
-20.3983
 30
-2.4236
 70
192
 0
VERTEX
 8
GRIGLIA_1
 10
12.891
 20
-48.4835
 30
-2.4236
 70
192
 0
VERTEX
 8
GRIGLIA_1
 10
13.0811
 20
-49.4868
 30
-2.2216
 70
192
 0
VERTEX
 8
GRIGLIA_1
 10
13.0811
 20
-19.3946
 30
-2.2216
 70
192
 0
VERTEX
 8
GRIGLIA_1
 10
13.0811
 20
-49.4868
 30
-3.1217
 70
192
 0
VERTEX
 8
GRIGLIA_1
 10
13.1811
 20
-49.4868
 30
-2.2216
 70
192
 0
VERTEX
 8
GRIGLIA_1
 10
13.1811
 20
-49.4868
 30
-3.1217
 70
192
 0
VERTEX
 8
GRIGLIA_1
 10
13.1811
 20
-19.3946
 30
-2.2216
 70
192
 0
VERTEX
 8
GRIGLIA_1
 10
-13.529
 20
-19.3946
 30
-2.2216
 70
192
 0
VERTEX
 8
GRIGLIA_1
 10
-13.529
 20
-49.4868
 30
-2.2216
 70
192
 0
VERTEX
 8
GRIGLIA_1
 10
-13.529
 20
-49.4868
 30
-3.1217
 70
192
 0
VERTEX
 8
GRIGLIA_1
 10
-13.629
 20
-49.4868
 30
-3.1217
 70
192
 0
VERTEX
 8
GRIGLIA_1
 10
-13.629
 20
-49.4868
 30
-2.2216
 70
192
 0
VERTEX
 8
GRIGLIA_1
 10
-13.629
 20
-19.3946
 30
-2.2216
 70
192
 0
VERTEX
 8
GRIGLIA_1
 10
-13.629
 20
-20.3986
 30
-3.1217
 70
192
 0
VERTEX
 8
GRIGLIA_1
 10
-13.629
 20
-19.3946
 30
-3.1217
 70
192
 0
VERTEX
 8
GRIGLIA_1
 10
-13.629
 20
-48.4834
 30
-3.1217
 70
192
 0
VERTEX
 8
GRIGLIA_1
 10
-13.529
 20
-20.3986
 30
-3.1217
 70
192
 0
VERTEX
 8
GRIGLIA_1
 10
-13.529
 20
-19.3946
 30
-3.1217
 70
192
 0
VERTEX
 8
GRIGLIA_1
 10
-13.529
 20
-48.4834
 30
-3.1217
 70
192
 0
VERTEX
 8
GRIGLIA_1
 10
13.0811
 20
-20.3986
 30
-3.1217
 70
192
 0
VERTEX
 8
GRIGLIA_1
 10
13.0811
 20
-48.4834
 30
-3.1217
 70
192
 0
VERTEX
 8
GRIGLIA_1
 10
13.0811
 20
-19.3946
 30
-3.1217
 70
192
 0
VERTEX
 8
GRIGLIA_1
 10
13.1811
 20
-19.3946
 30
-3.1217
 70
192
 0
VERTEX
 8
GRIGLIA_1
 10
13.1811
 20
-20.3986
 30
-3.1217
 70
192
 0
VERTEX
 8
GRIGLIA_1
 10
13.1811
 20
-48.4834
 30
-3.1217
 70
192
 0
VERTEX
 8
GRIGLIA_1
 10
0
 20
0
 30
0
 70
128
 71
167
 72
9
 73
10
 74
10
 0
VERTEX
 8
GRIGLIA_1
 10
0
 20
0
 30
0
 70
128
 71
167
 72
10
 73
255
 74
253
 0
VERTEX
 8
GRIGLIA_1
 10
0
 20
0
 30
0
 70
128
 71
167
 72
253
 73
252
 74
252
 0
VERTEX
 8
GRIGLIA_1
 10
0
 20
0
 30
0
 70
128
 71
253
 72
244
 73
243
 74
252
 0
VERTEX
 8
GRIGLIA_1
 10
0
 20
0
 30
0
 70
128
 71
244
 72
253
 73
255
 74
246
 0
VERTEX
 8
GRIGLIA_1
 10
0
 20
0
 30
0
 70
128
 71
274
 72
243
 73
244
 74
275
 0
VERTEX
 8
GRIGLIA_1
 10
0
 20
0
 30
0
 70
128
 71
244
 72
246
 73
275
 74
275
 0
VERTEX
 8
GRIGLIA_1
 10
0
 20
0
 30
0
 70
128
 71
210
 72
233
 73
227
 74
227
 0
VERTEX
 8
GRIGLIA_1
 10
0
 20
0
 30
0
 70
128
 71
210
 72
227
 73
228
 74
131
 0
VERTEX
 8
GRIGLIA_1
 10
0
 20
0
 30
0
 70
128
 71
210
 72
131
 73
132
 74
132
 0
VERTEX
 8
GRIGLIA_1
 10
0
 20
0
 30
0
 70
128
 71
227
 72
233
 73
240
 74
241
 0
VERTEX
 8
GRIGLIA_1
 10
0
 20
0
 30
0
 70
128
 71
241
 72
242
 73
228
 74
227
 0
VERTEX
 8
GRIGLIA_1
 10
0
 20
0
 30
0
 70
128
 71
230
 72
236
 73
239
 74
229
 0
VERTEX
 8
GRIGLIA_1
 10
0
 20
0
 30
0
 70
128
 71
236
 72
230
 73
232
 74
235
 0
VERTEX
 8
GRIGLIA_1
 10
0
 20
0
 30
0
 70
128
 71
268
 72
239
 73
236
 74
287
 0
VERTEX
 8
GRIGLIA_1
 10
0
 20
0
 30
0
 70
128
 71
236
 72
235
 73
287
 74
287
 0
VERTEX
 8
GRIGLIA_1
 10
0
 20
0
 30
0
 70
128
 71
169
 72
127
 73
128
 74
128
 0
VERTEX
 8
GRIGLIA_1
 10
0
 20
0
 30
0
 70
128
 71
232
 72
230
 73
169
 74
128
 0
VERTEX
 8
GRIGLIA_1
 10
0
 20
0
 30
0
 70
128
 71
169
 72
230
 73
229
 74
229
 0
VERTEX
 8
GRIGLIA_1
 10
0
 20
0
 30
0
 70
128
 71
283
 72
248
 73
249
 74
249
 0
VERTEX
 8
GRIGLIA_1
 10
0
 20
0
 30
0
 70
128
 71
273
 72
283
 73
249
 74
245
 0
VERTEX
 8
GRIGLIA_1
 10
0
 20
0
 30
0
 70
128
 71
172
 72
251
 73
254
 74
254
 0
VERTEX
 8
GRIGLIA_1
 10
0
 20
0
 30
0
 70
128
 71
172
 72
254
 73
257
 74
12
 0
VERTEX
 8
GRIGLIA_1
 10
0
 20
0
 30
0
 70
128
 71
172
 72
12
 73
11
 74
11
 0
VERTEX
 8
GRIGLIA_1
 10
0
 20
0
 30
0
 70
128
 71
249
 72
248
 73
257
 74
254
 0
VERTEX
 8
GRIGLIA_1
 10
0
 20
0
 30
0
 70
128
 71
254
 72
251
 73
245
 74
249
 0
VERTEX
 8
GRIGLIA_1
 10
0
 20
0
 30
0
 70
128
 71
269
 72
242
 73
241
 74
241
 0
VERTEX
 8
GRIGLIA_1
 10
0
 20
0
 30
0
 70
128
 71
267
 72
269
 73
241
 74
240
 0
VERTEX
 8
GRIGLIA_1
 10
0
 20
0
 30
0
 70
128
 71
275
 72
276
 73
277
 74
274
 0
VERTEX
 8
GRIGLIA_1
 10
0
 20
0
 30
0
 70
128
 71
4
 72
168
 73
3
 74
3
 0
VERTEX
 8
GRIGLIA_1
 10
0
 20
0
 30
0
 70
128
 71
168
 72
17
 73
18
 74
18
 0
VERTEX
 8
GRIGLIA_1
 10
0
 20
0
 30
0
 70
128
 71
168
 72
18
 73
3
 74
3
 0
VERTEX
 8
GRIGLIA_1
 10
0
 20
0
 30
0
 70
128
 71
285
 72
237
 73
238
 74
286
 0
VERTEX
 8
GRIGLIA_1
 10
0
 20
0
 30
0
 70
128
 71
8
 72
170
 73
7
 74
7
 0
VERTEX
 8
GRIGLIA_1
 10
0
 20
0
 30
0
 70
128
 71
170
 72
25
 73
26
 74
26
 0
VERTEX
 8
GRIGLIA_1
 10
0
 20
0
 30
0
 70
128
 71
170
 72
26
 73
7
 74
7
 0
VERTEX
 8
GRIGLIA_1
 10
0
 20
0
 30
0
 70
128
 71
7
 72
26
 73
279
 74
280
 0
VERTEX
 8
GRIGLIA_1
 10
0
 20
0
 30
0
 70
128
 71
9
 72
171
 73
10
 74
10
 0
VERTEX
 8
GRIGLIA_1
 10
0
 20
0
 30
0
 70
128
 71
171
 72
15
 73
16
 74
16
 0
VERTEX
 8
GRIGLIA_1
 10
0
 20
0
 30
0
 70
128
 71
171
 72
16
 73
10
 74
10
 0
VERTEX
 8
GRIGLIA_1
 10
0
 20
0
 30
0
 70
128
 71
278
 72
8
 73
7
 74
280
 0
VERTEX
 8
GRIGLIA_1
 10
0
 20
0
 30
0
 70
128
 71
10
 72
16
 73
24
 74
22
 0
VERTEX
 8
GRIGLIA_1
 10
0
 20
0
 30
0
 70
128
 71
13
 72
173
 73
14
 74
14
 0
VERTEX
 8
GRIGLIA_1
 10
0
 20
0
 30
0
 70
128
 71
173
 72
11
 73
12
 74
12
 0
VERTEX
 8
GRIGLIA_1
 10
0
 20
0
 30
0
 70
128
 71
173
 72
12
 73
14
 74
14
 0
VERTEX
 8
GRIGLIA_1
 10
0
 20
0
 30
0
 70
128
 71
15
 72
174
 73
16
 74
16
 0
VERTEX
 8
GRIGLIA_1
 10
0
 20
0
 30
0
 70
128
 71
174
 72
39
 73
40
 74
40
 0
VERTEX
 8
GRIGLIA_1
 10
0
 20
0
 30
0
 70
128
 71
174
 72
40
 73
16
 74
16
 0
VERTEX
 8
GRIGLIA_1
 10
0
 20
0
 30
0
 70
128
 71
16
 72
40
 73
41
 74
24
 0
VERTEX
 8
GRIGLIA_1
 10
0
 20
0
 30
0
 70
128
 71
17
 72
175
 73
18
 74
18
 0
VERTEX
 8
GRIGLIA_1
 10
0
 20
0
 30
0
 70
128
 71
175
 72
30
 73
31
 74
31
 0
VERTEX
 8
GRIGLIA_1
 10
0
 20
0
 30
0
 70
128
 71
175
 72
31
 73
18
 74
18
 0
VERTEX
 8
GRIGLIA_1
 10
0
 20
0
 30
0
 70
128
 71
19
 72
176
 73
20
 74
20
 0
VERTEX
 8
GRIGLIA_1
 10
0
 20
0
 30
0
 70
128
 71
176
 72
2
 73
1
 74
1
 0
VERTEX
 8
GRIGLIA_1
 10
0
 20
0
 30
0
 70
128
 71
176
 72
1
 73
20
 74
20
 0
VERTEX
 8
GRIGLIA_1
 10
0
 20
0
 30
0
 70
128
 71
20
 72
1
 73
276
 74
281
 0
VERTEX
 8
GRIGLIA_1
 10
0
 20
0
 30
0
 70
128
 71
34
 72
36
 73
35
 74
33
 0
VERTEX
 8
GRIGLIA_1
 10
0
 20
0
 30
0
 70
128
 71
18
 72
31
 73
289
 74
290
 0
VERTEX
 8
GRIGLIA_1
 10
0
 20
0
 30
0
 70
128
 71
25
 72
177
 73
26
 74
26
 0
VERTEX
 8
GRIGLIA_1
 10
0
 20
0
 30
0
 70
128
 71
177
 72
19
 73
20
 74
20
 0
VERTEX
 8
GRIGLIA_1
 10
0
 20
0
 30
0
 70
128
 71
177
 72
20
 73
26
 74
26
 0
VERTEX
 8
GRIGLIA_1
 10
0
 20
0
 30
0
 70
128
 71
26
 72
20
 73
281
 74
279
 0
VERTEX
 8
GRIGLIA_1
 10
0
 20
0
 30
0
 70
128
 71
30
 72
178
 73
31
 74
31
 0
VERTEX
 8
GRIGLIA_1
 10
0
 20
0
 30
0
 70
128
 71
178
 72
6
 73
5
 74
5
 0
VERTEX
 8
GRIGLIA_1
 10
0
 20
0
 30
0
 70
128
 71
178
 72
5
 73
31
 74
31
 0
VERTEX
 8
GRIGLIA_1
 10
0
 20
0
 30
0
 70
128
 71
32
 72
14
 73
12
 74
27
 0
VERTEX
 8
GRIGLIA_1
 10
0
 20
0
 30
0
 70
128
 71
31
 72
5
 73
288
 74
289
 0
VERTEX
 8
GRIGLIA_1
 10
0
 20
0
 30
0
 70
128
 71
24
 72
34
 73
33
 74
22
 0
VERTEX
 8
GRIGLIA_1
 10
0
 20
0
 30
0
 70
128
 71
22
 72
33
 73
35
 74
27
 0
VERTEX
 8
GRIGLIA_1
 10
0
 20
0
 30
0
 70
128
 71
27
 72
35
 73
36
 74
32
 0
VERTEX
 8
GRIGLIA_1
 10
0
 20
0
 30
0
 70
128
 71
32
 72
36
 73
34
 74
24
 0
VERTEX
 8
GRIGLIA_1
 10
0
 20
0
 30
0
 70
128
 71
37
 72
179
 73
38
 74
38
 0
VERTEX
 8
GRIGLIA_1
 10
0
 20
0
 30
0
 70
128
 71
179
 72
13
 73
14
 74
14
 0
VERTEX
 8
GRIGLIA_1
 10
0
 20
0
 30
0
 70
128
 71
179
 72
14
 73
38
 74
38
 0
VERTEX
 8
GRIGLIA_1
 10
0
 20
0
 30
0
 70
128
 71
39
 72
180
 73
40
 74
40
 0
VERTEX
 8
GRIGLIA_1
 10
0
 20
0
 30
0
 70
128
 71
180
 72
47
 73
48
 74
48
 0
VERTEX
 8
GRIGLIA_1
 10
0
 20
0
 30
0
 70
128
 71
180
 72
48
 73
40
 74
40
 0
VERTEX
 8
GRIGLIA_1
 10
0
 20
0
 30
0
 70
128
 71
40
 72
48
 73
46
 74
41
 0
VERTEX
 8
GRIGLIA_1
 10
0
 20
0
 30
0
 70
128
 71
42
 72
32
 73
24
 74
41
 0
VERTEX
 8
GRIGLIA_1
 10
0
 20
0
 30
0
 70
128
 71
38
 72
14
 73
32
 74
42
 0
VERTEX
 8
GRIGLIA_1
 10
0
 20
0
 30
0
 70
128
 71
43
 72
181
 73
44
 74
44
 0
VERTEX
 8
GRIGLIA_1
 10
0
 20
0
 30
0
 70
128
 71
181
 72
37
 73
38
 74
38
 0
VERTEX
 8
GRIGLIA_1
 10
0
 20
0
 30
0
 70
128
 71
181
 72
38
 73
44
 74
44
 0
VERTEX
 8
GRIGLIA_1
 10
0
 20
0
 30
0
 70
128
 71
141
 72
140
 73
139
 74
142
 0
VERTEX
 8
GRIGLIA_1
 10
0
 20
0
 30
0
 70
128
 71
44
 72
38
 73
42
 74
45
 0
VERTEX
 8
GRIGLIA_1
 10
0
 20
0
 30
0
 70
128
 71
47
 72
182
 73
48
 74
48
 0
VERTEX
 8
GRIGLIA_1
 10
0
 20
0
 30
0
 70
128
 71
182
 72
53
 73
54
 74
54
 0
VERTEX
 8
GRIGLIA_1
 10
0
 20
0
 30
0
 70
128
 71
182
 72
54
 73
48
 74
48
 0
VERTEX
 8
GRIGLIA_1
 10
0
 20
0
 30
0
 70
128
 71
48
 72
54
 73
52
 74
46
 0
VERTEX
 8
GRIGLIA_1
 10
0
 20
0
 30
0
 70
128
 71
49
 72
183
 73
50
 74
50
 0
VERTEX
 8
GRIGLIA_1
 10
0
 20
0
 30
0
 70
128
 71
183
 72
43
 73
44
 74
44
 0
VERTEX
 8
GRIGLIA_1
 10
0
 20
0
 30
0
 70
128
 71
183
 72
44
 73
50
 74
50
 0
VERTEX
 8
GRIGLIA_1
 10
0
 20
0
 30
0
 70
128
 71
51
 72
45
 73
46
 74
52
 0
VERTEX
 8
GRIGLIA_1
 10
0
 20
0
 30
0
 70
128
 71
50
 72
44
 73
45
 74
51
 0
VERTEX
 8
GRIGLIA_1
 10
0
 20
0
 30
0
 70
128
 71
53
 72
184
 73
54
 74
54
 0
VERTEX
 8
GRIGLIA_1
 10
0
 20
0
 30
0
 70
128
 71
184
 72
59
 73
60
 74
60
 0
VERTEX
 8
GRIGLIA_1
 10
0
 20
0
 30
0
 70
128
 71
184
 72
60
 73
54
 74
54
 0
VERTEX
 8
GRIGLIA_1
 10
0
 20
0
 30
0
 70
128
 71
54
 72
60
 73
58
 74
52
 0
VERTEX
 8
GRIGLIA_1
 10
0
 20
0
 30
0
 70
128
 71
55
 72
185
 73
56
 74
56
 0
VERTEX
 8
GRIGLIA_1
 10
0
 20
0
 30
0
 70
128
 71
185
 72
49
 73
50
 74
50
 0
VERTEX
 8
GRIGLIA_1
 10
0
 20
0
 30
0
 70
128
 71
185
 72
50
 73
56
 74
56
 0
VERTEX
 8
GRIGLIA_1
 10
0
 20
0
 30
0
 70
128
 71
145
 72
143
 73
144
 74
146
 0
VERTEX
 8
GRIGLIA_1
 10
0
 20
0
 30
0
 70
128
 71
56
 72
50
 73
51
 74
57
 0
VERTEX
 8
GRIGLIA_1
 10
0
 20
0
 30
0
 70
128
 71
59
 72
186
 73
60
 74
60
 0
VERTEX
 8
GRIGLIA_1
 10
0
 20
0
 30
0
 70
128
 71
186
 72
65
 73
66
 74
66
 0
VERTEX
 8
GRIGLIA_1
 10
0
 20
0
 30
0
 70
128
 71
186
 72
66
 73
60
 74
60
 0
VERTEX
 8
GRIGLIA_1
 10
0
 20
0
 30
0
 70
128
 71
60
 72
66
 73
64
 74
58
 0
VERTEX
 8
GRIGLIA_1
 10
0
 20
0
 30
0
 70
128
 71
61
 72
187
 73
62
 74
62
 0
VERTEX
 8
GRIGLIA_1
 10
0
 20
0
 30
0
 70
128
 71
187
 72
55
 73
56
 74
56
 0
VERTEX
 8
GRIGLIA_1
 10
0
 20
0
 30
0
 70
128
 71
187
 72
56
 73
62
 74
62
 0
VERTEX
 8
GRIGLIA_1
 10
0
 20
0
 30
0
 70
128
 71
62
 72
56
 73
57
 74
63
 0
VERTEX
 8
GRIGLIA_1
 10
0
 20
0
 30
0
 70
128
 71
65
 72
188
 73
66
 74
66
 0
VERTEX
 8
GRIGLIA_1
 10
0
 20
0
 30
0
 70
128
 71
188
 72
71
 73
72
 74
72
 0
VERTEX
 8
GRIGLIA_1
 10
0
 20
0
 30
0
 70
128
 71
188
 72
72
 73
66
 74
66
 0
VERTEX
 8
GRIGLIA_1
 10
0
 20
0
 30
0
 70
128
 71
66
 72
72
 73
70
 74
64
 0
VERTEX
 8
GRIGLIA_1
 10
0
 20
0
 30
0
 70
128
 71
67
 72
189
 73
68
 74
68
 0
VERTEX
 8
GRIGLIA_1
 10
0
 20
0
 30
0
 70
128
 71
189
 72
61
 73
62
 74
62
 0
VERTEX
 8
GRIGLIA_1
 10
0
 20
0
 30
0
 70
128
 71
189
 72
62
 73
68
 74
68
 0
VERTEX
 8
GRIGLIA_1
 10
0
 20
0
 30
0
 70
128
 71
148
 72
147
 73
149
 74
150
 0
VERTEX
 8
GRIGLIA_1
 10
0
 20
0
 30
0
 70
128
 71
68
 72
62
 73
63
 74
69
 0
VERTEX
 8
GRIGLIA_1
 10
0
 20
0
 30
0
 70
128
 71
71
 72
190
 73
72
 74
72
 0
VERTEX
 8
GRIGLIA_1
 10
0
 20
0
 30
0
 70
128
 71
190
 72
77
 73
78
 74
78
 0
VERTEX
 8
GRIGLIA_1
 10
0
 20
0
 30
0
 70
128
 71
190
 72
78
 73
72
 74
72
 0
VERTEX
 8
GRIGLIA_1
 10
0
 20
0
 30
0
 70
128
 71
72
 72
78
 73
76
 74
70
 0
VERTEX
 8
GRIGLIA_1
 10
0
 20
0
 30
0
 70
128
 71
73
 72
191
 73
74
 74
74
 0
VERTEX
 8
GRIGLIA_1
 10
0
 20
0
 30
0
 70
128
 71
191
 72
67
 73
68
 74
68
 0
VERTEX
 8
GRIGLIA_1
 10
0
 20
0
 30
0
 70
128
 71
191
 72
68
 73
74
 74
74
 0
VERTEX
 8
GRIGLIA_1
 10
0
 20
0
 30
0
 70
128
 71
75
 72
69
 73
134
 74
135
 0
VERTEX
 8
GRIGLIA_1
 10
0
 20
0
 30
0
 70
128
 71
74
 72
68
 73
69
 74
75
 0
VERTEX
 8
GRIGLIA_1
 10
0
 20
0
 30
0
 70
128
 71
77
 72
192
 73
78
 74
78
 0
VERTEX
 8
GRIGLIA_1
 10
0
 20
0
 30
0
 70
128
 71
192
 72
81
 73
82
 74
82
 0
VERTEX
 8
GRIGLIA_1
 10
0
 20
0
 30
0
 70
128
 71
192
 72
82
 73
78
 74
78
 0
VERTEX
 8
GRIGLIA_1
 10
0
 20
0
 30
0
 70
128
 71
78
 72
82
 73
84
 74
76
 0
VERTEX
 8
GRIGLIA_1
 10
0
 20
0
 30
0
 70
128
 71
79
 72
193
 73
80
 74
80
 0
VERTEX
 8
GRIGLIA_1
 10
0
 20
0
 30
0
 70
128
 71
193
 72
73
 73
74
 74
74
 0
VERTEX
 8
GRIGLIA_1
 10
0
 20
0
 30
0
 70
128
 71
193
 72
74
 73
80
 74
80
 0
VERTEX
 8
GRIGLIA_1
 10
0
 20
0
 30
0
 70
128
 71
81
 72
194
 73
82
 74
82
 0
VERTEX
 8
GRIGLIA_1
 10
0
 20
0
 30
0
 70
128
 71
194
 72
90
 73
89
 74
89
 0
VERTEX
 8
GRIGLIA_1
 10
0
 20
0
 30
0
 70
128
 71
194
 72
89
 73
82
 74
82
 0
VERTEX
 8
GRIGLIA_1
 10
0
 20
0
 30
0
 70
128
 71
152
 72
151
 73
153
 74
154
 0
VERTEX
 8
GRIGLIA_1
 10
0
 20
0
 30
0
 70
128
 71
80
 72
74
 73
75
 74
83
 0
VERTEX
 8
GRIGLIA_1
 10
0
 20
0
 30
0
 70
128
 71
82
 72
89
 73
88
 74
84
 0
VERTEX
 8
GRIGLIA_1
 10
0
 20
0
 30
0
 70
128
 71
85
 72
195
 73
86
 74
86
 0
VERTEX
 8
GRIGLIA_1
 10
0
 20
0
 30
0
 70
128
 71
195
 72
79
 73
80
 74
80
 0
VERTEX
 8
GRIGLIA_1
 10
0
 20
0
 30
0
 70
128
 71
195
 72
80
 73
86
 74
86
 0
VERTEX
 8
GRIGLIA_1
 10
0
 20
0
 30
0
 70
128
 71
87
 72
83
 73
136
 74
137
 0
VERTEX
 8
GRIGLIA_1
 10
0
 20
0
 30
0
 70
128
 71
89
 72
95
 73
94
 74
88
 0
VERTEX
 8
GRIGLIA_1
 10
0
 20
0
 30
0
 70
128
 71
86
 72
80
 73
83
 74
87
 0
VERTEX
 8
GRIGLIA_1
 10
0
 20
0
 30
0
 70
128
 71
90
 72
196
 73
89
 74
89
 0
VERTEX
 8
GRIGLIA_1
 10
0
 20
0
 30
0
 70
128
 71
196
 72
96
 73
95
 74
95
 0
VERTEX
 8
GRIGLIA_1
 10
0
 20
0
 30
0
 70
128
 71
196
 72
95
 73
89
 74
89
 0
VERTEX
 8
GRIGLIA_1
 10
0
 20
0
 30
0
 70
128
 71
91
 72
197
 73
92
 74
92
 0
VERTEX
 8
GRIGLIA_1
 10
0
 20
0
 30
0
 70
128
 71
197
 72
85
 73
86
 74
86
 0
VERTEX
 8
GRIGLIA_1
 10
0
 20
0
 30
0
 70
128
 71
197
 72
86
 73
92
 74
92
 0
VERTEX
 8
GRIGLIA_1
 10
0
 20
0
 30
0
 70
128
 71
156
 72
155
 73
157
 74
158
 0
VERTEX
 8
GRIGLIA_1
 10
0
 20
0
 30
0
 70
128
 71
92
 72
86
 73
87
 74
93
 0
VERTEX
 8
GRIGLIA_1
 10
0
 20
0
 30
0
 70
128
 71
95
 72
101
 73
100
 74
94
 0
VERTEX
 8
GRIGLIA_1
 10
0
 20
0
 30
0
 70
128
 71
96
 72
198
 73
95
 74
95
 0
VERTEX
 8
GRIGLIA_1
 10
0
 20
0
 30
0
 70
128
 71
198
 72
102
 73
101
 74
101
 0
VERTEX
 8
GRIGLIA_1
 10
0
 20
0
 30
0
 70
128
 71
198
 72
101
 73
95
 74
95
 0
VERTEX
 8
GRIGLIA_1
 10
0
 20
0
 30
0
 70
128
 71
97
 72
199
 73
98
 74
98
 0
VERTEX
 8
GRIGLIA_1
 10
0
 20
0
 30
0
 70
128
 71
199
 72
91
 73
92
 74
92
 0
VERTEX
 8
GRIGLIA_1
 10
0
 20
0
 30
0
 70
128
 71
199
 72
92
 73
98
 74
98
 0
VERTEX
 8
GRIGLIA_1
 10
0
 20
0
 30
0
 70
128
 71
98
 72
92
 73
93
 74
99
 0
VERTEX
 8
GRIGLIA_1
 10
0
 20
0
 30
0
 70
128
 71
101
 72
107
 73
106
 74
100
 0
VERTEX
 8
GRIGLIA_1
 10
0
 20
0
 30
0
 70
128
 71
102
 72
200
 73
101
 74
101
 0
VERTEX
 8
GRIGLIA_1
 10
0
 20
0
 30
0
 70
128
 71
200
 72
108
 73
107
 74
107
 0
VERTEX
 8
GRIGLIA_1
 10
0
 20
0
 30
0
 70
128
 71
200
 72
107
 73
101
 74
101
 0
VERTEX
 8
GRIGLIA_1
 10
0
 20
0
 30
0
 70
128
 71
100
 72
160
 73
159
 74
99
 0
VERTEX
 8
GRIGLIA_1
 10
0
 20
0
 30
0
 70
128
 71
99
 72
159
 73
161
 74
105
 0
VERTEX
 8
GRIGLIA_1
 10
0
 20
0
 30
0
 70
128
 71
103
 72
201
 73
104
 74
104
 0
VERTEX
 8
GRIGLIA_1
 10
0
 20
0
 30
0
 70
128
 71
201
 72
97
 73
98
 74
98
 0
VERTEX
 8
GRIGLIA_1
 10
0
 20
0
 30
0
 70
128
 71
201
 72
98
 73
104
 74
104
 0
VERTEX
 8
GRIGLIA_1
 10
0
 20
0
 30
0
 70
128
 71
161
 72
159
 73
160
 74
162
 0
VERTEX
 8
GRIGLIA_1
 10
0
 20
0
 30
0
 70
128
 71
104
 72
98
 73
99
 74
105
 0
VERTEX
 8
GRIGLIA_1
 10
0
 20
0
 30
0
 70
128
 71
107
 72
113
 73
112
 74
106
 0
VERTEX
 8
GRIGLIA_1
 10
0
 20
0
 30
0
 70
128
 71
108
 72
202
 73
107
 74
107
 0
VERTEX
 8
GRIGLIA_1
 10
0
 20
0
 30
0
 70
128
 71
202
 72
114
 73
113
 74
113
 0
VERTEX
 8
GRIGLIA_1
 10
0
 20
0
 30
0
 70
128
 71
202
 72
113
 73
107
 74
107
 0
VERTEX
 8
GRIGLIA_1
 10
0
 20
0
 30
0
 70
128
 71
117
 72
165
 73
166
 74
118
 0
VERTEX
 8
GRIGLIA_1
 10
0
 20
0
 30
0
 70
128
 71
118
 72
166
 73
164
 74
112
 0
VERTEX
 8
GRIGLIA_1
 10
0
 20
0
 30
0
 70
128
 71
109
 72
203
 73
110
 74
110
 0
VERTEX
 8
GRIGLIA_1
 10
0
 20
0
 30
0
 70
128
 71
203
 72
103
 73
104
 74
104
 0
VERTEX
 8
GRIGLIA_1
 10
0
 20
0
 30
0
 70
128
 71
203
 72
104
 73
110
 74
110
 0
VERTEX
 8
GRIGLIA_1
 10
0
 20
0
 30
0
 70
128
 71
111
 72
105
 73
106
 74
112
 0
VERTEX
 8
GRIGLIA_1
 10
0
 20
0
 30
0
 70
128
 71
110
 72
104
 73
105
 74
111
 0
VERTEX
 8
GRIGLIA_1
 10
0
 20
0
 30
0
 70
128
 71
113
 72
119
 73
118
 74
112
 0
VERTEX
 8
GRIGLIA_1
 10
0
 20
0
 30
0
 70
128
 71
114
 72
204
 73
113
 74
113
 0
VERTEX
 8
GRIGLIA_1
 10
0
 20
0
 30
0
 70
128
 71
204
 72
120
 73
119
 74
119
 0
VERTEX
 8
GRIGLIA_1
 10
0
 20
0
 30
0
 70
128
 71
204
 72
119
 73
113
 74
113
 0
VERTEX
 8
GRIGLIA_1
 10
0
 20
0
 30
0
 70
128
 71
112
 72
164
 73
163
 74
111
 0
VERTEX
 8
GRIGLIA_1
 10
0
 20
0
 30
0
 70
128
 71
111
 72
163
 73
165
 74
117
 0
VERTEX
 8
GRIGLIA_1
 10
0
 20
0
 30
0
 70
128
 71
115
 72
205
 73
116
 74
116
 0
VERTEX
 8
GRIGLIA_1
 10
0
 20
0
 30
0
 70
128
 71
205
 72
109
 73
110
 74
110
 0
VERTEX
 8
GRIGLIA_1
 10
0
 20
0
 30
0
 70
128
 71
205
 72
110
 73
116
 74
116
 0
VERTEX
 8
GRIGLIA_1
 10
0
 20
0
 30
0
 70
128
 71
165
 72
163
 73
164
 74
166
 0
VERTEX
 8
GRIGLIA_1
 10
0
 20
0
 30
0
 70
128
 71
116
 72
110
 73
111
 74
117
 0
VERTEX
 8
GRIGLIA_1
 10
0
 20
0
 30
0
 70
128
 71
119
 72
125
 73
124
 74
118
 0
VERTEX
 8
GRIGLIA_1
 10
0
 20
0
 30
0
 70
128
 71
120
 72
206
 73
119
 74
119
 0
VERTEX
 8
GRIGLIA_1
 10
0
 20
0
 30
0
 70
128
 71
206
 72
126
 73
125
 74
125
 0
VERTEX
 8
GRIGLIA_1
 10
0
 20
0
 30
0
 70
128
 71
206
 72
125
 73
119
 74
119
 0
VERTEX
 8
GRIGLIA_1
 10
0
 20
0
 30
0
 70
128
 71
129
 72
28
 73
29
 74
130
 0
VERTEX
 8
GRIGLIA_1
 10
0
 20
0
 30
0
 70
128
 71
130
 72
29
 73
23
 74
124
 0
VERTEX
 8
GRIGLIA_1
 10
0
 20
0
 30
0
 70
128
 71
121
 72
207
 73
122
 74
122
 0
VERTEX
 8
GRIGLIA_1
 10
0
 20
0
 30
0
 70
128
 71
207
 72
115
 73
116
 74
116
 0
VERTEX
 8
GRIGLIA_1
 10
0
 20
0
 30
0
 70
128
 71
207
 72
116
 73
122
 74
122
 0
VERTEX
 8
GRIGLIA_1
 10
0
 20
0
 30
0
 70
128
 71
123
 72
117
 73
118
 74
124
 0
VERTEX
 8
GRIGLIA_1
 10
0
 20
0
 30
0
 70
128
 71
122
 72
116
 73
117
 74
123
 0
VERTEX
 8
GRIGLIA_1
 10
0
 20
0
 30
0
 70
128
 71
125
 72
131
 73
130
 74
124
 0
VERTEX
 8
GRIGLIA_1
 10
0
 20
0
 30
0
 70
128
 71
126
 72
208
 73
125
 74
125
 0
VERTEX
 8
GRIGLIA_1
 10
0
 20
0
 30
0
 70
128
 71
208
 72
132
 73
131
 74
131
 0
VERTEX
 8
GRIGLIA_1
 10
0
 20
0
 30
0
 70
128
 71
208
 72
131
 73
125
 74
125
 0
VERTEX
 8
GRIGLIA_1
 10
0
 20
0
 30
0
 70
128
 71
124
 72
23
 73
21
 74
123
 0
VERTEX
 8
GRIGLIA_1
 10
0
 20
0
 30
0
 70
128
 71
123
 72
21
 73
28
 74
129
 0
VERTEX
 8
GRIGLIA_1
 10
0
 20
0
 30
0
 70
128
 71
127
 72
209
 73
128
 74
128
 0
VERTEX
 8
GRIGLIA_1
 10
0
 20
0
 30
0
 70
128
 71
209
 72
121
 73
122
 74
122
 0
VERTEX
 8
GRIGLIA_1
 10
0
 20
0
 30
0
 70
128
 71
209
 72
122
 73
128
 74
128
 0
VERTEX
 8
GRIGLIA_1
 10
0
 20
0
 30
0
 70
128
 71
28
 72
21
 73
23
 74
29
 0
VERTEX
 8
GRIGLIA_1
 10
0
 20
0
 30
0
 70
128
 71
128
 72
122
 73
123
 74
129
 0
VERTEX
 8
GRIGLIA_1
 10
0
 20
0
 30
0
 70
128
 71
131
 72
228
 73
231
 74
130
 0
VERTEX
 8
GRIGLIA_1
 10
0
 20
0
 30
0
 70
128
 71
267
 72
270
 73
271
 74
269
 0
VERTEX
 8
GRIGLIA_1
 10
0
 20
0
 30
0
 70
128
 71
133
 72
64
 73
70
 74
134
 0
VERTEX
 8
GRIGLIA_1
 10
0
 20
0
 30
0
 70
128
 71
134
 72
212
 73
135
 74
135
 0
VERTEX
 8
GRIGLIA_1
 10
0
 20
0
 30
0
 70
128
 71
70
 72
76
 73
213
 74
213
 0
VERTEX
 8
GRIGLIA_1
 10
0
 20
0
 30
0
 70
128
 71
212
 72
134
 73
70
 74
70
 0
VERTEX
 8
GRIGLIA_1
 10
0
 20
0
 30
0
 70
128
 71
137
 72
88
 73
94
 74
138
 0
VERTEX
 8
GRIGLIA_1
 10
0
 20
0
 30
0
 70
128
 71
45
 72
141
 73
142
 74
46
 0
VERTEX
 8
GRIGLIA_1
 10
0
 20
0
 30
0
 70
128
 71
46
 72
142
 73
139
 74
41
 0
VERTEX
 8
GRIGLIA_1
 10
0
 20
0
 30
0
 70
128
 71
41
 72
139
 73
140
 74
42
 0
VERTEX
 8
GRIGLIA_1
 10
0
 20
0
 30
0
 70
128
 71
42
 72
140
 73
141
 74
45
 0
VERTEX
 8
GRIGLIA_1
 10
0
 20
0
 30
0
 70
128
 71
57
 72
145
 73
146
 74
58
 0
VERTEX
 8
GRIGLIA_1
 10
0
 20
0
 30
0
 70
128
 71
58
 72
146
 73
144
 74
52
 0
VERTEX
 8
GRIGLIA_1
 10
0
 20
0
 30
0
 70
128
 71
52
 72
144
 73
143
 74
51
 0
VERTEX
 8
GRIGLIA_1
 10
0
 20
0
 30
0
 70
128
 71
51
 72
143
 73
145
 74
57
 0
VERTEX
 8
GRIGLIA_1
 10
0
 20
0
 30
0
 70
128
 71
69
 72
148
 73
150
 74
134
 0
VERTEX
 8
GRIGLIA_1
 10
0
 20
0
 30
0
 70
128
 71
134
 72
150
 73
149
 74
133
 0
VERTEX
 8
GRIGLIA_1
 10
0
 20
0
 30
0
 70
128
 71
133
 72
149
 73
147
 74
63
 0
VERTEX
 8
GRIGLIA_1
 10
0
 20
0
 30
0
 70
128
 71
63
 72
147
 73
148
 74
69
 0
VERTEX
 8
GRIGLIA_1
 10
0
 20
0
 30
0
 70
128
 71
83
 72
152
 73
154
 74
136
 0
VERTEX
 8
GRIGLIA_1
 10
0
 20
0
 30
0
 70
128
 71
136
 72
154
 73
153
 74
135
 0
VERTEX
 8
GRIGLIA_1
 10
0
 20
0
 30
0
 70
128
 71
135
 72
153
 73
151
 74
75
 0
VERTEX
 8
GRIGLIA_1
 10
0
 20
0
 30
0
 70
128
 71
75
 72
151
 73
152
 74
83
 0
VERTEX
 8
GRIGLIA_1
 10
0
 20
0
 30
0
 70
128
 71
93
 72
156
 73
158
 74
138
 0
VERTEX
 8
GRIGLIA_1
 10
0
 20
0
 30
0
 70
128
 71
138
 72
158
 73
157
 74
137
 0
VERTEX
 8
GRIGLIA_1
 10
0
 20
0
 30
0
 70
128
 71
137
 72
157
 73
155
 74
87
 0
VERTEX
 8
GRIGLIA_1
 10
0
 20
0
 30
0
 70
128
 71
87
 72
155
 73
156
 74
93
 0
VERTEX
 8
GRIGLIA_1
 10
0
 20
0
 30
0
 70
128
 71
105
 72
161
 73
162
 74
106
 0
VERTEX
 8
GRIGLIA_1
 10
0
 20
0
 30
0
 70
128
 71
106
 72
162
 73
160
 74
100
 0
VERTEX
 8
GRIGLIA_1
 10
0
 20
0
 30
0
 70
128
 71
265
 72
264
 73
263
 74
266
 0
VERTEX
 8
GRIGLIA_1
 10
0
 20
0
 30
0
 70
128
 71
235
 72
232
 73
234
 74
237
 0
VERTEX
 8
GRIGLIA_1
 10
0
 20
0
 30
0
 70
128
 71
287
 72
235
 73
237
 74
285
 0
VERTEX
 8
GRIGLIA_1
 10
0
 20
0
 30
0
 70
128
 71
228
 72
242
 73
238
 74
231
 0
VERTEX
 8
GRIGLIA_1
 10
0
 20
0
 30
0
 70
128
 71
279
 72
282
 73
283
 74
280
 0
VERTEX
 8
GRIGLIA_1
 10
0
 20
0
 30
0
 70
128
 71
288
 72
5
 73
6
 74
272
 0
VERTEX
 8
GRIGLIA_1
 10
0
 20
0
 30
0
 70
128
 71
269
 72
271
 73
290
 74
286
 0
VERTEX
 8
GRIGLIA_1
 10
0
 20
0
 30
0
 70
128
 71
272
 72
268
 73
287
 74
288
 0
VERTEX
 8
GRIGLIA_1
 10
0
 20
0
 30
0
 70
128
 71
17
 72
270
 73
267
 74
267
 0
VERTEX
 8
GRIGLIA_1
 10
0
 20
0
 30
0
 70
128
 71
274
 72
19
 73
243
 74
243
 0
VERTEX
 8
GRIGLIA_1
 10
0
 20
0
 30
0
 70
128
 71
277
 72
2
 73
176
 74
176
 0
VERTEX
 8
GRIGLIA_1
 10
0
 20
0
 30
0
 70
128
 71
243
 72
19
 73
177
 74
177
 0
VERTEX
 8
GRIGLIA_1
 10
0
 20
0
 30
0
 70
128
 71
270
 72
4
 73
3
 74
271
 0
VERTEX
 8
GRIGLIA_1
 10
0
 20
0
 30
0
 70
128
 71
177
 72
25
 73
251
 74
251
 0
VERTEX
 8
GRIGLIA_1
 10
0
 20
0
 30
0
 70
128
 71
177
 72
172
 73
11
 74
11
 0
VERTEX
 8
GRIGLIA_1
 10
0
 20
0
 30
0
 70
128
 71
177
 72
11
 73
173
 74
173
 0
VERTEX
 8
GRIGLIA_1
 10
0
 20
0
 30
0
 70
128
 71
177
 72
173
 73
13
 74
13
 0
VERTEX
 8
GRIGLIA_1
 10
0
 20
0
 30
0
 70
128
 71
177
 72
13
 73
179
 74
179
 0
VERTEX
 8
GRIGLIA_1
 10
0
 20
0
 30
0
 70
128
 71
177
 72
179
 73
37
 74
37
 0
VERTEX
 8
GRIGLIA_1
 10
0
 20
0
 30
0
 70
128
 71
282
 72
247
 73
248
 74
283
 0
VERTEX
 8
GRIGLIA_1
 10
0
 20
0
 30
0
 70
128
 71
19
 72
274
 73
277
 74
277
 0
VERTEX
 8
GRIGLIA_1
 10
0
 20
0
 30
0
 70
128
 71
99
 72
93
 73
138
 74
138
 0
VERTEX
 8
GRIGLIA_1
 10
0
 20
0
 30
0
 70
128
 71
138
 72
94
 73
100
 74
100
 0
VERTEX
 8
GRIGLIA_1
 10
0
 20
0
 30
0
 70
128
 71
133
 72
63
 73
57
 74
57
 0
VERTEX
 8
GRIGLIA_1
 10
0
 20
0
 30
0
 70
128
 71
58
 72
64
 73
133
 74
133
 0
VERTEX
 8
GRIGLIA_1
 10
0
 20
0
 30
0
 70
128
 71
99
 72
138
 73
100
 74
100
 0
VERTEX
 8
GRIGLIA_1
 10
0
 20
0
 30
0
 70
128
 71
133
 72
57
 73
58
 74
58
 0
VERTEX
 8
GRIGLIA_1
 10
0
 20
0
 30
0
 70
128
 71
276
 72
275
 73
284
 74
281
 0
VERTEX
 8
GRIGLIA_1
 10
0
 20
0
 30
0
 70
128
 71
177
 72
37
 73
181
 74
181
 0
VERTEX
 8
GRIGLIA_1
 10
0
 20
0
 30
0
 70
128
 71
276
 72
1
 73
2
 74
277
 0
VERTEX
 8
GRIGLIA_1
 10
0
 20
0
 30
0
 70
128
 71
177
 72
181
 73
43
 74
43
 0
VERTEX
 8
GRIGLIA_1
 10
0
 20
0
 30
0
 70
128
 71
177
 72
43
 73
183
 74
183
 0
VERTEX
 8
GRIGLIA_1
 10
0
 20
0
 30
0
 70
128
 71
177
 72
183
 73
49
 74
49
 0
VERTEX
 8
GRIGLIA_1
 10
0
 20
0
 30
0
 70
128
 71
177
 72
49
 73
185
 74
185
 0
VERTEX
 8
GRIGLIA_1
 10
0
 20
0
 30
0
 70
128
 71
177
 72
185
 73
55
 74
55
 0
VERTEX
 8
GRIGLIA_1
 10
0
 20
0
 30
0
 70
128
 71
177
 72
55
 73
187
 74
187
 0
VERTEX
 8
GRIGLIA_1
 10
0
 20
0
 30
0
 70
128
 71
177
 72
187
 73
61
 74
61
 0
VERTEX
 8
GRIGLIA_1
 10
0
 20
0
 30
0
 70
128
 71
177
 72
61
 73
189
 74
189
 0
VERTEX
 8
GRIGLIA_1
 10
0
 20
0
 30
0
 70
128
 71
213
 72
84
 73
214
 74
214
 0
VERTEX
 8
GRIGLIA_1
 10
0
 20
0
 30
0
 70
128
 71
136
 72
135
 73
212
 74
212
 0
VERTEX
 8
GRIGLIA_1
 10
0
 20
0
 30
0
 70
128
 71
88
 72
137
 73
211
 74
211
 0
VERTEX
 8
GRIGLIA_1
 10
0
 20
0
 30
0
 70
128
 71
137
 72
136
 73
211
 74
211
 0
VERTEX
 8
GRIGLIA_1
 10
0
 20
0
 30
0
 70
128
 71
213
 72
76
 73
84
 74
84
 0
VERTEX
 8
GRIGLIA_1
 10
0
 20
0
 30
0
 70
128
 71
84
 72
88
 73
214
 74
214
 0
VERTEX
 8
GRIGLIA_1
 10
0
 20
0
 30
0
 70
128
 71
224
 72
225
 73
226
 74
223
 0
VERTEX
 8
GRIGLIA_1
 10
0
 20
0
 30
0
 70
128
 71
212
 72
216
 73
215
 74
211
 0
VERTEX
 8
GRIGLIA_1
 10
0
 20
0
 30
0
 70
128
 71
211
 72
215
 73
218
 74
214
 0
VERTEX
 8
GRIGLIA_1
 10
0
 20
0
 30
0
 70
128
 71
214
 72
218
 73
217
 74
213
 0
VERTEX
 8
GRIGLIA_1
 10
0
 20
0
 30
0
 70
128
 71
213
 72
217
 73
216
 74
212
 0
VERTEX
 8
GRIGLIA_1
 10
0
 20
0
 30
0
 70
128
 71
216
 72
220
 73
219
 74
215
 0
VERTEX
 8
GRIGLIA_1
 10
0
 20
0
 30
0
 70
128
 71
215
 72
219
 73
222
 74
218
 0
VERTEX
 8
GRIGLIA_1
 10
0
 20
0
 30
0
 70
128
 71
218
 72
222
 73
221
 74
217
 0
VERTEX
 8
GRIGLIA_1
 10
0
 20
0
 30
0
 70
128
 71
217
 72
221
 73
220
 74
216
 0
VERTEX
 8
GRIGLIA_1
 10
0
 20
0
 30
0
 70
128
 71
220
 72
224
 73
223
 74
219
 0
VERTEX
 8
GRIGLIA_1
 10
0
 20
0
 30
0
 70
128
 71
219
 72
223
 73
226
 74
222
 0
VERTEX
 8
GRIGLIA_1
 10
0
 20
0
 30
0
 70
128
 71
222
 72
226
 73
225
 74
221
 0
VERTEX
 8
GRIGLIA_1
 10
0
 20
0
 30
0
 70
128
 71
221
 72
225
 73
224
 74
220
 0
VERTEX
 8
GRIGLIA_1
 10
0
 20
0
 30
0
 70
128
 71
212
 72
70
 73
213
 74
213
 0
VERTEX
 8
GRIGLIA_1
 10
0
 20
0
 30
0
 70
128
 71
136
 72
212
 73
211
 74
211
 0
VERTEX
 8
GRIGLIA_1
 10
0
 20
0
 30
0
 70
128
 71
88
 72
211
 73
214
 74
214
 0
VERTEX
 8
GRIGLIA_1
 10
0
 20
0
 30
0
 70
128
 71
177
 72
188
 73
65
 74
65
 0
VERTEX
 8
GRIGLIA_1
 10
0
 20
0
 30
0
 70
128
 71
177
 72
65
 73
186
 74
186
 0
VERTEX
 8
GRIGLIA_1
 10
0
 20
0
 30
0
 70
128
 71
177
 72
186
 73
59
 74
59
 0
VERTEX
 8
GRIGLIA_1
 10
0
 20
0
 30
0
 70
128
 71
177
 72
59
 73
184
 74
184
 0
VERTEX
 8
GRIGLIA_1
 10
0
 20
0
 30
0
 70
128
 71
177
 72
184
 73
53
 74
53
 0
VERTEX
 8
GRIGLIA_1
 10
0
 20
0
 30
0
 70
128
 71
247
 72
256
 73
257
 74
248
 0
VERTEX
 8
GRIGLIA_1
 10
0
 20
0
 30
0
 70
128
 71
280
 72
283
 73
273
 74
278
 0
VERTEX
 8
GRIGLIA_1
 10
0
 20
0
 30
0
 70
128
 71
246
 72
255
 73
258
 74
250
 0
VERTEX
 8
GRIGLIA_1
 10
0
 20
0
 30
0
 70
128
 71
260
 72
262
 73
261
 74
259
 0
VERTEX
 8
GRIGLIA_1
 10
0
 20
0
 30
0
 70
128
 71
232
 72
128
 73
129
 74
234
 0
VERTEX
 8
GRIGLIA_1
 10
0
 20
0
 30
0
 70
128
 71
177
 72
53
 73
182
 74
182
 0
VERTEX
 8
GRIGLIA_1
 10
0
 20
0
 30
0
 70
128
 71
284
 72
282
 73
279
 74
281
 0
VERTEX
 8
GRIGLIA_1
 10
0
 20
0
 30
0
 70
128
 71
242
 72
269
 73
286
 74
238
 0
VERTEX
 8
GRIGLIA_1
 10
0
 20
0
 30
0
 70
128
 71
177
 72
182
 73
47
 74
47
 0
VERTEX
 8
GRIGLIA_1
 10
0
 20
0
 30
0
 70
128
 71
234
 72
129
 73
130
 74
231
 0
VERTEX
 8
GRIGLIA_1
 10
0
 20
0
 30
0
 70
128
 71
177
 72
47
 73
180
 74
180
 0
VERTEX
 8
GRIGLIA_1
 10
0
 20
0
 30
0
 70
128
 71
256
 72
27
 73
12
 74
257
 0
VERTEX
 8
GRIGLIA_1
 10
0
 20
0
 30
0
 70
128
 71
255
 72
10
 73
22
 74
258
 0
VERTEX
 8
GRIGLIA_1
 10
0
 20
0
 30
0
 70
128
 71
258
 72
22
 73
27
 74
256
 0
VERTEX
 8
GRIGLIA_1
 10
0
 20
0
 30
0
 70
128
 71
250
 72
260
 73
259
 74
247
 0
VERTEX
 8
GRIGLIA_1
 10
0
 20
0
 30
0
 70
128
 71
247
 72
259
 73
261
 74
256
 0
VERTEX
 8
GRIGLIA_1
 10
0
 20
0
 30
0
 70
128
 71
256
 72
261
 73
262
 74
258
 0
VERTEX
 8
GRIGLIA_1
 10
0
 20
0
 30
0
 70
128
 71
258
 72
262
 73
260
 74
250
 0
VERTEX
 8
GRIGLIA_1
 10
0
 20
0
 30
0
 70
128
 71
237
 72
265
 73
266
 74
238
 0
VERTEX
 8
GRIGLIA_1
 10
0
 20
0
 30
0
 70
128
 71
238
 72
266
 73
263
 74
231
 0
VERTEX
 8
GRIGLIA_1
 10
0
 20
0
 30
0
 70
128
 71
231
 72
263
 73
264
 74
234
 0
VERTEX
 8
GRIGLIA_1
 10
0
 20
0
 30
0
 70
128
 71
234
 72
264
 73
265
 74
237
 0
VERTEX
 8
GRIGLIA_1
 10
0
 20
0
 30
0
 70
128
 71
177
 72
180
 73
39
 74
39
 0
VERTEX
 8
GRIGLIA_1
 10
0
 20
0
 30
0
 70
128
 71
177
 72
39
 73
174
 74
174
 0
VERTEX
 8
GRIGLIA_1
 10
0
 20
0
 30
0
 70
128
 71
177
 72
174
 73
15
 74
15
 0
VERTEX
 8
GRIGLIA_1
 10
0
 20
0
 30
0
 70
128
 71
177
 72
15
 73
171
 74
171
 0
VERTEX
 8
GRIGLIA_1
 10
0
 20
0
 30
0
 70
128
 71
177
 72
171
 73
9
 74
9
 0
VERTEX
 8
GRIGLIA_1
 10
0
 20
0
 30
0
 70
128
 71
177
 72
9
 73
167
 74
167
 0
VERTEX
 8
GRIGLIA_1
 10
0
 20
0
 30
0
 70
128
 71
177
 72
167
 73
252
 74
252
 0
VERTEX
 8
GRIGLIA_1
 10
0
 20
0
 30
0
 70
128
 71
25
 72
170
 73
278
 74
278
 0
VERTEX
 8
GRIGLIA_1
 10
0
 20
0
 30
0
 70
128
 71
25
 72
273
 73
245
 74
245
 0
VERTEX
 8
GRIGLIA_1
 10
0
 20
0
 30
0
 70
128
 71
25
 72
245
 73
251
 74
251
 0
VERTEX
 8
GRIGLIA_1
 10
0
 20
0
 30
0
 70
128
 71
170
 72
8
 73
278
 74
278
 0
VERTEX
 8
GRIGLIA_1
 10
0
 20
0
 30
0
 70
128
 71
189
 72
67
 73
71
 74
71
 0
VERTEX
 8
GRIGLIA_1
 10
0
 20
0
 30
0
 70
128
 71
71
 72
67
 73
191
 74
191
 0
VERTEX
 8
GRIGLIA_1
 10
0
 20
0
 30
0
 70
128
 71
191
 72
73
 73
77
 74
77
 0
VERTEX
 8
GRIGLIA_1
 10
0
 20
0
 30
0
 70
128
 71
73
 72
193
 73
192
 74
192
 0
VERTEX
 8
GRIGLIA_1
 10
0
 20
0
 30
0
 70
128
 71
192
 72
193
 73
79
 74
79
 0
VERTEX
 8
GRIGLIA_1
 10
0
 20
0
 30
0
 70
128
 71
79
 72
195
 73
194
 74
194
 0
VERTEX
 8
GRIGLIA_1
 10
0
 20
0
 30
0
 70
128
 71
194
 72
195
 73
85
 74
85
 0
VERTEX
 8
GRIGLIA_1
 10
0
 20
0
 30
0
 70
128
 71
90
 72
85
 73
197
 74
197
 0
VERTEX
 8
GRIGLIA_1
 10
0
 20
0
 30
0
 70
128
 71
197
 72
91
 73
175
 74
175
 0
VERTEX
 8
GRIGLIA_1
 10
0
 20
0
 30
0
 70
128
 71
91
 72
199
 73
175
 74
175
 0
VERTEX
 8
GRIGLIA_1
 10
0
 20
0
 30
0
 70
128
 71
199
 72
97
 73
175
 74
175
 0
VERTEX
 8
GRIGLIA_1
 10
0
 20
0
 30
0
 70
128
 71
97
 72
201
 73
175
 74
175
 0
VERTEX
 8
GRIGLIA_1
 10
0
 20
0
 30
0
 70
128
 71
201
 72
103
 73
175
 74
175
 0
VERTEX
 8
GRIGLIA_1
 10
0
 20
0
 30
0
 70
128
 71
103
 72
203
 73
175
 74
175
 0
VERTEX
 8
GRIGLIA_1
 10
0
 20
0
 30
0
 70
128
 71
203
 72
109
 73
175
 74
175
 0
VERTEX
 8
GRIGLIA_1
 10
0
 20
0
 30
0
 70
128
 71
109
 72
205
 73
175
 74
175
 0
VERTEX
 8
GRIGLIA_1
 10
0
 20
0
 30
0
 70
128
 71
205
 72
115
 73
175
 74
175
 0
VERTEX
 8
GRIGLIA_1
 10
0
 20
0
 30
0
 70
128
 71
115
 72
207
 73
175
 74
175
 0
VERTEX
 8
GRIGLIA_1
 10
0
 20
0
 30
0
 70
128
 71
284
 72
250
 73
247
 74
282
 0
VERTEX
 8
GRIGLIA_1
 10
0
 20
0
 30
0
 70
128
 71
275
 72
246
 73
250
 74
284
 0
VERTEX
 8
GRIGLIA_1
 10
0
 20
0
 30
0
 70
128
 71
288
 72
287
 73
285
 74
289
 0
VERTEX
 8
GRIGLIA_1
 10
0
 20
0
 30
0
 70
128
 71
271
 72
3
 73
18
 74
290
 0
VERTEX
 8
GRIGLIA_1
 10
0
 20
0
 30
0
 70
128
 71
175
 72
240
 73
233
 74
233
 0
VERTEX
 8
GRIGLIA_1
 10
0
 20
0
 30
0
 70
128
 71
30
 72
272
 73
178
 74
178
 0
VERTEX
 8
GRIGLIA_1
 10
0
 20
0
 30
0
 70
128
 71
175
 72
229
 73
30
 74
30
 0
VERTEX
 8
GRIGLIA_1
 10
0
 20
0
 30
0
 70
128
 71
197
 72
175
 73
196
 74
196
 0
VERTEX
 8
GRIGLIA_1
 10
0
 20
0
 30
0
 70
128
 71
90
 72
197
 73
196
 74
196
 0
VERTEX
 8
GRIGLIA_1
 10
0
 20
0
 30
0
 70
128
 71
194
 72
85
 73
90
 74
90
 0
VERTEX
 8
GRIGLIA_1
 10
0
 20
0
 30
0
 70
128
 71
79
 72
194
 73
81
 74
81
 0
VERTEX
 8
GRIGLIA_1
 10
0
 20
0
 30
0
 70
128
 71
192
 72
79
 73
81
 74
81
 0
VERTEX
 8
GRIGLIA_1
 10
0
 20
0
 30
0
 70
128
 71
207
 72
121
 73
175
 74
175
 0
VERTEX
 8
GRIGLIA_1
 10
0
 20
0
 30
0
 70
128
 71
121
 72
209
 73
175
 74
175
 0
VERTEX
 8
GRIGLIA_1
 10
0
 20
0
 30
0
 70
128
 71
209
 72
127
 73
175
 74
175
 0
VERTEX
 8
GRIGLIA_1
 10
0
 20
0
 30
0
 70
128
 71
127
 72
169
 73
175
 74
175
 0
VERTEX
 8
GRIGLIA_1
 10
0
 20
0
 30
0
 70
128
 71
175
 72
169
 73
229
 74
229
 0
VERTEX
 8
GRIGLIA_1
 10
0
 20
0
 30
0
 70
128
 71
229
 72
239
 73
30
 74
30
 0
VERTEX
 8
GRIGLIA_1
 10
0
 20
0
 30
0
 70
128
 71
239
 72
268
 73
30
 74
30
 0
VERTEX
 8
GRIGLIA_1
 10
0
 20
0
 30
0
 70
128
 71
30
 72
268
 73
272
 74
272
 0
VERTEX
 8
GRIGLIA_1
 10
0
 20
0
 30
0
 70
128
 71
272
 72
6
 73
178
 74
178
 0
VERTEX
 8
GRIGLIA_1
 10
0
 20
0
 30
0
 70
128
 71
175
 72
17
 73
240
 74
240
 0
VERTEX
 8
GRIGLIA_1
 10
0
 20
0
 30
0
 70
128
 71
175
 72
233
 73
210
 74
210
 0
VERTEX
 8
GRIGLIA_1
 10
0
 20
0
 30
0
 70
128
 71
175
 72
210
 73
132
 74
132
 0
VERTEX
 8
GRIGLIA_1
 10
0
 20
0
 30
0
 70
128
 71
175
 72
132
 73
208
 74
208
 0
VERTEX
 8
GRIGLIA_1
 10
0
 20
0
 30
0
 70
128
 71
175
 72
208
 73
126
 74
126
 0
VERTEX
 8
GRIGLIA_1
 10
0
 20
0
 30
0
 70
128
 71
175
 72
126
 73
206
 74
206
 0
VERTEX
 8
GRIGLIA_1
 10
0
 20
0
 30
0
 70
128
 71
175
 72
206
 73
120
 74
120
 0
VERTEX
 8
GRIGLIA_1
 10
0
 20
0
 30
0
 70
128
 71
175
 72
120
 73
204
 74
204
 0
VERTEX
 8
GRIGLIA_1
 10
0
 20
0
 30
0
 70
128
 71
175
 72
204
 73
114
 74
114
 0
VERTEX
 8
GRIGLIA_1
 10
0
 20
0
 30
0
 70
128
 71
175
 72
114
 73
202
 74
202
 0
VERTEX
 8
GRIGLIA_1
 10
0
 20
0
 30
0
 70
128
 71
175
 72
202
 73
108
 74
108
 0
VERTEX
 8
GRIGLIA_1
 10
0
 20
0
 30
0
 70
128
 71
175
 72
108
 73
200
 74
200
 0
VERTEX
 8
GRIGLIA_1
 10
0
 20
0
 30
0
 70
128
 71
175
 72
200
 73
102
 74
102
 0
VERTEX
 8
GRIGLIA_1
 10
0
 20
0
 30
0
 70
128
 71
175
 72
102
 73
198
 74
198
 0
VERTEX
 8
GRIGLIA_1
 10
0
 20
0
 30
0
 70
128
 71
175
 72
198
 73
96
 74
96
 0
VERTEX
 8
GRIGLIA_1
 10
0
 20
0
 30
0
 70
128
 71
175
 72
96
 73
196
 74
196
 0
VERTEX
 8
GRIGLIA_1
 10
0
 20
0
 30
0
 70
128
 71
17
 72
168
 73
270
 74
270
 0
VERTEX
 8
GRIGLIA_1
 10
0
 20
0
 30
0
 70
128
 71
17
 72
267
 73
240
 74
240
 0
VERTEX
 8
GRIGLIA_1
 10
0
 20
0
 30
0
 70
128
 71
168
 72
4
 73
270
 74
270
 0
VERTEX
 8
GRIGLIA_1
 10
0
 20
0
 30
0
 70
128
 71
243
 72
177
 73
252
 74
252
 0
VERTEX
 8
GRIGLIA_1
 10
0
 20
0
 30
0
 70
128
 71
177
 72
251
 73
172
 74
172
 0
VERTEX
 8
GRIGLIA_1
 10
0
 20
0
 30
0
 70
128
 71
19
 72
277
 73
176
 74
176
 0
VERTEX
 8
GRIGLIA_1
 10
0
 20
0
 30
0
 70
128
 71
177
 72
189
 73
188
 74
188
 0
VERTEX
 8
GRIGLIA_1
 10
0
 20
0
 30
0
 70
128
 71
25
 72
278
 73
273
 74
273
 0
VERTEX
 8
GRIGLIA_1
 10
0
 20
0
 30
0
 70
128
 71
189
 72
71
 73
188
 74
188
 0
VERTEX
 8
GRIGLIA_1
 10
0
 20
0
 30
0
 70
128
 71
71
 72
191
 73
190
 74
190
 0
VERTEX
 8
GRIGLIA_1
 10
0
 20
0
 30
0
 70
128
 71
191
 72
77
 73
190
 74
190
 0
VERTEX
 8
GRIGLIA_1
 10
0
 20
0
 30
0
 70
128
 71
73
 72
192
 73
77
 74
77
 0
VERTEX
 8
GRIGLIA_1
 10
0
 20
0
 30
0
 70
128
 71
285
 72
286
 73
290
 74
289
 0
SEQEND
 0
POLYLINE
 8
GRIGLIA_2
 66
1
 10
0.0
 20
0.0
 30
0.0
 70
64
 71
290
 72
414
 0
VERTEX
 8
GRIGLIA_2
 10
-41.8287
 20
-49.4868
 30
-3.1217
 70
192
 0
VERTEX
 8
GRIGLIA_2
 10
-41.8287
 20
-49.4868
 30
-2.2216
 70
192
 0
VERTEX
 8
GRIGLIA_2
 10
-14.0173
 20
-49.4868
 30
-3.1217
 70
192
 0
VERTEX
 8
GRIGLIA_2
 10
-14.0173
 20
-49.4868
 30
-2.2216
 70
192
 0
VERTEX
 8
GRIGLIA_2
 10
-14.0173
 20
-19.3946
 30
-3.1217
 70
192
 0
VERTEX
 8
GRIGLIA_2
 10
-14.0173
 20
-19.3946
 30
-2.2216
 70
192
 0
VERTEX
 8
GRIGLIA_2
 10
-41.8287
 20
-19.3946
 30
-3.1217
 70
192
 0
VERTEX
 8
GRIGLIA_2
 10
-41.8287
 20
-19.3946
 30
-2.2216
 70
192
 0
VERTEX
 8
GRIGLIA_2
 10
-38.1966
 20
-49.4868
 30
-2.2216
 70
192
 0
VERTEX
 8
GRIGLIA_2
 10
-38.1966
 20
-49.4868
 30
-3.1217
 70
192
 0
VERTEX
 8
GRIGLIA_2
 10
-38.1966
 20
-19.3946
 30
-2.2216
 70
192
 0
VERTEX
 8
GRIGLIA_2
 10
-38.1966
 20
-19.3946
 30
-3.1217
 70
192
 0
VERTEX
 8
GRIGLIA_2
 10
-37.5098
 20
-19.3946
 30
-2.2216
 70
192
 0
VERTEX
 8
GRIGLIA_2
 10
-37.5098
 20
-19.3946
 30
-3.1217
 70
192
 0
VERTEX
 8
GRIGLIA_2
 10
-37.5098
 20
-49.4868
 30
-2.2216
 70
192
 0
VERTEX
 8
GRIGLIA_2
 10
-37.5098
 20
-49.4868
 30
-3.1217
 70
192
 0
VERTEX
 8
GRIGLIA_2
 10
-14.0173
 20
-48.4834
 30
-2.2216
 70
192
 0
VERTEX
 8
GRIGLIA_2
 10
-14.0173
 20
-48.4834
 30
-3.1217
 70
192
 0
VERTEX
 8
GRIGLIA_2
 10
-41.8287
 20
-48.4834
 30
-2.2216
 70
192
 0
VERTEX
 8
GRIGLIA_2
 10
-41.8287
 20
-48.4834
 30
-3.1217
 70
192
 0
VERTEX
 8
GRIGLIA_2
 10
-18.1963
 20
-20.3986
 30
-2.4232
 70
192
 0
VERTEX
 8
GRIGLIA_2
 10
-38.1966
 20
-48.4834
 30
-3.1217
 70
192
 0
VERTEX
 8
GRIGLIA_2
 10
-18.1963
 20
-48.4834
 30
-2.4232
 70
192
 0
VERTEX
 8
GRIGLIA_2
 10
-37.5098
 20
-48.4834
 30
-3.1217
 70
192
 0
VERTEX
 8
GRIGLIA_2
 10
-41.8287
 20
-20.3986
 30
-2.2216
 70
192
 0
VERTEX
 8
GRIGLIA_2
 10
-41.8287
 20
-20.3986
 30
-3.1217
 70
192
 0
VERTEX
 8
GRIGLIA_2
 10
-38.1966
 20
-20.3986
 30
-3.1217
 70
192
 0
VERTEX
 8
GRIGLIA_2
 10
-17.5085
 20
-20.3986
 30
-2.4232
 70
192
 0
VERTEX
 8
GRIGLIA_2
 10
-17.5085
 20
-48.4834
 30
-2.4232
 70
192
 0
VERTEX
 8
GRIGLIA_2
 10
-14.0173
 20
-20.3986
 30
-2.2216
 70
192
 0
VERTEX
 8
GRIGLIA_2
 10
-14.0173
 20
-20.3986
 30
-3.1217
 70
192
 0
VERTEX
 8
GRIGLIA_2
 10
-37.5098
 20
-20.3986
 30
-3.1217
 70
192
 0
VERTEX
 8
GRIGLIA_2
 10
-38.1966
 20
-48.4834
 30
-2.4232
 70
192
 0
VERTEX
 8
GRIGLIA_2
 10
-37.5098
 20
-48.4834
 30
-2.4232
 70
192
 0
VERTEX
 8
GRIGLIA_2
 10
-38.1966
 20
-20.3986
 30
-2.4232
 70
192
 0
VERTEX
 8
GRIGLIA_2
 10
-37.5098
 20
-20.3986
 30
-2.4232
 70
192
 0
VERTEX
 8
GRIGLIA_2
 10
-35.696
 20
-19.3946
 30
-2.2216
 70
192
 0
VERTEX
 8
GRIGLIA_2
 10
-35.696
 20
-19.3946
 30
-3.1217
 70
192
 0
VERTEX
 8
GRIGLIA_2
 10
-35.696
 20
-49.4868
 30
-2.2216
 70
192
 0
VERTEX
 8
GRIGLIA_2
 10
-35.696
 20
-49.4868
 30
-3.1217
 70
192
 0
VERTEX
 8
GRIGLIA_2
 10
-35.696
 20
-48.4834
 30
-3.1217
 70
192
 0
VERTEX
 8
GRIGLIA_2
 10
-35.696
 20
-20.3986
 30
-3.1217
 70
192
 0
VERTEX
 8
GRIGLIA_2
 10
-35.009
 20
-19.3946
 30
-2.2216
 70
192
 0
VERTEX
 8
GRIGLIA_2
 10
-35.009
 20
-19.3946
 30
-3.1217
 70
192
 0
VERTEX
 8
GRIGLIA_2
 10
-35.009
 20
-20.3986
 30
-3.1217
 70
192
 0
VERTEX
 8
GRIGLIA_2
 10
-35.009
 20
-48.4834
 30
-3.1217
 70
192
 0
VERTEX
 8
GRIGLIA_2
 10
-35.009
 20
-49.4868
 30
-2.2216
 70
192
 0
VERTEX
 8
GRIGLIA_2
 10
-35.009
 20
-49.4868
 30
-3.1217
 70
192
 0
VERTEX
 8
GRIGLIA_2
 10
-33.1966
 20
-19.3946
 30
-2.2216
 70
192
 0
VERTEX
 8
GRIGLIA_2
 10
-33.1966
 20
-19.3946
 30
-3.1217
 70
192
 0
VERTEX
 8
GRIGLIA_2
 10
-33.1966
 20
-20.3986
 30
-3.1217
 70
192
 0
VERTEX
 8
GRIGLIA_2
 10
-33.1966
 20
-48.4834
 30
-3.1217
 70
192
 0
VERTEX
 8
GRIGLIA_2
 10
-33.1966
 20
-49.4868
 30
-2.2216
 70
192
 0
VERTEX
 8
GRIGLIA_2
 10
-33.1966
 20
-49.4868
 30
-3.1217
 70
192
 0
VERTEX
 8
GRIGLIA_2
 10
-32.5088
 20
-19.3946
 30
-2.2216
 70
192
 0
VERTEX
 8
GRIGLIA_2
 10
-32.5088
 20
-19.3946
 30
-3.1217
 70
192
 0
VERTEX
 8
GRIGLIA_2
 10
-32.5088
 20
-20.3986
 30
-3.1217
 70
192
 0
VERTEX
 8
GRIGLIA_2
 10
-32.5088
 20
-48.4834
 30
-3.1217
 70
192
 0
VERTEX
 8
GRIGLIA_2
 10
-32.5088
 20
-49.4868
 30
-2.2216
 70
192
 0
VERTEX
 8
GRIGLIA_2
 10
-32.5088
 20
-49.4868
 30
-3.1217
 70
192
 0
VERTEX
 8
GRIGLIA_2
 10
-30.6965
 20
-19.3946
 30
-2.2216
 70
192
 0
VERTEX
 8
GRIGLIA_2
 10
-30.6965
 20
-19.3946
 30
-3.1217
 70
192
 0
VERTEX
 8
GRIGLIA_2
 10
-30.6965
 20
-20.3986
 30
-3.1217
 70
192
 0
VERTEX
 8
GRIGLIA_2
 10
-30.6965
 20
-48.4834
 30
-3.1217
 70
192
 0
VERTEX
 8
GRIGLIA_2
 10
-30.6965
 20
-49.4868
 30
-2.2216
 70
192
 0
VERTEX
 8
GRIGLIA_2
 10
-30.6965
 20
-49.4868
 30
-3.1217
 70
192
 0
VERTEX
 8
GRIGLIA_2
 10
-30.0082
 20
-19.3946
 30
-2.2216
 70
192
 0
VERTEX
 8
GRIGLIA_2
 10
-30.0082
 20
-19.3946
 30
-3.1217
 70
192
 0
VERTEX
 8
GRIGLIA_2
 10
-30.0082
 20
-20.3986
 30
-3.1217
 70
192
 0
VERTEX
 8
GRIGLIA_2
 10
-30.0082
 20
-48.4834
 30
-3.1217
 70
192
 0
VERTEX
 8
GRIGLIA_2
 10
-30.0082
 20
-49.4868
 30
-2.2216
 70
192
 0
VERTEX
 8
GRIGLIA_2
 10
-30.0082
 20
-49.4868
 30
-3.1217
 70
192
 0
VERTEX
 8
GRIGLIA_2
 10
-28.1968
 20
-19.3946
 30
-2.2216
 70
192
 0
VERTEX
 8
GRIGLIA_2
 10
-28.1968
 20
-19.3946
 30
-3.1217
 70
192
 0
VERTEX
 8
GRIGLIA_2
 10
-28.1968
 20
-20.3986
 30
-3.1217
 70
192
 0
VERTEX
 8
GRIGLIA_2
 10
-28.1968
 20
-48.4834
 30
-3.1217
 70
192
 0
VERTEX
 8
GRIGLIA_2
 10
-28.1968
 20
-49.4868
 30
-2.2216
 70
192
 0
VERTEX
 8
GRIGLIA_2
 10
-28.1968
 20
-49.4868
 30
-3.1217
 70
192
 0
VERTEX
 8
GRIGLIA_2
 10
-27.509
 20
-19.3946
 30
-2.2216
 70
192
 0
VERTEX
 8
GRIGLIA_2
 10
-27.509
 20
-19.3946
 30
-3.1217
 70
192
 0
VERTEX
 8
GRIGLIA_2
 10
-27.509
 20
-49.4868
 30
-2.2216
 70
192
 0
VERTEX
 8
GRIGLIA_2
 10
-27.509
 20
-49.4868
 30
-3.1217
 70
192
 0
VERTEX
 8
GRIGLIA_2
 10
-27.509
 20
-20.3986
 30
-3.1217
 70
192
 0
VERTEX
 8
GRIGLIA_2
 10
-27.509
 20
-48.4834
 30
-3.1217
 70
192
 0
VERTEX
 8
GRIGLIA_2
 10
-25.6966
 20
-19.3946
 30
-2.2216
 70
192
 0
VERTEX
 8
GRIGLIA_2
 10
-25.6966
 20
-19.3946
 30
-3.1217
 70
192
 0
VERTEX
 8
GRIGLIA_2
 10
-25.6966
 20
-20.3986
 30
-3.1217
 70
192
 0
VERTEX
 8
GRIGLIA_2
 10
-25.6966
 20
-48.4834
 30
-3.1217
 70
192
 0
VERTEX
 8
GRIGLIA_2
 10
-25.6966
 20
-49.4868
 30
-3.1217
 70
192
 0
VERTEX
 8
GRIGLIA_2
 10
-25.6966
 20
-49.4868
 30
-2.2216
 70
192
 0
VERTEX
 8
GRIGLIA_2
 10
-25.0085
 20
-19.3946
 30
-2.2216
 70
192
 0
VERTEX
 8
GRIGLIA_2
 10
-25.0085
 20
-19.3946
 30
-3.1217
 70
192
 0
VERTEX
 8
GRIGLIA_2
 10
-25.0085
 20
-20.3986
 30
-3.1217
 70
192
 0
VERTEX
 8
GRIGLIA_2
 10
-25.0085
 20
-48.4834
 30
-3.1217
 70
192
 0
VERTEX
 8
GRIGLIA_2
 10
-25.0085
 20
-49.4868
 30
-3.1217
 70
192
 0
VERTEX
 8
GRIGLIA_2
 10
-25.0085
 20
-49.4868
 30
-2.2216
 70
192
 0
VERTEX
 8
GRIGLIA_2
 10
-23.1966
 20
-19.3946
 30
-2.2216
 70
192
 0
VERTEX
 8
GRIGLIA_2
 10
-23.1966
 20
-19.3946
 30
-3.1217
 70
192
 0
VERTEX
 8
GRIGLIA_2
 10
-23.1966
 20
-20.3986
 30
-3.1217
 70
192
 0
VERTEX
 8
GRIGLIA_2
 10
-23.1966
 20
-48.4834
 30
-3.1217
 70
192
 0
VERTEX
 8
GRIGLIA_2
 10
-23.1966
 20
-49.4868
 30
-3.1217
 70
192
 0
VERTEX
 8
GRIGLIA_2
 10
-23.1966
 20
-49.4868
 30
-2.2216
 70
192
 0
VERTEX
 8
GRIGLIA_2
 10
-22.5088
 20
-19.3946
 30
-2.2216
 70
192
 0
VERTEX
 8
GRIGLIA_2
 10
-22.5088
 20
-19.3946
 30
-3.1217
 70
192
 0
VERTEX
 8
GRIGLIA_2
 10
-22.5088
 20
-20.3986
 30
-3.1217
 70
192
 0
VERTEX
 8
GRIGLIA_2
 10
-22.5088
 20
-48.4834
 30
-3.1217
 70
192
 0
VERTEX
 8
GRIGLIA_2
 10
-22.5088
 20
-49.4868
 30
-3.1217
 70
192
 0
VERTEX
 8
GRIGLIA_2
 10
-22.5088
 20
-49.4868
 30
-2.2216
 70
192
 0
VERTEX
 8
GRIGLIA_2
 10
-20.6918
 20
-19.3946
 30
-2.2216
 70
192
 0
VERTEX
 8
GRIGLIA_2
 10
-20.6918
 20
-19.3946
 30
-3.1217
 70
192
 0
VERTEX
 8
GRIGLIA_2
 10
-20.6918
 20
-20.3986
 30
-3.1217
 70
192
 0
VERTEX
 8
GRIGLIA_2
 10
-20.6918
 20
-48.4834
 30
-3.1217
 70
192
 0
VERTEX
 8
GRIGLIA_2
 10
-20.6918
 20
-49.4868
 30
-3.1217
 70
192
 0
VERTEX
 8
GRIGLIA_2
 10
-20.6918
 20
-49.4868
 30
-2.2216
 70
192
 0
VERTEX
 8
GRIGLIA_2
 10
-20.0098
 20
-19.3946
 30
-2.2216
 70
192
 0
VERTEX
 8
GRIGLIA_2
 10
-20.0098
 20
-19.3946
 30
-3.1217
 70
192
 0
VERTEX
 8
GRIGLIA_2
 10
-20.0098
 20
-20.3986
 30
-3.1217
 70
192
 0
VERTEX
 8
GRIGLIA_2
 10
-20.0098
 20
-48.4834
 30
-3.1217
 70
192
 0
VERTEX
 8
GRIGLIA_2
 10
-20.0098
 20
-49.4868
 30
-3.1217
 70
192
 0
VERTEX
 8
GRIGLIA_2
 10
-20.0098
 20
-49.4868
 30
-2.2216
 70
192
 0
VERTEX
 8
GRIGLIA_2
 10
-18.1963
 20
-19.3946
 30
-2.2216
 70
192
 0
VERTEX
 8
GRIGLIA_2
 10
-18.1963
 20
-19.3946
 30
-3.1217
 70
192
 0
VERTEX
 8
GRIGLIA_2
 10
-18.1963
 20
-20.3986
 30
-3.1217
 70
192
 0
VERTEX
 8
GRIGLIA_2
 10
-18.1963
 20
-48.4834
 30
-3.1217
 70
192
 0
VERTEX
 8
GRIGLIA_2
 10
-18.1963
 20
-49.4868
 30
-3.1217
 70
192
 0
VERTEX
 8
GRIGLIA_2
 10
-18.1963
 20
-49.4868
 30
-2.2216
 70
192
 0
VERTEX
 8
GRIGLIA_2
 10
-17.5085
 20
-19.3946
 30
-2.2216
 70
192
 0
VERTEX
 8
GRIGLIA_2
 10
-17.5085
 20
-19.3946
 30
-3.1217
 70
192
 0
VERTEX
 8
GRIGLIA_2
 10
-17.5085
 20
-20.3986
 30
-3.1217
 70
192
 0
VERTEX
 8
GRIGLIA_2
 10
-17.5085
 20
-48.4834
 30
-3.1217
 70
192
 0
VERTEX
 8
GRIGLIA_2
 10
-17.5085
 20
-49.4868
 30
-3.1217
 70
192
 0
VERTEX
 8
GRIGLIA_2
 10
-17.5085
 20
-49.4868
 30
-2.2216
 70
192
 0
VERTEX
 8
GRIGLIA_2
 10
-30.6965
 20
-43.3429
 30
-3.1217
 70
192
 0
VERTEX
 8
GRIGLIA_2
 10
-30.0082
 20
-43.3429
 30
-3.1217
 70
192
 0
VERTEX
 8
GRIGLIA_2
 10
-28.1968
 20
-43.3429
 30
-3.1217
 70
192
 0
VERTEX
 8
GRIGLIA_2
 10
-27.509
 20
-43.3429
 30
-3.1217
 70
192
 0
VERTEX
 8
GRIGLIA_2
 10
-25.6966
 20
-43.3429
 30
-3.1217
 70
192
 0
VERTEX
 8
GRIGLIA_2
 10
-25.0085
 20
-43.3429
 30
-3.1217
 70
192
 0
VERTEX
 8
GRIGLIA_2
 10
-35.696
 20
-48.4834
 30
-2.4232
 70
192
 0
VERTEX
 8
GRIGLIA_2
 10
-35.696
 20
-20.3986
 30
-2.4232
 70
192
 0
VERTEX
 8
GRIGLIA_2
 10
-35.009
 20
-20.3986
 30
-2.4232
 70
192
 0
VERTEX
 8
GRIGLIA_2
 10
-35.009
 20
-48.4834
 30
-2.4232
 70
192
 0
VERTEX
 8
GRIGLIA_2
 10
-33.1966
 20
-20.3986
 30
-2.4232
 70
192
 0
VERTEX
 8
GRIGLIA_2
 10
-33.1966
 20
-48.4834
 30
-2.4232
 70
192
 0
VERTEX
 8
GRIGLIA_2
 10
-32.5088
 20
-20.3986
 30
-2.4232
 70
192
 0
VERTEX
 8
GRIGLIA_2
 10
-32.5088
 20
-48.4834
 30
-2.4232
 70
192
 0
VERTEX
 8
GRIGLIA_2
 10
-30.6965
 20
-20.3986
 30
-2.4232
 70
192
 0
VERTEX
 8
GRIGLIA_2
 10
-30.0082
 20
-20.3986
 30
-2.4232
 70
192
 0
VERTEX
 8
GRIGLIA_2
 10
-30.6965
 20
-43.3428
 30
-2.4232
 70
192
 0
VERTEX
 8
GRIGLIA_2
 10
-30.0082
 20
-43.3428
 30
-2.4232
 70
192
 0
VERTEX
 8
GRIGLIA_2
 10
-28.1968
 20
-20.3986
 30
-2.4232
 70
192
 0
VERTEX
 8
GRIGLIA_2
 10
-27.509
 20
-20.3986
 30
-2.4232
 70
192
 0
VERTEX
 8
GRIGLIA_2
 10
-28.1968
 20
-43.3428
 30
-2.4232
 70
192
 0
VERTEX
 8
GRIGLIA_2
 10
-27.509
 20
-43.3428
 30
-2.4232
 70
192
 0
VERTEX
 8
GRIGLIA_2
 10
-25.6966
 20
-20.3986
 30
-2.4232
 70
192
 0
VERTEX
 8
GRIGLIA_2
 10
-25.0085
 20
-20.3986
 30
-2.4232
 70
192
 0
VERTEX
 8
GRIGLIA_2
 10
-25.6966
 20
-43.3428
 30
-2.4232
 70
192
 0
VERTEX
 8
GRIGLIA_2
 10
-25.0085
 20
-43.3428
 30
-2.4232
 70
192
 0
VERTEX
 8
GRIGLIA_2
 10
-23.1966
 20
-20.3986
 30
-2.4232
 70
192
 0
VERTEX
 8
GRIGLIA_2
 10
-23.1966
 20
-48.4834
 30
-2.4232
 70
192
 0
VERTEX
 8
GRIGLIA_2
 10
-22.5088
 20
-20.3986
 30
-2.4232
 70
192
 0
VERTEX
 8
GRIGLIA_2
 10
-22.5088
 20
-48.4834
 30
-2.4232
 70
192
 0
VERTEX
 8
GRIGLIA_2
 10
-20.6918
 20
-20.3986
 30
-2.4232
 70
192
 0
VERTEX
 8
GRIGLIA_2
 10
-20.6918
 20
-48.4834
 30
-2.4232
 70
192
 0
VERTEX
 8
GRIGLIA_2
 10
-20.0098
 20
-20.3986
 30
-2.4232
 70
192
 0
VERTEX
 8
GRIGLIA_2
 10
-20.0098
 20
-48.4834
 30
-2.4232
 70
192
 0
VERTEX
 8
GRIGLIA_2
 10
-38.8125
 20
-49.4868
 30
-2.2216
 70
192
 0
VERTEX
 8
GRIGLIA_2
 10
-14.0173
 20
-48.9851
 30
-2.2216
 70
192
 0
VERTEX
 8
GRIGLIA_2
 10
-16.893
 20
-19.3946
 30
-2.2216
 70
192
 0
VERTEX
 8
GRIGLIA_2
 10
-41.8287
 20
-19.8966
 30
-2.2216
 70
192
 0
VERTEX
 8
GRIGLIA_2
 10
-37.8532
 20
-49.4868
 30
-2.2216
 70
192
 0
VERTEX
 8
GRIGLIA_2
 10
-38.8125
 20
-19.3946
 30
-2.2216
 70
192
 0
VERTEX
 8
GRIGLIA_2
 10
-37.8532
 20
-19.3946
 30
-2.2216
 70
192
 0
VERTEX
 8
GRIGLIA_2
 10
-36.6029
 20
-49.4868
 30
-2.2216
 70
192
 0
VERTEX
 8
GRIGLIA_2
 10
-14.0173
 20
-36.6136
 30
-2.2216
 70
192
 0
VERTEX
 8
GRIGLIA_2
 10
-41.8287
 20
-48.9851
 30
-2.2216
 70
192
 0
VERTEX
 8
GRIGLIA_2
 10
-41.8287
 20
-36.6136
 30
-2.2216
 70
192
 0
VERTEX
 8
GRIGLIA_2
 10
-14.0173
 20
-19.8966
 30
-2.2216
 70
192
 0
VERTEX
 8
GRIGLIA_2
 10
-36.6029
 20
-19.3946
 30
-2.2216
 70
192
 0
VERTEX
 8
GRIGLIA_2
 10
-35.3525
 20
-49.4868
 30
-2.2216
 70
192
 0
VERTEX
 8
GRIGLIA_2
 10
-35.3525
 20
-19.3946
 30
-2.2216
 70
192
 0
VERTEX
 8
GRIGLIA_2
 10
-34.1028
 20
-49.4868
 30
-2.2216
 70
192
 0
VERTEX
 8
GRIGLIA_2
 10
-34.1028
 20
-19.3946
 30
-2.2216
 70
192
 0
VERTEX
 8
GRIGLIA_2
 10
-32.8527
 20
-49.4868
 30
-2.2216
 70
192
 0
VERTEX
 8
GRIGLIA_2
 10
-32.8527
 20
-19.3946
 30
-2.2216
 70
192
 0
VERTEX
 8
GRIGLIA_2
 10
-31.6026
 20
-49.4868
 30
-2.2216
 70
192
 0
VERTEX
 8
GRIGLIA_2
 10
-31.6026
 20
-19.3946
 30
-2.2216
 70
192
 0
VERTEX
 8
GRIGLIA_2
 10
-30.3523
 20
-49.4868
 30
-2.2216
 70
192
 0
VERTEX
 8
GRIGLIA_2
 10
-30.3523
 20
-19.3946
 30
-2.2216
 70
192
 0
VERTEX
 8
GRIGLIA_2
 10
-29.1025
 20
-49.4868
 30
-2.2216
 70
192
 0
VERTEX
 8
GRIGLIA_2
 10
-29.1025
 20
-19.3946
 30
-2.2216
 70
192
 0
VERTEX
 8
GRIGLIA_2
 10
-27.8529
 20
-49.4868
 30
-2.2216
 70
192
 0
VERTEX
 8
GRIGLIA_2
 10
-27.8529
 20
-19.3946
 30
-2.2216
 70
192
 0
VERTEX
 8
GRIGLIA_2
 10
-26.6028
 20
-49.4868
 30
-2.2216
 70
192
 0
VERTEX
 8
GRIGLIA_2
 10
-26.6028
 20
-19.3946
 30
-2.2216
 70
192
 0
VERTEX
 8
GRIGLIA_2
 10
-25.3526
 20
-49.4868
 30
-2.2216
 70
192
 0
VERTEX
 8
GRIGLIA_2
 10
-25.3526
 20
-19.3946
 30
-2.2216
 70
192
 0
VERTEX
 8
GRIGLIA_2
 10
-24.1025
 20
-49.4868
 30
-2.2216
 70
192
 0
VERTEX
 8
GRIGLIA_2
 10
-24.1025
 20
-19.3946
 30
-2.2216
 70
192
 0
VERTEX
 8
GRIGLIA_2
 10
-22.8527
 20
-49.4868
 30
-2.2216
 70
192
 0
VERTEX
 8
GRIGLIA_2
 10
-22.8527
 20
-19.3946
 30
-2.2216
 70
192
 0
VERTEX
 8
GRIGLIA_2
 10
-21.6003
 20
-49.4868
 30
-2.2216
 70
192
 0
VERTEX
 8
GRIGLIA_2
 10
-21.6003
 20
-19.3946
 30
-2.2216
 70
192
 0
VERTEX
 8
GRIGLIA_2
 10
-20.3508
 20
-49.4868
 30
-2.2216
 70
192
 0
VERTEX
 8
GRIGLIA_2
 10
-20.3508
 20
-19.3946
 30
-2.2216
 70
192
 0
VERTEX
 8
GRIGLIA_2
 10
-19.103
 20
-49.4868
 30
-2.2216
 70
192
 0
VERTEX
 8
GRIGLIA_2
 10
-19.103
 20
-19.3946
 30
-2.2216
 70
192
 0
VERTEX
 8
GRIGLIA_2
 10
-17.8524
 20
-49.4868
 30
-2.2216
 70
192
 0
VERTEX
 8
GRIGLIA_2
 10
-17.8524
 20
-19.3946
 30
-2.2216
 70
192
 0
VERTEX
 8
GRIGLIA_2
 10
-16.893
 20
-49.4868
 30
-2.2216
 70
192
 0
VERTEX
 8
GRIGLIA_2
 10
-26.3032
 20
-44.3383
 30
-3.1217
 70
192
 0
VERTEX
 8
GRIGLIA_2
 10
-29.4035
 20
-44.3383
 30
-3.1217
 70
192
 0
VERTEX
 8
GRIGLIA_2
 10
-29.4035
 20
-48.3573
 30
-3.1217
 70
192
 0
VERTEX
 8
GRIGLIA_2
 10
-26.3032
 20
-48.3573
 30
-3.1217
 70
192
 0
VERTEX
 8
GRIGLIA_2
 10
-26.3032
 20
-44.3383
 30
-3.2314
 70
192
 0
VERTEX
 8
GRIGLIA_2
 10
-29.4035
 20
-44.3384
 30
-3.2314
 70
192
 0
VERTEX
 8
GRIGLIA_2
 10
-29.4035
 20
-48.3573
 30
-3.2314
 70
192
 0
VERTEX
 8
GRIGLIA_2
 10
-26.3032
 20
-48.3573
 30
-3.2314
 70
192
 0
VERTEX
 8
GRIGLIA_2
 10
-26.8437
 20
-44.8881
 30
-3.2314
 70
192
 0
VERTEX
 8
GRIGLIA_2
 10
-28.8628
 20
-44.8881
 30
-3.2314
 70
192
 0
VERTEX
 8
GRIGLIA_2
 10
-28.8628
 20
-45.7893
 30
-3.2314
 70
192
 0
VERTEX
 8
GRIGLIA_2
 10
-26.8437
 20
-45.7893
 30
-3.2314
 70
192
 0
VERTEX
 8
GRIGLIA_2
 10
-27.0437
 20
-44.9513
 30
-3.1292
 70
192
 0
VERTEX
 8
GRIGLIA_2
 10
-28.6628
 20
-44.9514
 30
-3.1292
 70
192
 0
VERTEX
 8
GRIGLIA_2
 10
-28.6628
 20
-45.7892
 30
-3.1292
 70
192
 0
VERTEX
 8
GRIGLIA_2
 10
-27.0437
 20
-45.7892
 30
-3.1292
 70
192
 0
VERTEX
 8
GRIGLIA_2
 10
-15.6973
 20
-49.4868
 30
-2.4122
 70
192
 0
VERTEX
 8
GRIGLIA_2
 10
-15.6973
 20
-49.4868
 30
-3.1217
 70
192
 0
VERTEX
 8
GRIGLIA_2
 10
-15.6973
 20
-19.3946
 30
-2.2216
 70
192
 0
VERTEX
 8
GRIGLIA_2
 10
-15.6973
 20
-19.3946
 30
-2.4122
 70
192
 0
VERTEX
 8
GRIGLIA_2
 10
-15.6973
 20
-48.4834
 30
-3.1217
 70
192
 0
VERTEX
 8
GRIGLIA_2
 10
-15.6973
 20
-19.3946
 30
-3.1217
 70
192
 0
VERTEX
 8
GRIGLIA_2
 10
-15.6973
 20
-49.4868
 30
-2.2216
 70
192
 0
VERTEX
 8
GRIGLIA_2
 10
-15.6973
 20
-20.3986
 30
-3.1217
 70
192
 0
VERTEX
 8
GRIGLIA_2
 10
-15.009
 20
-19.3946
 30
-3.1217
 70
192
 0
VERTEX
 8
GRIGLIA_2
 10
-15.009
 20
-19.3946
 30
-2.6909
 70
192
 0
VERTEX
 8
GRIGLIA_2
 10
-15.009
 20
-20.3986
 30
-3.1217
 70
192
 0
VERTEX
 8
GRIGLIA_2
 10
-15.009
 20
-48.4834
 30
-3.1217
 70
192
 0
VERTEX
 8
GRIGLIA_2
 10
-15.009
 20
-19.3946
 30
-2.2216
 70
192
 0
VERTEX
 8
GRIGLIA_2
 10
-15.009
 20
-49.4868
 30
-2.2216
 70
192
 0
VERTEX
 8
GRIGLIA_2
 10
-15.009
 20
-49.4868
 30
-2.6909
 70
192
 0
VERTEX
 8
GRIGLIA_2
 10
-15.009
 20
-49.4868
 30
-3.1217
 70
192
 0
VERTEX
 8
GRIGLIA_2
 10
-40.6973
 20
-49.4868
 30
-2.2216
 70
192
 0
VERTEX
 8
GRIGLIA_2
 10
-40.6973
 20
-49.4868
 30
-2.7235
 70
192
 0
VERTEX
 8
GRIGLIA_2
 10
-40.6973
 20
-19.3946
 30
-2.2216
 70
192
 0
VERTEX
 8
GRIGLIA_2
 10
-40.6973
 20
-49.4868
 30
-3.1217
 70
192
 0
VERTEX
 8
GRIGLIA_2
 10
-40.6973
 20
-20.3986
 30
-3.1217
 70
192
 0
VERTEX
 8
GRIGLIA_2
 10
-40.6973
 20
-19.3946
 30
-3.1217
 70
192
 0
VERTEX
 8
GRIGLIA_2
 10
-40.6973
 20
-19.3946
 30
-2.7235
 70
192
 0
VERTEX
 8
GRIGLIA_2
 10
-40.6973
 20
-48.4834
 30
-3.1217
 70
192
 0
VERTEX
 8
GRIGLIA_2
 10
-40.009
 20
-19.3946
 30
-2.2216
 70
192
 0
VERTEX
 8
GRIGLIA_2
 10
-40.009
 20
-49.4868
 30
-2.2216
 70
192
 0
VERTEX
 8
GRIGLIA_2
 10
-40.009
 20
-49.4868
 30
-2.5663
 70
192
 0
VERTEX
 8
GRIGLIA_2
 10
-40.009
 20
-19.3946
 30
-2.5663
 70
192
 0
VERTEX
 8
GRIGLIA_2
 10
-40.009
 20
-49.4868
 30
-3.1217
 70
192
 0
VERTEX
 8
GRIGLIA_2
 10
-40.009
 20
-20.3986
 30
-3.1217
 70
192
 0
VERTEX
 8
GRIGLIA_2
 10
-40.009
 20
-19.3946
 30
-3.1217
 70
192
 0
VERTEX
 8
GRIGLIA_2
 10
-40.009
 20
-48.4834
 30
-3.1217
 70
192
 0
VERTEX
 8
GRIGLIA_2
 10
-40.697
 20
-20.3983
 30
-2.4236
 70
192
 0
VERTEX
 8
GRIGLIA_2
 10
-40.697
 20
-48.4835
 30
-2.4236
 70
192
 0
VERTEX
 8
GRIGLIA_2
 10
-40.009
 20
-20.3983
 30
-2.4236
 70
192
 0
VERTEX
 8
GRIGLIA_2
 10
-40.009
 20
-48.4835
 30
-2.4236
 70
192
 0
VERTEX
 8
GRIGLIA_2
 10
-15.697
 20
-48.4835
 30
-2.4236
 70
192
 0
VERTEX
 8
GRIGLIA_2
 10
-15.697
 20
-20.3983
 30
-2.4236
 70
192
 0
VERTEX
 8
GRIGLIA_2
 10
-15.009
 20
-20.3983
 30
-2.4236
 70
192
 0
VERTEX
 8
GRIGLIA_2
 10
-15.009
 20
-48.4835
 30
-2.4236
 70
192
 0
VERTEX
 8
GRIGLIA_2
 10
-14.8189
 20
-49.4868
 30
-2.2216
 70
192
 0
VERTEX
 8
GRIGLIA_2
 10
-14.8189
 20
-19.3946
 30
-2.2216
 70
192
 0
VERTEX
 8
GRIGLIA_2
 10
-14.8189
 20
-49.4868
 30
-3.1217
 70
192
 0
VERTEX
 8
GRIGLIA_2
 10
-14.7189
 20
-49.4868
 30
-2.2216
 70
192
 0
VERTEX
 8
GRIGLIA_2
 10
-14.7189
 20
-49.4868
 30
-3.1217
 70
192
 0
VERTEX
 8
GRIGLIA_2
 10
-14.7189
 20
-19.3946
 30
-2.2216
 70
192
 0
VERTEX
 8
GRIGLIA_2
 10
-41.429
 20
-19.3946
 30
-2.2216
 70
192
 0
VERTEX
 8
GRIGLIA_2
 10
-41.429
 20
-49.4868
 30
-2.2216
 70
192
 0
VERTEX
 8
GRIGLIA_2
 10
-41.429
 20
-49.4868
 30
-3.1217
 70
192
 0
VERTEX
 8
GRIGLIA_2
 10
-41.529
 20
-49.4868
 30
-3.1217
 70
192
 0
VERTEX
 8
GRIGLIA_2
 10
-41.529
 20
-49.4868
 30
-2.2216
 70
192
 0
VERTEX
 8
GRIGLIA_2
 10
-41.529
 20
-19.3946
 30
-2.2216
 70
192
 0
VERTEX
 8
GRIGLIA_2
 10
-41.529
 20
-20.3986
 30
-3.1217
 70
192
 0
VERTEX
 8
GRIGLIA_2
 10
-41.529
 20
-19.3946
 30
-3.1217
 70
192
 0
VERTEX
 8
GRIGLIA_2
 10
-41.529
 20
-48.4834
 30
-3.1217
 70
192
 0
VERTEX
 8
GRIGLIA_2
 10
-41.429
 20
-20.3986
 30
-3.1217
 70
192
 0
VERTEX
 8
GRIGLIA_2
 10
-41.429
 20
-19.3946
 30
-3.1217
 70
192
 0
VERTEX
 8
GRIGLIA_2
 10
-41.429
 20
-48.4834
 30
-3.1217
 70
192
 0
VERTEX
 8
GRIGLIA_2
 10
-14.8189
 20
-20.3986
 30
-3.1217
 70
192
 0
VERTEX
 8
GRIGLIA_2
 10
-14.8189
 20
-48.4834
 30
-3.1217
 70
192
 0
VERTEX
 8
GRIGLIA_2
 10
-14.8189
 20
-19.3946
 30
-3.1217
 70
192
 0
VERTEX
 8
GRIGLIA_2
 10
-14.7189
 20
-19.3946
 30
-3.1217
 70
192
 0
VERTEX
 8
GRIGLIA_2
 10
-14.7189
 20
-20.3986
 30
-3.1217
 70
192
 0
VERTEX
 8
GRIGLIA_2
 10
-14.7189
 20
-48.4834
 30
-3.1217
 70
192
 0
VERTEX
 8
GRIGLIA_2
 10
0
 20
0
 30
0
 70
128
 71
167
 72
9
 73
10
 74
10
 0
VERTEX
 8
GRIGLIA_2
 10
0
 20
0
 30
0
 70
128
 71
167
 72
10
 73
255
 74
253
 0
VERTEX
 8
GRIGLIA_2
 10
0
 20
0
 30
0
 70
128
 71
167
 72
253
 73
252
 74
252
 0
VERTEX
 8
GRIGLIA_2
 10
0
 20
0
 30
0
 70
128
 71
253
 72
244
 73
243
 74
252
 0
VERTEX
 8
GRIGLIA_2
 10
0
 20
0
 30
0
 70
128
 71
244
 72
253
 73
255
 74
246
 0
VERTEX
 8
GRIGLIA_2
 10
0
 20
0
 30
0
 70
128
 71
274
 72
243
 73
244
 74
275
 0
VERTEX
 8
GRIGLIA_2
 10
0
 20
0
 30
0
 70
128
 71
244
 72
246
 73
275
 74
275
 0
VERTEX
 8
GRIGLIA_2
 10
0
 20
0
 30
0
 70
128
 71
210
 72
233
 73
227
 74
227
 0
VERTEX
 8
GRIGLIA_2
 10
0
 20
0
 30
0
 70
128
 71
210
 72
227
 73
228
 74
131
 0
VERTEX
 8
GRIGLIA_2
 10
0
 20
0
 30
0
 70
128
 71
210
 72
131
 73
132
 74
132
 0
VERTEX
 8
GRIGLIA_2
 10
0
 20
0
 30
0
 70
128
 71
227
 72
233
 73
240
 74
241
 0
VERTEX
 8
GRIGLIA_2
 10
0
 20
0
 30
0
 70
128
 71
241
 72
242
 73
228
 74
227
 0
VERTEX
 8
GRIGLIA_2
 10
0
 20
0
 30
0
 70
128
 71
230
 72
236
 73
239
 74
229
 0
VERTEX
 8
GRIGLIA_2
 10
0
 20
0
 30
0
 70
128
 71
236
 72
230
 73
232
 74
235
 0
VERTEX
 8
GRIGLIA_2
 10
0
 20
0
 30
0
 70
128
 71
268
 72
239
 73
236
 74
287
 0
VERTEX
 8
GRIGLIA_2
 10
0
 20
0
 30
0
 70
128
 71
236
 72
235
 73
287
 74
287
 0
VERTEX
 8
GRIGLIA_2
 10
0
 20
0
 30
0
 70
128
 71
169
 72
127
 73
128
 74
128
 0
VERTEX
 8
GRIGLIA_2
 10
0
 20
0
 30
0
 70
128
 71
232
 72
230
 73
169
 74
128
 0
VERTEX
 8
GRIGLIA_2
 10
0
 20
0
 30
0
 70
128
 71
169
 72
230
 73
229
 74
229
 0
VERTEX
 8
GRIGLIA_2
 10
0
 20
0
 30
0
 70
128
 71
283
 72
248
 73
249
 74
249
 0
VERTEX
 8
GRIGLIA_2
 10
0
 20
0
 30
0
 70
128
 71
273
 72
283
 73
249
 74
245
 0
VERTEX
 8
GRIGLIA_2
 10
0
 20
0
 30
0
 70
128
 71
172
 72
251
 73
254
 74
254
 0
VERTEX
 8
GRIGLIA_2
 10
0
 20
0
 30
0
 70
128
 71
172
 72
254
 73
257
 74
12
 0
VERTEX
 8
GRIGLIA_2
 10
0
 20
0
 30
0
 70
128
 71
172
 72
12
 73
11
 74
11
 0
VERTEX
 8
GRIGLIA_2
 10
0
 20
0
 30
0
 70
128
 71
249
 72
248
 73
257
 74
254
 0
VERTEX
 8
GRIGLIA_2
 10
0
 20
0
 30
0
 70
128
 71
254
 72
251
 73
245
 74
249
 0
VERTEX
 8
GRIGLIA_2
 10
0
 20
0
 30
0
 70
128
 71
269
 72
242
 73
241
 74
241
 0
VERTEX
 8
GRIGLIA_2
 10
0
 20
0
 30
0
 70
128
 71
267
 72
269
 73
241
 74
240
 0
VERTEX
 8
GRIGLIA_2
 10
0
 20
0
 30
0
 70
128
 71
275
 72
276
 73
277
 74
274
 0
VERTEX
 8
GRIGLIA_2
 10
0
 20
0
 30
0
 70
128
 71
4
 72
168
 73
3
 74
3
 0
VERTEX
 8
GRIGLIA_2
 10
0
 20
0
 30
0
 70
128
 71
168
 72
17
 73
18
 74
18
 0
VERTEX
 8
GRIGLIA_2
 10
0
 20
0
 30
0
 70
128
 71
168
 72
18
 73
3
 74
3
 0
VERTEX
 8
GRIGLIA_2
 10
0
 20
0
 30
0
 70
128
 71
285
 72
237
 73
238
 74
286
 0
VERTEX
 8
GRIGLIA_2
 10
0
 20
0
 30
0
 70
128
 71
8
 72
170
 73
7
 74
7
 0
VERTEX
 8
GRIGLIA_2
 10
0
 20
0
 30
0
 70
128
 71
170
 72
25
 73
26
 74
26
 0
VERTEX
 8
GRIGLIA_2
 10
0
 20
0
 30
0
 70
128
 71
170
 72
26
 73
7
 74
7
 0
VERTEX
 8
GRIGLIA_2
 10
0
 20
0
 30
0
 70
128
 71
7
 72
26
 73
279
 74
280
 0
VERTEX
 8
GRIGLIA_2
 10
0
 20
0
 30
0
 70
128
 71
9
 72
171
 73
10
 74
10
 0
VERTEX
 8
GRIGLIA_2
 10
0
 20
0
 30
0
 70
128
 71
171
 72
15
 73
16
 74
16
 0
VERTEX
 8
GRIGLIA_2
 10
0
 20
0
 30
0
 70
128
 71
171
 72
16
 73
10
 74
10
 0
VERTEX
 8
GRIGLIA_2
 10
0
 20
0
 30
0
 70
128
 71
278
 72
8
 73
7
 74
280
 0
VERTEX
 8
GRIGLIA_2
 10
0
 20
0
 30
0
 70
128
 71
10
 72
16
 73
24
 74
22
 0
VERTEX
 8
GRIGLIA_2
 10
0
 20
0
 30
0
 70
128
 71
13
 72
173
 73
14
 74
14
 0
VERTEX
 8
GRIGLIA_2
 10
0
 20
0
 30
0
 70
128
 71
173
 72
11
 73
12
 74
12
 0
VERTEX
 8
GRIGLIA_2
 10
0
 20
0
 30
0
 70
128
 71
173
 72
12
 73
14
 74
14
 0
VERTEX
 8
GRIGLIA_2
 10
0
 20
0
 30
0
 70
128
 71
15
 72
174
 73
16
 74
16
 0
VERTEX
 8
GRIGLIA_2
 10
0
 20
0
 30
0
 70
128
 71
174
 72
39
 73
40
 74
40
 0
VERTEX
 8
GRIGLIA_2
 10
0
 20
0
 30
0
 70
128
 71
174
 72
40
 73
16
 74
16
 0
VERTEX
 8
GRIGLIA_2
 10
0
 20
0
 30
0
 70
128
 71
16
 72
40
 73
41
 74
24
 0
VERTEX
 8
GRIGLIA_2
 10
0
 20
0
 30
0
 70
128
 71
17
 72
175
 73
18
 74
18
 0
VERTEX
 8
GRIGLIA_2
 10
0
 20
0
 30
0
 70
128
 71
175
 72
30
 73
31
 74
31
 0
VERTEX
 8
GRIGLIA_2
 10
0
 20
0
 30
0
 70
128
 71
175
 72
31
 73
18
 74
18
 0
VERTEX
 8
GRIGLIA_2
 10
0
 20
0
 30
0
 70
128
 71
19
 72
176
 73
20
 74
20
 0
VERTEX
 8
GRIGLIA_2
 10
0
 20
0
 30
0
 70
128
 71
176
 72
2
 73
1
 74
1
 0
VERTEX
 8
GRIGLIA_2
 10
0
 20
0
 30
0
 70
128
 71
176
 72
1
 73
20
 74
20
 0
VERTEX
 8
GRIGLIA_2
 10
0
 20
0
 30
0
 70
128
 71
20
 72
1
 73
276
 74
281
 0
VERTEX
 8
GRIGLIA_2
 10
0
 20
0
 30
0
 70
128
 71
34
 72
36
 73
35
 74
33
 0
VERTEX
 8
GRIGLIA_2
 10
0
 20
0
 30
0
 70
128
 71
18
 72
31
 73
289
 74
290
 0
VERTEX
 8
GRIGLIA_2
 10
0
 20
0
 30
0
 70
128
 71
25
 72
177
 73
26
 74
26
 0
VERTEX
 8
GRIGLIA_2
 10
0
 20
0
 30
0
 70
128
 71
177
 72
19
 73
20
 74
20
 0
VERTEX
 8
GRIGLIA_2
 10
0
 20
0
 30
0
 70
128
 71
177
 72
20
 73
26
 74
26
 0
VERTEX
 8
GRIGLIA_2
 10
0
 20
0
 30
0
 70
128
 71
26
 72
20
 73
281
 74
279
 0
VERTEX
 8
GRIGLIA_2
 10
0
 20
0
 30
0
 70
128
 71
30
 72
178
 73
31
 74
31
 0
VERTEX
 8
GRIGLIA_2
 10
0
 20
0
 30
0
 70
128
 71
178
 72
6
 73
5
 74
5
 0
VERTEX
 8
GRIGLIA_2
 10
0
 20
0
 30
0
 70
128
 71
178
 72
5
 73
31
 74
31
 0
VERTEX
 8
GRIGLIA_2
 10
0
 20
0
 30
0
 70
128
 71
32
 72
14
 73
12
 74
27
 0
VERTEX
 8
GRIGLIA_2
 10
0
 20
0
 30
0
 70
128
 71
31
 72
5
 73
288
 74
289
 0
VERTEX
 8
GRIGLIA_2
 10
0
 20
0
 30
0
 70
128
 71
24
 72
34
 73
33
 74
22
 0
VERTEX
 8
GRIGLIA_2
 10
0
 20
0
 30
0
 70
128
 71
22
 72
33
 73
35
 74
27
 0
VERTEX
 8
GRIGLIA_2
 10
0
 20
0
 30
0
 70
128
 71
27
 72
35
 73
36
 74
32
 0
VERTEX
 8
GRIGLIA_2
 10
0
 20
0
 30
0
 70
128
 71
32
 72
36
 73
34
 74
24
 0
VERTEX
 8
GRIGLIA_2
 10
0
 20
0
 30
0
 70
128
 71
37
 72
179
 73
38
 74
38
 0
VERTEX
 8
GRIGLIA_2
 10
0
 20
0
 30
0
 70
128
 71
179
 72
13
 73
14
 74
14
 0
VERTEX
 8
GRIGLIA_2
 10
0
 20
0
 30
0
 70
128
 71
179
 72
14
 73
38
 74
38
 0
VERTEX
 8
GRIGLIA_2
 10
0
 20
0
 30
0
 70
128
 71
39
 72
180
 73
40
 74
40
 0
VERTEX
 8
GRIGLIA_2
 10
0
 20
0
 30
0
 70
128
 71
180
 72
47
 73
48
 74
48
 0
VERTEX
 8
GRIGLIA_2
 10
0
 20
0
 30
0
 70
128
 71
180
 72
48
 73
40
 74
40
 0
VERTEX
 8
GRIGLIA_2
 10
0
 20
0
 30
0
 70
128
 71
40
 72
48
 73
46
 74
41
 0
VERTEX
 8
GRIGLIA_2
 10
0
 20
0
 30
0
 70
128
 71
42
 72
32
 73
24
 74
41
 0
VERTEX
 8
GRIGLIA_2
 10
0
 20
0
 30
0
 70
128
 71
38
 72
14
 73
32
 74
42
 0
VERTEX
 8
GRIGLIA_2
 10
0
 20
0
 30
0
 70
128
 71
43
 72
181
 73
44
 74
44
 0
VERTEX
 8
GRIGLIA_2
 10
0
 20
0
 30
0
 70
128
 71
181
 72
37
 73
38
 74
38
 0
VERTEX
 8
GRIGLIA_2
 10
0
 20
0
 30
0
 70
128
 71
181
 72
38
 73
44
 74
44
 0
VERTEX
 8
GRIGLIA_2
 10
0
 20
0
 30
0
 70
128
 71
141
 72
140
 73
139
 74
142
 0
VERTEX
 8
GRIGLIA_2
 10
0
 20
0
 30
0
 70
128
 71
44
 72
38
 73
42
 74
45
 0
VERTEX
 8
GRIGLIA_2
 10
0
 20
0
 30
0
 70
128
 71
47
 72
182
 73
48
 74
48
 0
VERTEX
 8
GRIGLIA_2
 10
0
 20
0
 30
0
 70
128
 71
182
 72
53
 73
54
 74
54
 0
VERTEX
 8
GRIGLIA_2
 10
0
 20
0
 30
0
 70
128
 71
182
 72
54
 73
48
 74
48
 0
VERTEX
 8
GRIGLIA_2
 10
0
 20
0
 30
0
 70
128
 71
48
 72
54
 73
52
 74
46
 0
VERTEX
 8
GRIGLIA_2
 10
0
 20
0
 30
0
 70
128
 71
49
 72
183
 73
50
 74
50
 0
VERTEX
 8
GRIGLIA_2
 10
0
 20
0
 30
0
 70
128
 71
183
 72
43
 73
44
 74
44
 0
VERTEX
 8
GRIGLIA_2
 10
0
 20
0
 30
0
 70
128
 71
183
 72
44
 73
50
 74
50
 0
VERTEX
 8
GRIGLIA_2
 10
0
 20
0
 30
0
 70
128
 71
51
 72
45
 73
46
 74
52
 0
VERTEX
 8
GRIGLIA_2
 10
0
 20
0
 30
0
 70
128
 71
50
 72
44
 73
45
 74
51
 0
VERTEX
 8
GRIGLIA_2
 10
0
 20
0
 30
0
 70
128
 71
53
 72
184
 73
54
 74
54
 0
VERTEX
 8
GRIGLIA_2
 10
0
 20
0
 30
0
 70
128
 71
184
 72
59
 73
60
 74
60
 0
VERTEX
 8
GRIGLIA_2
 10
0
 20
0
 30
0
 70
128
 71
184
 72
60
 73
54
 74
54
 0
VERTEX
 8
GRIGLIA_2
 10
0
 20
0
 30
0
 70
128
 71
54
 72
60
 73
58
 74
52
 0
VERTEX
 8
GRIGLIA_2
 10
0
 20
0
 30
0
 70
128
 71
55
 72
185
 73
56
 74
56
 0
VERTEX
 8
GRIGLIA_2
 10
0
 20
0
 30
0
 70
128
 71
185
 72
49
 73
50
 74
50
 0
VERTEX
 8
GRIGLIA_2
 10
0
 20
0
 30
0
 70
128
 71
185
 72
50
 73
56
 74
56
 0
VERTEX
 8
GRIGLIA_2
 10
0
 20
0
 30
0
 70
128
 71
145
 72
143
 73
144
 74
146
 0
VERTEX
 8
GRIGLIA_2
 10
0
 20
0
 30
0
 70
128
 71
56
 72
50
 73
51
 74
57
 0
VERTEX
 8
GRIGLIA_2
 10
0
 20
0
 30
0
 70
128
 71
59
 72
186
 73
60
 74
60
 0
VERTEX
 8
GRIGLIA_2
 10
0
 20
0
 30
0
 70
128
 71
186
 72
65
 73
66
 74
66
 0
VERTEX
 8
GRIGLIA_2
 10
0
 20
0
 30
0
 70
128
 71
186
 72
66
 73
60
 74
60
 0
VERTEX
 8
GRIGLIA_2
 10
0
 20
0
 30
0
 70
128
 71
60
 72
66
 73
64
 74
58
 0
VERTEX
 8
GRIGLIA_2
 10
0
 20
0
 30
0
 70
128
 71
61
 72
187
 73
62
 74
62
 0
VERTEX
 8
GRIGLIA_2
 10
0
 20
0
 30
0
 70
128
 71
187
 72
55
 73
56
 74
56
 0
VERTEX
 8
GRIGLIA_2
 10
0
 20
0
 30
0
 70
128
 71
187
 72
56
 73
62
 74
62
 0
VERTEX
 8
GRIGLIA_2
 10
0
 20
0
 30
0
 70
128
 71
62
 72
56
 73
57
 74
63
 0
VERTEX
 8
GRIGLIA_2
 10
0
 20
0
 30
0
 70
128
 71
65
 72
188
 73
66
 74
66
 0
VERTEX
 8
GRIGLIA_2
 10
0
 20
0
 30
0
 70
128
 71
188
 72
71
 73
72
 74
72
 0
VERTEX
 8
GRIGLIA_2
 10
0
 20
0
 30
0
 70
128
 71
188
 72
72
 73
66
 74
66
 0
VERTEX
 8
GRIGLIA_2
 10
0
 20
0
 30
0
 70
128
 71
66
 72
72
 73
70
 74
64
 0
VERTEX
 8
GRIGLIA_2
 10
0
 20
0
 30
0
 70
128
 71
67
 72
189
 73
68
 74
68
 0
VERTEX
 8
GRIGLIA_2
 10
0
 20
0
 30
0
 70
128
 71
189
 72
61
 73
62
 74
62
 0
VERTEX
 8
GRIGLIA_2
 10
0
 20
0
 30
0
 70
128
 71
189
 72
62
 73
68
 74
68
 0
VERTEX
 8
GRIGLIA_2
 10
0
 20
0
 30
0
 70
128
 71
148
 72
147
 73
149
 74
150
 0
VERTEX
 8
GRIGLIA_2
 10
0
 20
0
 30
0
 70
128
 71
68
 72
62
 73
63
 74
69
 0
VERTEX
 8
GRIGLIA_2
 10
0
 20
0
 30
0
 70
128
 71
71
 72
190
 73
72
 74
72
 0
VERTEX
 8
GRIGLIA_2
 10
0
 20
0
 30
0
 70
128
 71
190
 72
77
 73
78
 74
78
 0
VERTEX
 8
GRIGLIA_2
 10
0
 20
0
 30
0
 70
128
 71
190
 72
78
 73
72
 74
72
 0
VERTEX
 8
GRIGLIA_2
 10
0
 20
0
 30
0
 70
128
 71
72
 72
78
 73
76
 74
70
 0
VERTEX
 8
GRIGLIA_2
 10
0
 20
0
 30
0
 70
128
 71
73
 72
191
 73
74
 74
74
 0
VERTEX
 8
GRIGLIA_2
 10
0
 20
0
 30
0
 70
128
 71
191
 72
67
 73
68
 74
68
 0
VERTEX
 8
GRIGLIA_2
 10
0
 20
0
 30
0
 70
128
 71
191
 72
68
 73
74
 74
74
 0
VERTEX
 8
GRIGLIA_2
 10
0
 20
0
 30
0
 70
128
 71
75
 72
69
 73
134
 74
135
 0
VERTEX
 8
GRIGLIA_2
 10
0
 20
0
 30
0
 70
128
 71
74
 72
68
 73
69
 74
75
 0
VERTEX
 8
GRIGLIA_2
 10
0
 20
0
 30
0
 70
128
 71
77
 72
192
 73
78
 74
78
 0
VERTEX
 8
GRIGLIA_2
 10
0
 20
0
 30
0
 70
128
 71
192
 72
81
 73
82
 74
82
 0
VERTEX
 8
GRIGLIA_2
 10
0
 20
0
 30
0
 70
128
 71
192
 72
82
 73
78
 74
78
 0
VERTEX
 8
GRIGLIA_2
 10
0
 20
0
 30
0
 70
128
 71
78
 72
82
 73
84
 74
76
 0
VERTEX
 8
GRIGLIA_2
 10
0
 20
0
 30
0
 70
128
 71
79
 72
193
 73
80
 74
80
 0
VERTEX
 8
GRIGLIA_2
 10
0
 20
0
 30
0
 70
128
 71
193
 72
73
 73
74
 74
74
 0
VERTEX
 8
GRIGLIA_2
 10
0
 20
0
 30
0
 70
128
 71
193
 72
74
 73
80
 74
80
 0
VERTEX
 8
GRIGLIA_2
 10
0
 20
0
 30
0
 70
128
 71
81
 72
194
 73
82
 74
82
 0
VERTEX
 8
GRIGLIA_2
 10
0
 20
0
 30
0
 70
128
 71
194
 72
90
 73
89
 74
89
 0
VERTEX
 8
GRIGLIA_2
 10
0
 20
0
 30
0
 70
128
 71
194
 72
89
 73
82
 74
82
 0
VERTEX
 8
GRIGLIA_2
 10
0
 20
0
 30
0
 70
128
 71
152
 72
151
 73
153
 74
154
 0
VERTEX
 8
GRIGLIA_2
 10
0
 20
0
 30
0
 70
128
 71
80
 72
74
 73
75
 74
83
 0
VERTEX
 8
GRIGLIA_2
 10
0
 20
0
 30
0
 70
128
 71
82
 72
89
 73
88
 74
84
 0
VERTEX
 8
GRIGLIA_2
 10
0
 20
0
 30
0
 70
128
 71
85
 72
195
 73
86
 74
86
 0
VERTEX
 8
GRIGLIA_2
 10
0
 20
0
 30
0
 70
128
 71
195
 72
79
 73
80
 74
80
 0
VERTEX
 8
GRIGLIA_2
 10
0
 20
0
 30
0
 70
128
 71
195
 72
80
 73
86
 74
86
 0
VERTEX
 8
GRIGLIA_2
 10
0
 20
0
 30
0
 70
128
 71
87
 72
83
 73
136
 74
137
 0
VERTEX
 8
GRIGLIA_2
 10
0
 20
0
 30
0
 70
128
 71
89
 72
95
 73
94
 74
88
 0
VERTEX
 8
GRIGLIA_2
 10
0
 20
0
 30
0
 70
128
 71
86
 72
80
 73
83
 74
87
 0
VERTEX
 8
GRIGLIA_2
 10
0
 20
0
 30
0
 70
128
 71
90
 72
196
 73
89
 74
89
 0
VERTEX
 8
GRIGLIA_2
 10
0
 20
0
 30
0
 70
128
 71
196
 72
96
 73
95
 74
95
 0
VERTEX
 8
GRIGLIA_2
 10
0
 20
0
 30
0
 70
128
 71
196
 72
95
 73
89
 74
89
 0
VERTEX
 8
GRIGLIA_2
 10
0
 20
0
 30
0
 70
128
 71
91
 72
197
 73
92
 74
92
 0
VERTEX
 8
GRIGLIA_2
 10
0
 20
0
 30
0
 70
128
 71
197
 72
85
 73
86
 74
86
 0
VERTEX
 8
GRIGLIA_2
 10
0
 20
0
 30
0
 70
128
 71
197
 72
86
 73
92
 74
92
 0
VERTEX
 8
GRIGLIA_2
 10
0
 20
0
 30
0
 70
128
 71
156
 72
155
 73
157
 74
158
 0
VERTEX
 8
GRIGLIA_2
 10
0
 20
0
 30
0
 70
128
 71
92
 72
86
 73
87
 74
93
 0
VERTEX
 8
GRIGLIA_2
 10
0
 20
0
 30
0
 70
128
 71
95
 72
101
 73
100
 74
94
 0
VERTEX
 8
GRIGLIA_2
 10
0
 20
0
 30
0
 70
128
 71
96
 72
198
 73
95
 74
95
 0
VERTEX
 8
GRIGLIA_2
 10
0
 20
0
 30
0
 70
128
 71
198
 72
102
 73
101
 74
101
 0
VERTEX
 8
GRIGLIA_2
 10
0
 20
0
 30
0
 70
128
 71
198
 72
101
 73
95
 74
95
 0
VERTEX
 8
GRIGLIA_2
 10
0
 20
0
 30
0
 70
128
 71
97
 72
199
 73
98
 74
98
 0
VERTEX
 8
GRIGLIA_2
 10
0
 20
0
 30
0
 70
128
 71
199
 72
91
 73
92
 74
92
 0
VERTEX
 8
GRIGLIA_2
 10
0
 20
0
 30
0
 70
128
 71
199
 72
92
 73
98
 74
98
 0
VERTEX
 8
GRIGLIA_2
 10
0
 20
0
 30
0
 70
128
 71
98
 72
92
 73
93
 74
99
 0
VERTEX
 8
GRIGLIA_2
 10
0
 20
0
 30
0
 70
128
 71
101
 72
107
 73
106
 74
100
 0
VERTEX
 8
GRIGLIA_2
 10
0
 20
0
 30
0
 70
128
 71
102
 72
200
 73
101
 74
101
 0
VERTEX
 8
GRIGLIA_2
 10
0
 20
0
 30
0
 70
128
 71
200
 72
108
 73
107
 74
107
 0
VERTEX
 8
GRIGLIA_2
 10
0
 20
0
 30
0
 70
128
 71
200
 72
107
 73
101
 74
101
 0
VERTEX
 8
GRIGLIA_2
 10
0
 20
0
 30
0
 70
128
 71
100
 72
160
 73
159
 74
99
 0
VERTEX
 8
GRIGLIA_2
 10
0
 20
0
 30
0
 70
128
 71
99
 72
159
 73
161
 74
105
 0
VERTEX
 8
GRIGLIA_2
 10
0
 20
0
 30
0
 70
128
 71
103
 72
201
 73
104
 74
104
 0
VERTEX
 8
GRIGLIA_2
 10
0
 20
0
 30
0
 70
128
 71
201
 72
97
 73
98
 74
98
 0
VERTEX
 8
GRIGLIA_2
 10
0
 20
0
 30
0
 70
128
 71
201
 72
98
 73
104
 74
104
 0
VERTEX
 8
GRIGLIA_2
 10
0
 20
0
 30
0
 70
128
 71
161
 72
159
 73
160
 74
162
 0
VERTEX
 8
GRIGLIA_2
 10
0
 20
0
 30
0
 70
128
 71
104
 72
98
 73
99
 74
105
 0
VERTEX
 8
GRIGLIA_2
 10
0
 20
0
 30
0
 70
128
 71
107
 72
113
 73
112
 74
106
 0
VERTEX
 8
GRIGLIA_2
 10
0
 20
0
 30
0
 70
128
 71
108
 72
202
 73
107
 74
107
 0
VERTEX
 8
GRIGLIA_2
 10
0
 20
0
 30
0
 70
128
 71
202
 72
114
 73
113
 74
113
 0
VERTEX
 8
GRIGLIA_2
 10
0
 20
0
 30
0
 70
128
 71
202
 72
113
 73
107
 74
107
 0
VERTEX
 8
GRIGLIA_2
 10
0
 20
0
 30
0
 70
128
 71
117
 72
165
 73
166
 74
118
 0
VERTEX
 8
GRIGLIA_2
 10
0
 20
0
 30
0
 70
128
 71
118
 72
166
 73
164
 74
112
 0
VERTEX
 8
GRIGLIA_2
 10
0
 20
0
 30
0
 70
128
 71
109
 72
203
 73
110
 74
110
 0
VERTEX
 8
GRIGLIA_2
 10
0
 20
0
 30
0
 70
128
 71
203
 72
103
 73
104
 74
104
 0
VERTEX
 8
GRIGLIA_2
 10
0
 20
0
 30
0
 70
128
 71
203
 72
104
 73
110
 74
110
 0
VERTEX
 8
GRIGLIA_2
 10
0
 20
0
 30
0
 70
128
 71
111
 72
105
 73
106
 74
112
 0
VERTEX
 8
GRIGLIA_2
 10
0
 20
0
 30
0
 70
128
 71
110
 72
104
 73
105
 74
111
 0
VERTEX
 8
GRIGLIA_2
 10
0
 20
0
 30
0
 70
128
 71
113
 72
119
 73
118
 74
112
 0
VERTEX
 8
GRIGLIA_2
 10
0
 20
0
 30
0
 70
128
 71
114
 72
204
 73
113
 74
113
 0
VERTEX
 8
GRIGLIA_2
 10
0
 20
0
 30
0
 70
128
 71
204
 72
120
 73
119
 74
119
 0
VERTEX
 8
GRIGLIA_2
 10
0
 20
0
 30
0
 70
128
 71
204
 72
119
 73
113
 74
113
 0
VERTEX
 8
GRIGLIA_2
 10
0
 20
0
 30
0
 70
128
 71
112
 72
164
 73
163
 74
111
 0
VERTEX
 8
GRIGLIA_2
 10
0
 20
0
 30
0
 70
128
 71
111
 72
163
 73
165
 74
117
 0
VERTEX
 8
GRIGLIA_2
 10
0
 20
0
 30
0
 70
128
 71
115
 72
205
 73
116
 74
116
 0
VERTEX
 8
GRIGLIA_2
 10
0
 20
0
 30
0
 70
128
 71
205
 72
109
 73
110
 74
110
 0
VERTEX
 8
GRIGLIA_2
 10
0
 20
0
 30
0
 70
128
 71
205
 72
110
 73
116
 74
116
 0
VERTEX
 8
GRIGLIA_2
 10
0
 20
0
 30
0
 70
128
 71
165
 72
163
 73
164
 74
166
 0
VERTEX
 8
GRIGLIA_2
 10
0
 20
0
 30
0
 70
128
 71
116
 72
110
 73
111
 74
117
 0
VERTEX
 8
GRIGLIA_2
 10
0
 20
0
 30
0
 70
128
 71
119
 72
125
 73
124
 74
118
 0
VERTEX
 8
GRIGLIA_2
 10
0
 20
0
 30
0
 70
128
 71
120
 72
206
 73
119
 74
119
 0
VERTEX
 8
GRIGLIA_2
 10
0
 20
0
 30
0
 70
128
 71
206
 72
126
 73
125
 74
125
 0
VERTEX
 8
GRIGLIA_2
 10
0
 20
0
 30
0
 70
128
 71
206
 72
125
 73
119
 74
119
 0
VERTEX
 8
GRIGLIA_2
 10
0
 20
0
 30
0
 70
128
 71
129
 72
28
 73
29
 74
130
 0
VERTEX
 8
GRIGLIA_2
 10
0
 20
0
 30
0
 70
128
 71
130
 72
29
 73
23
 74
124
 0
VERTEX
 8
GRIGLIA_2
 10
0
 20
0
 30
0
 70
128
 71
121
 72
207
 73
122
 74
122
 0
VERTEX
 8
GRIGLIA_2
 10
0
 20
0
 30
0
 70
128
 71
207
 72
115
 73
116
 74
116
 0
VERTEX
 8
GRIGLIA_2
 10
0
 20
0
 30
0
 70
128
 71
207
 72
116
 73
122
 74
122
 0
VERTEX
 8
GRIGLIA_2
 10
0
 20
0
 30
0
 70
128
 71
123
 72
117
 73
118
 74
124
 0
VERTEX
 8
GRIGLIA_2
 10
0
 20
0
 30
0
 70
128
 71
122
 72
116
 73
117
 74
123
 0
VERTEX
 8
GRIGLIA_2
 10
0
 20
0
 30
0
 70
128
 71
125
 72
131
 73
130
 74
124
 0
VERTEX
 8
GRIGLIA_2
 10
0
 20
0
 30
0
 70
128
 71
126
 72
208
 73
125
 74
125
 0
VERTEX
 8
GRIGLIA_2
 10
0
 20
0
 30
0
 70
128
 71
208
 72
132
 73
131
 74
131
 0
VERTEX
 8
GRIGLIA_2
 10
0
 20
0
 30
0
 70
128
 71
208
 72
131
 73
125
 74
125
 0
VERTEX
 8
GRIGLIA_2
 10
0
 20
0
 30
0
 70
128
 71
124
 72
23
 73
21
 74
123
 0
VERTEX
 8
GRIGLIA_2
 10
0
 20
0
 30
0
 70
128
 71
123
 72
21
 73
28
 74
129
 0
VERTEX
 8
GRIGLIA_2
 10
0
 20
0
 30
0
 70
128
 71
127
 72
209
 73
128
 74
128
 0
VERTEX
 8
GRIGLIA_2
 10
0
 20
0
 30
0
 70
128
 71
209
 72
121
 73
122
 74
122
 0
VERTEX
 8
GRIGLIA_2
 10
0
 20
0
 30
0
 70
128
 71
209
 72
122
 73
128
 74
128
 0
VERTEX
 8
GRIGLIA_2
 10
0
 20
0
 30
0
 70
128
 71
28
 72
21
 73
23
 74
29
 0
VERTEX
 8
GRIGLIA_2
 10
0
 20
0
 30
0
 70
128
 71
128
 72
122
 73
123
 74
129
 0
VERTEX
 8
GRIGLIA_2
 10
0
 20
0
 30
0
 70
128
 71
131
 72
228
 73
231
 74
130
 0
VERTEX
 8
GRIGLIA_2
 10
0
 20
0
 30
0
 70
128
 71
267
 72
270
 73
271
 74
269
 0
VERTEX
 8
GRIGLIA_2
 10
0
 20
0
 30
0
 70
128
 71
133
 72
64
 73
70
 74
134
 0
VERTEX
 8
GRIGLIA_2
 10
0
 20
0
 30
0
 70
128
 71
134
 72
212
 73
135
 74
135
 0
VERTEX
 8
GRIGLIA_2
 10
0
 20
0
 30
0
 70
128
 71
70
 72
76
 73
213
 74
213
 0
VERTEX
 8
GRIGLIA_2
 10
0
 20
0
 30
0
 70
128
 71
212
 72
134
 73
70
 74
70
 0
VERTEX
 8
GRIGLIA_2
 10
0
 20
0
 30
0
 70
128
 71
137
 72
88
 73
94
 74
138
 0
VERTEX
 8
GRIGLIA_2
 10
0
 20
0
 30
0
 70
128
 71
45
 72
141
 73
142
 74
46
 0
VERTEX
 8
GRIGLIA_2
 10
0
 20
0
 30
0
 70
128
 71
46
 72
142
 73
139
 74
41
 0
VERTEX
 8
GRIGLIA_2
 10
0
 20
0
 30
0
 70
128
 71
41
 72
139
 73
140
 74
42
 0
VERTEX
 8
GRIGLIA_2
 10
0
 20
0
 30
0
 70
128
 71
42
 72
140
 73
141
 74
45
 0
VERTEX
 8
GRIGLIA_2
 10
0
 20
0
 30
0
 70
128
 71
57
 72
145
 73
146
 74
58
 0
VERTEX
 8
GRIGLIA_2
 10
0
 20
0
 30
0
 70
128
 71
58
 72
146
 73
144
 74
52
 0
VERTEX
 8
GRIGLIA_2
 10
0
 20
0
 30
0
 70
128
 71
52
 72
144
 73
143
 74
51
 0
VERTEX
 8
GRIGLIA_2
 10
0
 20
0
 30
0
 70
128
 71
51
 72
143
 73
145
 74
57
 0
VERTEX
 8
GRIGLIA_2
 10
0
 20
0
 30
0
 70
128
 71
69
 72
148
 73
150
 74
134
 0
VERTEX
 8
GRIGLIA_2
 10
0
 20
0
 30
0
 70
128
 71
134
 72
150
 73
149
 74
133
 0
VERTEX
 8
GRIGLIA_2
 10
0
 20
0
 30
0
 70
128
 71
133
 72
149
 73
147
 74
63
 0
VERTEX
 8
GRIGLIA_2
 10
0
 20
0
 30
0
 70
128
 71
63
 72
147
 73
148
 74
69
 0
VERTEX
 8
GRIGLIA_2
 10
0
 20
0
 30
0
 70
128
 71
83
 72
152
 73
154
 74
136
 0
VERTEX
 8
GRIGLIA_2
 10
0
 20
0
 30
0
 70
128
 71
136
 72
154
 73
153
 74
135
 0
VERTEX
 8
GRIGLIA_2
 10
0
 20
0
 30
0
 70
128
 71
135
 72
153
 73
151
 74
75
 0
VERTEX
 8
GRIGLIA_2
 10
0
 20
0
 30
0
 70
128
 71
75
 72
151
 73
152
 74
83
 0
VERTEX
 8
GRIGLIA_2
 10
0
 20
0
 30
0
 70
128
 71
93
 72
156
 73
158
 74
138
 0
VERTEX
 8
GRIGLIA_2
 10
0
 20
0
 30
0
 70
128
 71
138
 72
158
 73
157
 74
137
 0
VERTEX
 8
GRIGLIA_2
 10
0
 20
0
 30
0
 70
128
 71
137
 72
157
 73
155
 74
87
 0
VERTEX
 8
GRIGLIA_2
 10
0
 20
0
 30
0
 70
128
 71
87
 72
155
 73
156
 74
93
 0
VERTEX
 8
GRIGLIA_2
 10
0
 20
0
 30
0
 70
128
 71
105
 72
161
 73
162
 74
106
 0
VERTEX
 8
GRIGLIA_2
 10
0
 20
0
 30
0
 70
128
 71
106
 72
162
 73
160
 74
100
 0
VERTEX
 8
GRIGLIA_2
 10
0
 20
0
 30
0
 70
128
 71
265
 72
264
 73
263
 74
266
 0
VERTEX
 8
GRIGLIA_2
 10
0
 20
0
 30
0
 70
128
 71
235
 72
232
 73
234
 74
237
 0
VERTEX
 8
GRIGLIA_2
 10
0
 20
0
 30
0
 70
128
 71
287
 72
235
 73
237
 74
285
 0
VERTEX
 8
GRIGLIA_2
 10
0
 20
0
 30
0
 70
128
 71
228
 72
242
 73
238
 74
231
 0
VERTEX
 8
GRIGLIA_2
 10
0
 20
0
 30
0
 70
128
 71
279
 72
282
 73
283
 74
280
 0
VERTEX
 8
GRIGLIA_2
 10
0
 20
0
 30
0
 70
128
 71
288
 72
5
 73
6
 74
272
 0
VERTEX
 8
GRIGLIA_2
 10
0
 20
0
 30
0
 70
128
 71
269
 72
271
 73
290
 74
286
 0
VERTEX
 8
GRIGLIA_2
 10
0
 20
0
 30
0
 70
128
 71
272
 72
268
 73
287
 74
288
 0
VERTEX
 8
GRIGLIA_2
 10
0
 20
0
 30
0
 70
128
 71
17
 72
270
 73
267
 74
267
 0
VERTEX
 8
GRIGLIA_2
 10
0
 20
0
 30
0
 70
128
 71
274
 72
19
 73
243
 74
243
 0
VERTEX
 8
GRIGLIA_2
 10
0
 20
0
 30
0
 70
128
 71
277
 72
2
 73
176
 74
176
 0
VERTEX
 8
GRIGLIA_2
 10
0
 20
0
 30
0
 70
128
 71
243
 72
19
 73
177
 74
177
 0
VERTEX
 8
GRIGLIA_2
 10
0
 20
0
 30
0
 70
128
 71
270
 72
4
 73
3
 74
271
 0
VERTEX
 8
GRIGLIA_2
 10
0
 20
0
 30
0
 70
128
 71
177
 72
25
 73
251
 74
251
 0
VERTEX
 8
GRIGLIA_2
 10
0
 20
0
 30
0
 70
128
 71
177
 72
172
 73
11
 74
11
 0
VERTEX
 8
GRIGLIA_2
 10
0
 20
0
 30
0
 70
128
 71
177
 72
11
 73
173
 74
173
 0
VERTEX
 8
GRIGLIA_2
 10
0
 20
0
 30
0
 70
128
 71
177
 72
173
 73
13
 74
13
 0
VERTEX
 8
GRIGLIA_2
 10
0
 20
0
 30
0
 70
128
 71
177
 72
13
 73
179
 74
179
 0
VERTEX
 8
GRIGLIA_2
 10
0
 20
0
 30
0
 70
128
 71
177
 72
179
 73
37
 74
37
 0
VERTEX
 8
GRIGLIA_2
 10
0
 20
0
 30
0
 70
128
 71
282
 72
247
 73
248
 74
283
 0
VERTEX
 8
GRIGLIA_2
 10
0
 20
0
 30
0
 70
128
 71
19
 72
274
 73
277
 74
277
 0
VERTEX
 8
GRIGLIA_2
 10
0
 20
0
 30
0
 70
128
 71
99
 72
93
 73
138
 74
138
 0
VERTEX
 8
GRIGLIA_2
 10
0
 20
0
 30
0
 70
128
 71
138
 72
94
 73
100
 74
100
 0
VERTEX
 8
GRIGLIA_2
 10
0
 20
0
 30
0
 70
128
 71
133
 72
63
 73
57
 74
57
 0
VERTEX
 8
GRIGLIA_2
 10
0
 20
0
 30
0
 70
128
 71
58
 72
64
 73
133
 74
133
 0
VERTEX
 8
GRIGLIA_2
 10
0
 20
0
 30
0
 70
128
 71
99
 72
138
 73
100
 74
100
 0
VERTEX
 8
GRIGLIA_2
 10
0
 20
0
 30
0
 70
128
 71
133
 72
57
 73
58
 74
58
 0
VERTEX
 8
GRIGLIA_2
 10
0
 20
0
 30
0
 70
128
 71
276
 72
275
 73
284
 74
281
 0
VERTEX
 8
GRIGLIA_2
 10
0
 20
0
 30
0
 70
128
 71
177
 72
37
 73
181
 74
181
 0
VERTEX
 8
GRIGLIA_2
 10
0
 20
0
 30
0
 70
128
 71
276
 72
1
 73
2
 74
277
 0
VERTEX
 8
GRIGLIA_2
 10
0
 20
0
 30
0
 70
128
 71
177
 72
181
 73
43
 74
43
 0
VERTEX
 8
GRIGLIA_2
 10
0
 20
0
 30
0
 70
128
 71
177
 72
43
 73
183
 74
183
 0
VERTEX
 8
GRIGLIA_2
 10
0
 20
0
 30
0
 70
128
 71
177
 72
183
 73
49
 74
49
 0
VERTEX
 8
GRIGLIA_2
 10
0
 20
0
 30
0
 70
128
 71
177
 72
49
 73
185
 74
185
 0
VERTEX
 8
GRIGLIA_2
 10
0
 20
0
 30
0
 70
128
 71
177
 72
185
 73
55
 74
55
 0
VERTEX
 8
GRIGLIA_2
 10
0
 20
0
 30
0
 70
128
 71
177
 72
55
 73
187
 74
187
 0
VERTEX
 8
GRIGLIA_2
 10
0
 20
0
 30
0
 70
128
 71
177
 72
187
 73
61
 74
61
 0
VERTEX
 8
GRIGLIA_2
 10
0
 20
0
 30
0
 70
128
 71
177
 72
61
 73
189
 74
189
 0
VERTEX
 8
GRIGLIA_2
 10
0
 20
0
 30
0
 70
128
 71
213
 72
84
 73
214
 74
214
 0
VERTEX
 8
GRIGLIA_2
 10
0
 20
0
 30
0
 70
128
 71
136
 72
135
 73
212
 74
212
 0
VERTEX
 8
GRIGLIA_2
 10
0
 20
0
 30
0
 70
128
 71
88
 72
137
 73
211
 74
211
 0
VERTEX
 8
GRIGLIA_2
 10
0
 20
0
 30
0
 70
128
 71
137
 72
136
 73
211
 74
211
 0
VERTEX
 8
GRIGLIA_2
 10
0
 20
0
 30
0
 70
128
 71
213
 72
76
 73
84
 74
84
 0
VERTEX
 8
GRIGLIA_2
 10
0
 20
0
 30
0
 70
128
 71
84
 72
88
 73
214
 74
214
 0
VERTEX
 8
GRIGLIA_2
 10
0
 20
0
 30
0
 70
128
 71
224
 72
225
 73
226
 74
223
 0
VERTEX
 8
GRIGLIA_2
 10
0
 20
0
 30
0
 70
128
 71
212
 72
216
 73
215
 74
211
 0
VERTEX
 8
GRIGLIA_2
 10
0
 20
0
 30
0
 70
128
 71
211
 72
215
 73
218
 74
214
 0
VERTEX
 8
GRIGLIA_2
 10
0
 20
0
 30
0
 70
128
 71
214
 72
218
 73
217
 74
213
 0
VERTEX
 8
GRIGLIA_2
 10
0
 20
0
 30
0
 70
128
 71
213
 72
217
 73
216
 74
212
 0
VERTEX
 8
GRIGLIA_2
 10
0
 20
0
 30
0
 70
128
 71
216
 72
220
 73
219
 74
215
 0
VERTEX
 8
GRIGLIA_2
 10
0
 20
0
 30
0
 70
128
 71
215
 72
219
 73
222
 74
218
 0
VERTEX
 8
GRIGLIA_2
 10
0
 20
0
 30
0
 70
128
 71
218
 72
222
 73
221
 74
217
 0
VERTEX
 8
GRIGLIA_2
 10
0
 20
0
 30
0
 70
128
 71
217
 72
221
 73
220
 74
216
 0
VERTEX
 8
GRIGLIA_2
 10
0
 20
0
 30
0
 70
128
 71
220
 72
224
 73
223
 74
219
 0
VERTEX
 8
GRIGLIA_2
 10
0
 20
0
 30
0
 70
128
 71
219
 72
223
 73
226
 74
222
 0
VERTEX
 8
GRIGLIA_2
 10
0
 20
0
 30
0
 70
128
 71
222
 72
226
 73
225
 74
221
 0
VERTEX
 8
GRIGLIA_2
 10
0
 20
0
 30
0
 70
128
 71
221
 72
225
 73
224
 74
220
 0
VERTEX
 8
GRIGLIA_2
 10
0
 20
0
 30
0
 70
128
 71
212
 72
70
 73
213
 74
213
 0
VERTEX
 8
GRIGLIA_2
 10
0
 20
0
 30
0
 70
128
 71
136
 72
212
 73
211
 74
211
 0
VERTEX
 8
GRIGLIA_2
 10
0
 20
0
 30
0
 70
128
 71
88
 72
211
 73
214
 74
214
 0
VERTEX
 8
GRIGLIA_2
 10
0
 20
0
 30
0
 70
128
 71
177
 72
188
 73
65
 74
65
 0
VERTEX
 8
GRIGLIA_2
 10
0
 20
0
 30
0
 70
128
 71
177
 72
65
 73
186
 74
186
 0
VERTEX
 8
GRIGLIA_2
 10
0
 20
0
 30
0
 70
128
 71
177
 72
186
 73
59
 74
59
 0
VERTEX
 8
GRIGLIA_2
 10
0
 20
0
 30
0
 70
128
 71
177
 72
59
 73
184
 74
184
 0
VERTEX
 8
GRIGLIA_2
 10
0
 20
0
 30
0
 70
128
 71
177
 72
184
 73
53
 74
53
 0
VERTEX
 8
GRIGLIA_2
 10
0
 20
0
 30
0
 70
128
 71
247
 72
256
 73
257
 74
248
 0
VERTEX
 8
GRIGLIA_2
 10
0
 20
0
 30
0
 70
128
 71
280
 72
283
 73
273
 74
278
 0
VERTEX
 8
GRIGLIA_2
 10
0
 20
0
 30
0
 70
128
 71
246
 72
255
 73
258
 74
250
 0
VERTEX
 8
GRIGLIA_2
 10
0
 20
0
 30
0
 70
128
 71
260
 72
262
 73
261
 74
259
 0
VERTEX
 8
GRIGLIA_2
 10
0
 20
0
 30
0
 70
128
 71
232
 72
128
 73
129
 74
234
 0
VERTEX
 8
GRIGLIA_2
 10
0
 20
0
 30
0
 70
128
 71
177
 72
53
 73
182
 74
182
 0
VERTEX
 8
GRIGLIA_2
 10
0
 20
0
 30
0
 70
128
 71
284
 72
282
 73
279
 74
281
 0
VERTEX
 8
GRIGLIA_2
 10
0
 20
0
 30
0
 70
128
 71
242
 72
269
 73
286
 74
238
 0
VERTEX
 8
GRIGLIA_2
 10
0
 20
0
 30
0
 70
128
 71
177
 72
182
 73
47
 74
47
 0
VERTEX
 8
GRIGLIA_2
 10
0
 20
0
 30
0
 70
128
 71
234
 72
129
 73
130
 74
231
 0
VERTEX
 8
GRIGLIA_2
 10
0
 20
0
 30
0
 70
128
 71
177
 72
47
 73
180
 74
180
 0
VERTEX
 8
GRIGLIA_2
 10
0
 20
0
 30
0
 70
128
 71
256
 72
27
 73
12
 74
257
 0
VERTEX
 8
GRIGLIA_2
 10
0
 20
0
 30
0
 70
128
 71
255
 72
10
 73
22
 74
258
 0
VERTEX
 8
GRIGLIA_2
 10
0
 20
0
 30
0
 70
128
 71
258
 72
22
 73
27
 74
256
 0
VERTEX
 8
GRIGLIA_2
 10
0
 20
0
 30
0
 70
128
 71
250
 72
260
 73
259
 74
247
 0
VERTEX
 8
GRIGLIA_2
 10
0
 20
0
 30
0
 70
128
 71
247
 72
259
 73
261
 74
256
 0
VERTEX
 8
GRIGLIA_2
 10
0
 20
0
 30
0
 70
128
 71
256
 72
261
 73
262
 74
258
 0
VERTEX
 8
GRIGLIA_2
 10
0
 20
0
 30
0
 70
128
 71
258
 72
262
 73
260
 74
250
 0
VERTEX
 8
GRIGLIA_2
 10
0
 20
0
 30
0
 70
128
 71
237
 72
265
 73
266
 74
238
 0
VERTEX
 8
GRIGLIA_2
 10
0
 20
0
 30
0
 70
128
 71
238
 72
266
 73
263
 74
231
 0
VERTEX
 8
GRIGLIA_2
 10
0
 20
0
 30
0
 70
128
 71
231
 72
263
 73
264
 74
234
 0
VERTEX
 8
GRIGLIA_2
 10
0
 20
0
 30
0
 70
128
 71
234
 72
264
 73
265
 74
237
 0
VERTEX
 8
GRIGLIA_2
 10
0
 20
0
 30
0
 70
128
 71
177
 72
180
 73
39
 74
39
 0
VERTEX
 8
GRIGLIA_2
 10
0
 20
0
 30
0
 70
128
 71
177
 72
39
 73
174
 74
174
 0
VERTEX
 8
GRIGLIA_2
 10
0
 20
0
 30
0
 70
128
 71
177
 72
174
 73
15
 74
15
 0
VERTEX
 8
GRIGLIA_2
 10
0
 20
0
 30
0
 70
128
 71
177
 72
15
 73
171
 74
171
 0
VERTEX
 8
GRIGLIA_2
 10
0
 20
0
 30
0
 70
128
 71
177
 72
171
 73
9
 74
9
 0
VERTEX
 8
GRIGLIA_2
 10
0
 20
0
 30
0
 70
128
 71
177
 72
9
 73
167
 74
167
 0
VERTEX
 8
GRIGLIA_2
 10
0
 20
0
 30
0
 70
128
 71
177
 72
167
 73
252
 74
252
 0
VERTEX
 8
GRIGLIA_2
 10
0
 20
0
 30
0
 70
128
 71
25
 72
170
 73
278
 74
278
 0
VERTEX
 8
GRIGLIA_2
 10
0
 20
0
 30
0
 70
128
 71
25
 72
273
 73
245
 74
245
 0
VERTEX
 8
GRIGLIA_2
 10
0
 20
0
 30
0
 70
128
 71
25
 72
245
 73
251
 74
251
 0
VERTEX
 8
GRIGLIA_2
 10
0
 20
0
 30
0
 70
128
 71
170
 72
8
 73
278
 74
278
 0
VERTEX
 8
GRIGLIA_2
 10
0
 20
0
 30
0
 70
128
 71
189
 72
67
 73
71
 74
71
 0
VERTEX
 8
GRIGLIA_2
 10
0
 20
0
 30
0
 70
128
 71
71
 72
67
 73
191
 74
191
 0
VERTEX
 8
GRIGLIA_2
 10
0
 20
0
 30
0
 70
128
 71
191
 72
73
 73
77
 74
77
 0
VERTEX
 8
GRIGLIA_2
 10
0
 20
0
 30
0
 70
128
 71
73
 72
193
 73
192
 74
192
 0
VERTEX
 8
GRIGLIA_2
 10
0
 20
0
 30
0
 70
128
 71
192
 72
193
 73
79
 74
79
 0
VERTEX
 8
GRIGLIA_2
 10
0
 20
0
 30
0
 70
128
 71
79
 72
195
 73
194
 74
194
 0
VERTEX
 8
GRIGLIA_2
 10
0
 20
0
 30
0
 70
128
 71
194
 72
195
 73
85
 74
85
 0
VERTEX
 8
GRIGLIA_2
 10
0
 20
0
 30
0
 70
128
 71
90
 72
85
 73
197
 74
197
 0
VERTEX
 8
GRIGLIA_2
 10
0
 20
0
 30
0
 70
128
 71
197
 72
91
 73
175
 74
175
 0
VERTEX
 8
GRIGLIA_2
 10
0
 20
0
 30
0
 70
128
 71
91
 72
199
 73
175
 74
175
 0
VERTEX
 8
GRIGLIA_2
 10
0
 20
0
 30
0
 70
128
 71
199
 72
97
 73
175
 74
175
 0
VERTEX
 8
GRIGLIA_2
 10
0
 20
0
 30
0
 70
128
 71
97
 72
201
 73
175
 74
175
 0
VERTEX
 8
GRIGLIA_2
 10
0
 20
0
 30
0
 70
128
 71
201
 72
103
 73
175
 74
175
 0
VERTEX
 8
GRIGLIA_2
 10
0
 20
0
 30
0
 70
128
 71
103
 72
203
 73
175
 74
175
 0
VERTEX
 8
GRIGLIA_2
 10
0
 20
0
 30
0
 70
128
 71
203
 72
109
 73
175
 74
175
 0
VERTEX
 8
GRIGLIA_2
 10
0
 20
0
 30
0
 70
128
 71
109
 72
205
 73
175
 74
175
 0
VERTEX
 8
GRIGLIA_2
 10
0
 20
0
 30
0
 70
128
 71
205
 72
115
 73
175
 74
175
 0
VERTEX
 8
GRIGLIA_2
 10
0
 20
0
 30
0
 70
128
 71
115
 72
207
 73
175
 74
175
 0
VERTEX
 8
GRIGLIA_2
 10
0
 20
0
 30
0
 70
128
 71
284
 72
250
 73
247
 74
282
 0
VERTEX
 8
GRIGLIA_2
 10
0
 20
0
 30
0
 70
128
 71
275
 72
246
 73
250
 74
284
 0
VERTEX
 8
GRIGLIA_2
 10
0
 20
0
 30
0
 70
128
 71
288
 72
287
 73
285
 74
289
 0
VERTEX
 8
GRIGLIA_2
 10
0
 20
0
 30
0
 70
128
 71
271
 72
3
 73
18
 74
290
 0
VERTEX
 8
GRIGLIA_2
 10
0
 20
0
 30
0
 70
128
 71
175
 72
240
 73
233
 74
233
 0
VERTEX
 8
GRIGLIA_2
 10
0
 20
0
 30
0
 70
128
 71
30
 72
272
 73
178
 74
178
 0
VERTEX
 8
GRIGLIA_2
 10
0
 20
0
 30
0
 70
128
 71
175
 72
229
 73
30
 74
30
 0
VERTEX
 8
GRIGLIA_2
 10
0
 20
0
 30
0
 70
128
 71
197
 72
175
 73
196
 74
196
 0
VERTEX
 8
GRIGLIA_2
 10
0
 20
0
 30
0
 70
128
 71
90
 72
197
 73
196
 74
196
 0
VERTEX
 8
GRIGLIA_2
 10
0
 20
0
 30
0
 70
128
 71
194
 72
85
 73
90
 74
90
 0
VERTEX
 8
GRIGLIA_2
 10
0
 20
0
 30
0
 70
128
 71
79
 72
194
 73
81
 74
81
 0
VERTEX
 8
GRIGLIA_2
 10
0
 20
0
 30
0
 70
128
 71
192
 72
79
 73
81
 74
81
 0
VERTEX
 8
GRIGLIA_2
 10
0
 20
0
 30
0
 70
128
 71
207
 72
121
 73
175
 74
175
 0
VERTEX
 8
GRIGLIA_2
 10
0
 20
0
 30
0
 70
128
 71
121
 72
209
 73
175
 74
175
 0
VERTEX
 8
GRIGLIA_2
 10
0
 20
0
 30
0
 70
128
 71
209
 72
127
 73
175
 74
175
 0
VERTEX
 8
GRIGLIA_2
 10
0
 20
0
 30
0
 70
128
 71
127
 72
169
 73
175
 74
175
 0
VERTEX
 8
GRIGLIA_2
 10
0
 20
0
 30
0
 70
128
 71
175
 72
169
 73
229
 74
229
 0
VERTEX
 8
GRIGLIA_2
 10
0
 20
0
 30
0
 70
128
 71
229
 72
239
 73
30
 74
30
 0
VERTEX
 8
GRIGLIA_2
 10
0
 20
0
 30
0
 70
128
 71
239
 72
268
 73
30
 74
30
 0
VERTEX
 8
GRIGLIA_2
 10
0
 20
0
 30
0
 70
128
 71
30
 72
268
 73
272
 74
272
 0
VERTEX
 8
GRIGLIA_2
 10
0
 20
0
 30
0
 70
128
 71
272
 72
6
 73
178
 74
178
 0
VERTEX
 8
GRIGLIA_2
 10
0
 20
0
 30
0
 70
128
 71
175
 72
17
 73
240
 74
240
 0
VERTEX
 8
GRIGLIA_2
 10
0
 20
0
 30
0
 70
128
 71
175
 72
233
 73
210
 74
210
 0
VERTEX
 8
GRIGLIA_2
 10
0
 20
0
 30
0
 70
128
 71
175
 72
210
 73
132
 74
132
 0
VERTEX
 8
GRIGLIA_2
 10
0
 20
0
 30
0
 70
128
 71
175
 72
132
 73
208
 74
208
 0
VERTEX
 8
GRIGLIA_2
 10
0
 20
0
 30
0
 70
128
 71
175
 72
208
 73
126
 74
126
 0
VERTEX
 8
GRIGLIA_2
 10
0
 20
0
 30
0
 70
128
 71
175
 72
126
 73
206
 74
206
 0
VERTEX
 8
GRIGLIA_2
 10
0
 20
0
 30
0
 70
128
 71
175
 72
206
 73
120
 74
120
 0
VERTEX
 8
GRIGLIA_2
 10
0
 20
0
 30
0
 70
128
 71
175
 72
120
 73
204
 74
204
 0
VERTEX
 8
GRIGLIA_2
 10
0
 20
0
 30
0
 70
128
 71
175
 72
204
 73
114
 74
114
 0
VERTEX
 8
GRIGLIA_2
 10
0
 20
0
 30
0
 70
128
 71
175
 72
114
 73
202
 74
202
 0
VERTEX
 8
GRIGLIA_2
 10
0
 20
0
 30
0
 70
128
 71
175
 72
202
 73
108
 74
108
 0
VERTEX
 8
GRIGLIA_2
 10
0
 20
0
 30
0
 70
128
 71
175
 72
108
 73
200
 74
200
 0
VERTEX
 8
GRIGLIA_2
 10
0
 20
0
 30
0
 70
128
 71
175
 72
200
 73
102
 74
102
 0
VERTEX
 8
GRIGLIA_2
 10
0
 20
0
 30
0
 70
128
 71
175
 72
102
 73
198
 74
198
 0
VERTEX
 8
GRIGLIA_2
 10
0
 20
0
 30
0
 70
128
 71
175
 72
198
 73
96
 74
96
 0
VERTEX
 8
GRIGLIA_2
 10
0
 20
0
 30
0
 70
128
 71
175
 72
96
 73
196
 74
196
 0
VERTEX
 8
GRIGLIA_2
 10
0
 20
0
 30
0
 70
128
 71
17
 72
168
 73
270
 74
270
 0
VERTEX
 8
GRIGLIA_2
 10
0
 20
0
 30
0
 70
128
 71
17
 72
267
 73
240
 74
240
 0
VERTEX
 8
GRIGLIA_2
 10
0
 20
0
 30
0
 70
128
 71
168
 72
4
 73
270
 74
270
 0
VERTEX
 8
GRIGLIA_2
 10
0
 20
0
 30
0
 70
128
 71
243
 72
177
 73
252
 74
252
 0
VERTEX
 8
GRIGLIA_2
 10
0
 20
0
 30
0
 70
128
 71
177
 72
251
 73
172
 74
172
 0
VERTEX
 8
GRIGLIA_2
 10
0
 20
0
 30
0
 70
128
 71
19
 72
277
 73
176
 74
176
 0
VERTEX
 8
GRIGLIA_2
 10
0
 20
0
 30
0
 70
128
 71
177
 72
189
 73
188
 74
188
 0
VERTEX
 8
GRIGLIA_2
 10
0
 20
0
 30
0
 70
128
 71
25
 72
278
 73
273
 74
273
 0
VERTEX
 8
GRIGLIA_2
 10
0
 20
0
 30
0
 70
128
 71
189
 72
71
 73
188
 74
188
 0
VERTEX
 8
GRIGLIA_2
 10
0
 20
0
 30
0
 70
128
 71
71
 72
191
 73
190
 74
190
 0
VERTEX
 8
GRIGLIA_2
 10
0
 20
0
 30
0
 70
128
 71
191
 72
77
 73
190
 74
190
 0
VERTEX
 8
GRIGLIA_2
 10
0
 20
0
 30
0
 70
128
 71
73
 72
192
 73
77
 74
77
 0
VERTEX
 8
GRIGLIA_2
 10
0
 20
0
 30
0
 70
128
 71
285
 72
286
 73
290
 74
289
 0
SEQEND
 0
POLYLINE
 8
CUBO
 66
1
 10
0.0
 20
0.0
 30
0.0
 70
64
 71
52
 72
50
 0
VERTEX
 8
CUBO
 10
-44.9114
 20
-61.0029
 30
-3.5102
 70
192
 0
VERTEX
 8
CUBO
 10
-44.9114
 20
-61.0029
 30
-0.0102
 70
192
 0
VERTEX
 8
CUBO
 10
-13.15
 20
-36.7331
 30
8.2794
 70
192
 0
VERTEX
 8
CUBO
 10
-42.0135
 20
-61.0029
 30
-3.5102
 70
192
 0
VERTEX
 8
CUBO
 10
-42.0135
 20
-61.0029
 30
-0.0102
 70
192
 0
VERTEX
 8
CUBO
 10
-11.4823
 20
-36.7331
 30
8.2794
 70
192
 0
VERTEX
 8
CUBO
 10
42.013
 20
-61.0029
 30
-3.5102
 70
192
 0
VERTEX
 8
CUBO
 10
42.013
 20
-61.0029
 30
-0.0102
 70
192
 0
VERTEX
 8
CUBO
 10
11.4822
 20
-36.7331
 30
8.2794
 70
192
 0
VERTEX
 8
CUBO
 10
44.911
 20
-61.0029
 30
-3.5102
 70
192
 0
VERTEX
 8
CUBO
 10
44.911
 20
-61.0029
 30
-0.0102
 70
192
 0
VERTEX
 8
CUBO
 10
13.15
 20
-36.7331
 30
8.2794
 70
192
 0
VERTEX
 8
CUBO
 10
44.911
 20
-58.1653
 30
-3.5102
 70
192
 0
VERTEX
 8
CUBO
 10
44.911
 20
-58.1653
 30
-0.0102
 70
192
 0
VERTEX
 8
CUBO
 10
13.15
 20
-34.7188
 30
8.2794
 70
192
 0
VERTEX
 8
CUBO
 10
44.911
 20
-13.0933
 30
-3.5102
 70
192
 0
VERTEX
 8
CUBO
 10
44.911
 20
-13.0933
 30
-0.0102
 70
192
 0
VERTEX
 8
CUBO
 10
13.15
 20
-13.0933
 30
8.2794
 70
192
 0
VERTEX
 8
CUBO
 10
44.911
 20
-11.0048
 30
-3.5102
 70
192
 0
VERTEX
 8
CUBO
 10
44.911
 20
-11.0048
 30
-0.0102
 70
192
 0
VERTEX
 8
CUBO
 10
13.15
 20
-11.0048
 30
8.2794
 70
192
 0
VERTEX
 8
CUBO
 10
42.013
 20
-11.0048
 30
-3.5102
 70
192
 0
VERTEX
 8
CUBO
 10
42.013
 20
-11.0048
 30
-0.0102
 70
192
 0
VERTEX
 8
CUBO
 10
11.4822
 20
-11.0048
 30
8.2794
 70
192
 0
VERTEX
 8
CUBO
 10
-42.0135
 20
-11.0048
 30
-3.5102
 70
192
 0
VERTEX
 8
CUBO
 10
-42.0135
 20
-11.0048
 30
-0.0102
 70
192
 0
VERTEX
 8
CUBO
 10
-11.4823
 20
-11.0048
 30
8.2794
 70
192
 0
VERTEX
 8
CUBO
 10
-44.9114
 20
-11.0048
 30
-3.5102
 70
192
 0
VERTEX
 8
CUBO
 10
-44.9114
 20
-11.0048
 30
-0.0102
 70
192
 0
VERTEX
 8
CUBO
 10
-13.15
 20
-11.0048
 30
8.2794
 70
192
 0
VERTEX
 8
CUBO
 10
-44.9114
 20
-13.0933
 30
-3.5102
 70
192
 0
VERTEX
 8
CUBO
 10
-44.9114
 20
-13.0933
 30
-0.0102
 70
192
 0
VERTEX
 8
CUBO
 10
-13.15
 20
-13.0933
 30
8.2794
 70
192
 0
VERTEX
 8
CUBO
 10
-44.9114
 20
-58.1653
 30
-3.5102
 70
192
 0
VERTEX
 8
CUBO
 10
-44.9114
 20
-58.1653
 30
-0.0102
 70
192
 0
VERTEX
 8
CUBO
 10
-13.15
 20
-34.7188
 30
8.2794
 70
192
 0
VERTEX
 8
CUBO
 10
-11.4823
 20
-34.7188
 30
8.2794
 70
192
 0
VERTEX
 8
CUBO
 10
-11.4823
 20
-13.0933
 30
8.2794
 70
192
 0
VERTEX
 8
CUBO
 10
11.4822
 20
-34.7188
 30
8.2794
 70
192
 0
VERTEX
 8
CUBO
 10
11.4822
 20
-13.0933
 30
8.2794
 70
192
 0
VERTEX
 8
CUBO
 10
-42.0135
 20
-13.0933
 30
-3.5102
 70
192
 0
VERTEX
 8
CUBO
 10
-42.0135
 20
-58.1653
 30
-3.5102
 70
192
 0
VERTEX
 8
CUBO
 10
42.013
 20
-13.0933
 30
-3.5102
 70
192
 0
VERTEX
 8
CUBO
 10
42.013
 20
-58.1653
 30
-3.5102
 70
192
 0
VERTEX
 8
CUBO
 10
-42.0135
 20
-13.0933
 30
-0.0103
 70
192
 0
VERTEX
 8
CUBO
 10
-42.0135
 20
-58.1653
 30
-0.0103
 70
192
 0
VERTEX
 8
CUBO
 10
42.013
 20
-13.0933
 30
-0.0103
 70
192
 0
VERTEX
 8
CUBO
 10
42.013
 20
-58.1653
 30
-0.0103
 70
192
 0
VERTEX
 8
CUBO
 10
-11.4823
 20
-13.0933
 30
6.1027
 70
192
 0
VERTEX
 8
CUBO
 10
-11.4823
 20
-36.6345
 30
6.1027
 70
192
 0
VERTEX
 8
CUBO
 10
11.4822
 20
-13.0933
 30
6.1027
 70
192
 0
VERTEX
 8
CUBO
 10
11.4822
 20
-36.6345
 30
6.1027
 70
192
 0
VERTEX
 8
CUBO
 10
0
 20
0
 30
0
 70
128
 71
1
 72
2
 73
5
 74
4
 0
VERTEX
 8
CUBO
 10
0
 20
0
 30
0
 70
128
 71
4
 72
5
 73
8
 74
7
 0
VERTEX
 8
CUBO
 10
0
 20
0
 30
0
 70
128
 71
7
 72
8
 73
11
 74
10
 0
VERTEX
 8
CUBO
 10
0
 20
0
 30
0
 70
128
 71
2
 72
3
 73
6
 74
5
 0
VERTEX
 8
CUBO
 10
0
 20
0
 30
0
 70
128
 71
5
 72
6
 73
9
 74
8
 0
VERTEX
 8
CUBO
 10
0
 20
0
 30
0
 70
128
 71
8
 72
9
 73
12
 74
11
 0
VERTEX
 8
CUBO
 10
0
 20
0
 30
0
 70
128
 71
10
 72
11
 73
14
 74
13
 0
VERTEX
 8
CUBO
 10
0
 20
0
 30
0
 70
128
 71
13
 72
14
 73
17
 74
16
 0
VERTEX
 8
CUBO
 10
0
 20
0
 30
0
 70
128
 71
16
 72
17
 73
20
 74
19
 0
VERTEX
 8
CUBO
 10
0
 20
0
 30
0
 70
128
 71
11
 72
12
 73
15
 74
14
 0
VERTEX
 8
CUBO
 10
0
 20
0
 30
0
 70
128
 71
14
 72
15
 73
18
 74
17
 0
VERTEX
 8
CUBO
 10
0
 20
0
 30
0
 70
128
 71
17
 72
18
 73
21
 74
20
 0
VERTEX
 8
CUBO
 10
0
 20
0
 30
0
 70
128
 71
19
 72
20
 73
23
 74
22
 0
VERTEX
 8
CUBO
 10
0
 20
0
 30
0
 70
128
 71
46
 72
50
 73
49
 74
45
 0
VERTEX
 8
CUBO
 10
0
 20
0
 30
0
 70
128
 71
25
 72
26
 73
29
 74
28
 0
VERTEX
 8
CUBO
 10
0
 20
0
 30
0
 70
128
 71
20
 72
21
 73
24
 74
23
 0
VERTEX
 8
CUBO
 10
0
 20
0
 30
0
 70
128
 71
23
 72
24
 73
27
 74
26
 0
VERTEX
 8
CUBO
 10
0
 20
0
 30
0
 70
128
 71
26
 72
27
 73
30
 74
29
 0
VERTEX
 8
CUBO
 10
0
 20
0
 30
0
 70
128
 71
28
 72
29
 73
32
 74
31
 0
VERTEX
 8
CUBO
 10
0
 20
0
 30
0
 70
128
 71
31
 72
32
 73
35
 74
34
 0
VERTEX
 8
CUBO
 10
0
 20
0
 30
0
 70
128
 71
34
 72
35
 73
2
 74
1
 0
VERTEX
 8
CUBO
 10
0
 20
0
 30
0
 70
128
 71
29
 72
30
 73
33
 74
32
 0
VERTEX
 8
CUBO
 10
0
 20
0
 30
0
 70
128
 71
32
 72
33
 73
36
 74
35
 0
VERTEX
 8
CUBO
 10
0
 20
0
 30
0
 70
128
 71
35
 72
36
 73
3
 74
2
 0
VERTEX
 8
CUBO
 10
0
 20
0
 30
0
 70
128
 71
3
 72
36
 73
37
 74
6
 0
VERTEX
 8
CUBO
 10
0
 20
0
 30
0
 70
128
 71
6
 72
37
 73
39
 74
9
 0
VERTEX
 8
CUBO
 10
0
 20
0
 30
0
 70
128
 71
9
 72
39
 73
15
 74
12
 0
VERTEX
 8
CUBO
 10
0
 20
0
 30
0
 70
128
 71
36
 72
33
 73
38
 74
37
 0
VERTEX
 8
CUBO
 10
0
 20
0
 30
0
 70
128
 71
37
 72
38
 73
40
 74
39
 0
VERTEX
 8
CUBO
 10
0
 20
0
 30
0
 70
128
 71
39
 72
40
 73
18
 74
15
 0
VERTEX
 8
CUBO
 10
0
 20
0
 30
0
 70
128
 71
33
 72
30
 73
27
 74
38
 0
VERTEX
 8
CUBO
 10
0
 20
0
 30
0
 70
128
 71
38
 72
27
 73
24
 74
40
 0
VERTEX
 8
CUBO
 10
0
 20
0
 30
0
 70
128
 71
40
 72
24
 73
21
 74
18
 0
VERTEX
 8
CUBO
 10
0
 20
0
 30
0
 70
128
 71
28
 72
31
 73
41
 74
25
 0
VERTEX
 8
CUBO
 10
0
 20
0
 30
0
 70
128
 71
48
 72
52
 73
50
 74
46
 0
VERTEX
 8
CUBO
 10
0
 20
0
 30
0
 70
128
 71
22
 72
43
 73
16
 74
19
 0
VERTEX
 8
CUBO
 10
0
 20
0
 30
0
 70
128
 71
31
 72
34
 73
42
 74
41
 0
VERTEX
 8
CUBO
 10
0
 20
0
 30
0
 70
128
 71
49
 72
50
 73
52
 74
51
 0
VERTEX
 8
CUBO
 10
0
 20
0
 30
0
 70
128
 71
43
 72
44
 73
13
 74
16
 0
VERTEX
 8
CUBO
 10
0
 20
0
 30
0
 70
128
 71
34
 72
1
 73
4
 74
42
 0
VERTEX
 8
CUBO
 10
0
 20
0
 30
0
 70
128
 71
42
 72
4
 73
7
 74
44
 0
VERTEX
 8
CUBO
 10
0
 20
0
 30
0
 70
128
 71
44
 72
7
 73
10
 74
13
 0
VERTEX
 8
CUBO
 10
0
 20
0
 30
0
 70
128
 71
47
 72
51
 73
52
 74
48
 0
VERTEX
 8
CUBO
 10
0
 20
0
 30
0
 70
128
 71
43
 72
47
 73
48
 74
44
 0
VERTEX
 8
CUBO
 10
0
 20
0
 30
0
 70
128
 71
44
 72
48
 73
46
 74
42
 0
VERTEX
 8
CUBO
 10
0
 20
0
 30
0
 70
128
 71
42
 72
46
 73
45
 74
41
 0
VERTEX
 8
CUBO
 10
0
 20
0
 30
0
 70
128
 71
45
 72
49
 73
51
 74
47
 0
VERTEX
 8
CUBO
 10
0
 20
0
 30
0
 70
128
 71
22
 72
23
 73
47
 74
43
 0
VERTEX
 8
CUBO
 10
0
 20
0
 30
0
 70
128
 71
23
 72
26
 73
45
 74
47
 0
VERTEX
 8
CUBO
 10
0
 20
0
 30
0
 70
128
 71
26
 72
25
 73
41
 74
45
 0
SEQEND
 0
POLYLINE
 8
CUBO_1
 66
1
 10
0.0
 20
0.0
 30
0.0
 70
64
 71
8
 72
6
 0
VERTEX
 8
CUBO_1
 10
42.013
 20
-11.0048
 30
-3.2975
 70
192
 0
VERTEX
 8
CUBO_1
 10
42.013
 20
-11.0048
 30
-0.0102
 70
192
 0
VERTEX
 8
CUBO_1
 10
-42.0135
 20
-11.0048
 30
-3.2975
 70
192
 0
VERTEX
 8
CUBO_1
 10
-42.0135
 20
-11.0048
 30
-0.0102
 70
192
 0
VERTEX
 8
CUBO_1
 10
-42.0135
 20
-19.3357
 30
-3.2975
 70
192
 0
VERTEX
 8
CUBO_1
 10
42.013
 20
-19.3357
 30
-3.2975
 70
192
 0
VERTEX
 8
CUBO_1
 10
-42.0135
 20
-19.3357
 30
-0.0103
 70
192
 0
VERTEX
 8
CUBO_1
 10
42.013
 20
-19.3357
 30
-0.0103
 70
192
 0
VERTEX
 8
CUBO_1
 10
0
 20
0
 30
0
 70
128
 71
1
 72
2
 73
4
 74
3
 0
VERTEX
 8
CUBO_1
 10
0
 20
0
 30
0
 70
128
 71
3
 72
5
 73
6
 74
1
 0
VERTEX
 8
CUBO_1
 10
0
 20
0
 30
0
 70
128
 71
5
 72
7
 73
8
 74
6
 0
VERTEX
 8
CUBO_1
 10
0
 20
0
 30
0
 70
128
 71
3
 72
4
 73
7
 74
5
 0
VERTEX
 8
CUBO_1
 10
0
 20
0
 30
0
 70
128
 71
4
 72
2
 73
8
 74
7
 0
VERTEX
 8
CUBO_1
 10
0
 20
0
 30
0
 70
128
 71
6
 72
8
 73
2
 74
1
 0
SEQEND
 0
POLYLINE
 8
PULSANTE
 66
1
 10
0.0
 20
0.0
 30
0.0
 70
64
 71
9
 72
9
 0
VERTEX
 8
PULSANTE
 10
-4.0972
 20
-61.1161
 30
-1.6
 70
192
 0
VERTEX
 8
PULSANTE
 10
-4.0972
 20
-61.1161
 30
-1.2023
 70
192
 0
VERTEX
 8
PULSANTE
 10
-2.901
 20
-61.1161
 30
-1.6
 70
192
 0
VERTEX
 8
PULSANTE
 10
-2.901
 20
-61.1161
 30
-1.2023
 70
192
 0
VERTEX
 8
PULSANTE
 10
-2.8941
 20
-60.9133
 30
-1.6111
 70
192
 0
VERTEX
 8
PULSANTE
 10
-2.8941
 20
-60.9133
 30
-1.1911
 70
192
 0
VERTEX
 8
PULSANTE
 10
-4.1041
 20
-60.9133
 30
-1.6111
 70
192
 0
VERTEX
 8
PULSANTE
 10
-4.1041
 20
-60.9133
 30
-1.1911
 70
192
 0
VERTEX
 8
PULSANTE
 10
-3.4991
 20
-61.1513
 30
-1.4011
 70
192
 0
VERTEX
 8
PULSANTE
 10
0
 20
0
 30
0
 70
128
 71
1
 72
9
 73
3
 74
3
 0
VERTEX
 8
PULSANTE
 10
0
 20
0
 30
0
 70
128
 71
3
 72
4
 73
6
 74
5
 0
VERTEX
 8
PULSANTE
 10
0
 20
0
 30
0
 70
128
 71
5
 72
6
 73
8
 74
7
 0
VERTEX
 8
PULSANTE
 10
0
 20
0
 30
0
 70
128
 71
7
 72
8
 73
2
 74
1
 0
VERTEX
 8
PULSANTE
 10
0
 20
0
 30
0
 70
128
 71
2
 72
8
 73
6
 74
4
 0
VERTEX
 8
PULSANTE
 10
0
 20
0
 30
0
 70
128
 71
7
 72
1
 73
3
 74
5
 0
VERTEX
 8
PULSANTE
 10
0
 20
0
 30
0
 70
128
 71
2
 72
4
 73
9
 74
9
 0
VERTEX
 8
PULSANTE
 10
0
 20
0
 30
0
 70
128
 71
1
 72
2
 73
9
 74
9
 0
VERTEX
 8
PULSANTE
 10
0
 20
0
 30
0
 70
128
 71
4
 72
3
 73
9
 74
9
 0
SEQEND
 0
POLYLINE
 8
PULSANTE_1
 66
1
 10
0.0
 20
0.0
 30
0.0
 70
64
 71
9
 72
9
 0
VERTEX
 8
PULSANTE_1
 10
-2.3471
 20
-61.1161
 30
-1.6
 70
192
 0
VERTEX
 8
PULSANTE_1
 10
-2.3471
 20
-61.1161
 30
-1.2023
 70
192
 0
VERTEX
 8
PULSANTE_1
 10
-1.1509
 20
-61.1161
 30
-1.6
 70
192
 0
VERTEX
 8
PULSANTE_1
 10
-1.1509
 20
-61.1161
 30
-1.2023
 70
192
 0
VERTEX
 8
PULSANTE_1
 10
-1.144
 20
-60.9133
 30
-1.6111
 70
192
 0
VERTEX
 8
PULSANTE_1
 10
-1.144
 20
-60.9133
 30
-1.1911
 70
192
 0
VERTEX
 8
PULSANTE_1
 10
-2.354
 20
-60.9133
 30
-1.6111
 70
192
 0
VERTEX
 8
PULSANTE_1
 10
-2.354
 20
-60.9133
 30
-1.1911
 70
192
 0
VERTEX
 8
PULSANTE_1
 10
-1.749
 20
-61.1513
 30
-1.4011
 70
192
 0
VERTEX
 8
PULSANTE_1
 10
0
 20
0
 30
0
 70
128
 71
1
 72
9
 73
3
 74
3
 0
VERTEX
 8
PULSANTE_1
 10
0
 20
0
 30
0
 70
128
 71
3
 72
4
 73
6
 74
5
 0
VERTEX
 8
PULSANTE_1
 10
0
 20
0
 30
0
 70
128
 71
5
 72
6
 73
8
 74
7
 0
VERTEX
 8
PULSANTE_1
 10
0
 20
0
 30
0
 70
128
 71
7
 72
8
 73
2
 74
1
 0
VERTEX
 8
PULSANTE_1
 10
0
 20
0
 30
0
 70
128
 71
2
 72
8
 73
6
 74
4
 0
VERTEX
 8
PULSANTE_1
 10
0
 20
0
 30
0
 70
128
 71
7
 72
1
 73
3
 74
5
 0
VERTEX
 8
PULSANTE_1
 10
0
 20
0
 30
0
 70
128
 71
2
 72
4
 73
9
 74
9
 0
VERTEX
 8
PULSANTE_1
 10
0
 20
0
 30
0
 70
128
 71
1
 72
2
 73
9
 74
9
 0
VERTEX
 8
PULSANTE_1
 10
0
 20
0
 30
0
 70
128
 71
4
 72
3
 73
9
 74
9
 0
SEQEND
 0
POLYLINE
 8
PULSANTE_2
 66
1
 10
0.0
 20
0.0
 30
0.0
 70
64
 71
9
 72
9
 0
VERTEX
 8
PULSANTE_2
 10
-0.5971
 20
-61.1161
 30
-1.6
 70
192
 0
VERTEX
 8
PULSANTE_2
 10
-0.5971
 20
-61.1161
 30
-1.2023
 70
192
 0
VERTEX
 8
PULSANTE_2
 10
0.5991
 20
-61.1161
 30
-1.6
 70
192
 0
VERTEX
 8
PULSANTE_2
 10
0.5991
 20
-61.1161
 30
-1.2023
 70
192
 0
VERTEX
 8
PULSANTE_2
 10
0.606
 20
-60.9133
 30
-1.6111
 70
192
 0
VERTEX
 8
PULSANTE_2
 10
0.606
 20
-60.9133
 30
-1.1911
 70
192
 0
VERTEX
 8
PULSANTE_2
 10
-0.604
 20
-60.9133
 30
-1.6111
 70
192
 0
VERTEX
 8
PULSANTE_2
 10
-0.604
 20
-60.9133
 30
-1.1911
 70
192
 0
VERTEX
 8
PULSANTE_2
 10
0.001
 20
-61.1513
 30
-1.4011
 70
192
 0
VERTEX
 8
PULSANTE_2
 10
0
 20
0
 30
0
 70
128
 71
1
 72
9
 73
3
 74
3
 0
VERTEX
 8
PULSANTE_2
 10
0
 20
0
 30
0
 70
128
 71
3
 72
4
 73
6
 74
5
 0
VERTEX
 8
PULSANTE_2
 10
0
 20
0
 30
0
 70
128
 71
5
 72
6
 73
8
 74
7
 0
VERTEX
 8
PULSANTE_2
 10
0
 20
0
 30
0
 70
128
 71
7
 72
8
 73
2
 74
1
 0
VERTEX
 8
PULSANTE_2
 10
0
 20
0
 30
0
 70
128
 71
2
 72
8
 73
6
 74
4
 0
VERTEX
 8
PULSANTE_2
 10
0
 20
0
 30
0
 70
128
 71
7
 72
1
 73
3
 74
5
 0
VERTEX
 8
PULSANTE_2
 10
0
 20
0
 30
0
 70
128
 71
2
 72
4
 73
9
 74
9
 0
VERTEX
 8
PULSANTE_2
 10
0
 20
0
 30
0
 70
128
 71
1
 72
2
 73
9
 74
9
 0
VERTEX
 8
PULSANTE_2
 10
0
 20
0
 30
0
 70
128
 71
4
 72
3
 73
9
 74
9
 0
SEQEND
 0
POLYLINE
 8
PULSANTE_3
 66
1
 10
0.0
 20
0.0
 30
0.0
 70
64
 71
9
 72
9
 0
VERTEX
 8
PULSANTE_3
 10
1.1529
 20
-61.1161
 30
-1.6
 70
192
 0
VERTEX
 8
PULSANTE_3
 10
1.1529
 20
-61.1161
 30
-1.2023
 70
192
 0
VERTEX
 8
PULSANTE_3
 10
2.3491
 20
-61.1161
 30
-1.6
 70
192
 0
VERTEX
 8
PULSANTE_3
 10
2.3491
 20
-61.1161
 30
-1.2023
 70
192
 0
VERTEX
 8
PULSANTE_3
 10
2.356
 20
-60.9133
 30
-1.6111
 70
192
 0
VERTEX
 8
PULSANTE_3
 10
2.356
 20
-60.9133
 30
-1.1911
 70
192
 0
VERTEX
 8
PULSANTE_3
 10
1.146
 20
-60.9133
 30
-1.6111
 70
192
 0
VERTEX
 8
PULSANTE_3
 10
1.146
 20
-60.9133
 30
-1.1911
 70
192
 0
VERTEX
 8
PULSANTE_3
 10
1.751
 20
-61.1513
 30
-1.4011
 70
192
 0
VERTEX
 8
PULSANTE_3
 10
0
 20
0
 30
0
 70
128
 71
1
 72
9
 73
3
 74
3
 0
VERTEX
 8
PULSANTE_3
 10
0
 20
0
 30
0
 70
128
 71
3
 72
4
 73
6
 74
5
 0
VERTEX
 8
PULSANTE_3
 10
0
 20
0
 30
0
 70
128
 71
5
 72
6
 73
8
 74
7
 0
VERTEX
 8
PULSANTE_3
 10
0
 20
0
 30
0
 70
128
 71
7
 72
8
 73
2
 74
1
 0
VERTEX
 8
PULSANTE_3
 10
0
 20
0
 30
0
 70
128
 71
2
 72
8
 73
6
 74
4
 0
VERTEX
 8
PULSANTE_3
 10
0
 20
0
 30
0
 70
128
 71
7
 72
1
 73
3
 74
5
 0
VERTEX
 8
PULSANTE_3
 10
0
 20
0
 30
0
 70
128
 71
2
 72
4
 73
9
 74
9
 0
VERTEX
 8
PULSANTE_3
 10
0
 20
0
 30
0
 70
128
 71
1
 72
2
 73
9
 74
9
 0
VERTEX
 8
PULSANTE_3
 10
0
 20
0
 30
0
 70
128
 71
4
 72
3
 73
9
 74
9
 0
SEQEND
 0
POLYLINE
 8
PULSANTE_4
 66
1
 10
0.0
 20
0.0
 30
0.0
 70
64
 71
9
 72
9
 0
VERTEX
 8
PULSANTE_4
 10
2.9029
 20
-61.1161
 30
-1.6
 70
192
 0
VERTEX
 8
PULSANTE_4
 10
2.9029
 20
-61.1161
 30
-1.2023
 70
192
 0
VERTEX
 8
PULSANTE_4
 10
4.0991
 20
-61.1161
 30
-1.6
 70
192
 0
VERTEX
 8
PULSANTE_4
 10
4.0991
 20
-61.1161
 30
-1.2023
 70
192
 0
VERTEX
 8
PULSANTE_4
 10
4.106
 20
-60.9133
 30
-1.6111
 70
192
 0
VERTEX
 8
PULSANTE_4
 10
4.106
 20
-60.9133
 30
-1.1911
 70
192
 0
VERTEX
 8
PULSANTE_4
 10
2.896
 20
-60.9133
 30
-1.6111
 70
192
 0
VERTEX
 8
PULSANTE_4
 10
2.896
 20
-60.9133
 30
-1.1911
 70
192
 0
VERTEX
 8
PULSANTE_4
 10
3.501
 20
-61.1513
 30
-1.4011
 70
192
 0
VERTEX
 8
PULSANTE_4
 10
0
 20
0
 30
0
 70
128
 71
1
 72
9
 73
3
 74
3
 0
VERTEX
 8
PULSANTE_4
 10
0
 20
0
 30
0
 70
128
 71
3
 72
4
 73
6
 74
5
 0
VERTEX
 8
PULSANTE_4
 10
0
 20
0
 30
0
 70
128
 71
5
 72
6
 73
8
 74
7
 0
VERTEX
 8
PULSANTE_4
 10
0
 20
0
 30
0
 70
128
 71
7
 72
8
 73
2
 74
1
 0
VERTEX
 8
PULSANTE_4
 10
0
 20
0
 30
0
 70
128
 71
2
 72
8
 73
6
 74
4
 0
VERTEX
 8
PULSANTE_4
 10
0
 20
0
 30
0
 70
128
 71
7
 72
1
 73
3
 74
5
 0
VERTEX
 8
PULSANTE_4
 10
0
 20
0
 30
0
 70
128
 71
2
 72
4
 73
9
 74
9
 0
VERTEX
 8
PULSANTE_4
 10
0
 20
0
 30
0
 70
128
 71
1
 72
2
 73
9
 74
9
 0
VERTEX
 8
PULSANTE_4
 10
0
 20
0
 30
0
 70
128
 71
4
 72
3
 73
9
 74
9
 0
SEQEND
 0
ENDSEC
 0
EOF
