 0
SECTION
 2
HEADER
 9
$ACADVER
 1
AC1009
 0
ENDSEC
 0
SECTION
 2
TABLES
 0
TABLE
 2
LTYPE
 70
1
 0
LTYPE
 2
CONTINUOUS
 70
64
 3
solid line
 72
65
 73
0
 40
0.0
 0
ENDTAB
 0
TABLE
 2
LAYER
 70
6
 0
LAYER
 2
0
 70
0
 62
7
 6
CONTINUOUS
 0
LAYER
 2
FCLPO_6215_P_TEM_BK
 70
64
 62
7
 6
CONTINUOUS
 0
LAYER
 2
ANTA
 70
64
 62
7
 6
CONTINUOUS
 0
LAYER
 2
LOGO_FULGOR_MILANO
 70
64
 62
7
 6
CONTINUOUS
 0
LAYER
 2
FULGOR
 70
64
 62
7
 6
CONTINUOUS
 0
LAYER
 2
MILANO
 70
64
 62
7
 6
CONTINUOUS
 0
LAYER
 2
VETRO_ANTA
 70
64
 62
39
 6
CONTINUOUS
 0
LAYER
 2
VETRO_ANTA_1
 70
64
 62
37
 6
CONTINUOUS
 0
LAYER
 2
MANIGLIA
 70
64
 62
7
 6
CONTINUOUS
 0
LAYER
 2
CUBO
 70
64
 62
253
 6
CONTINUOUS
 0
LAYER
 2
SUPPORTO_MANIGLIA_DUPLICATORE
 70
64
 62
253
 6
CONTINUOUS
 0
LAYER
 2
SUPPORTO_MANIGLIA
 70
64
 62
253
 6
CONTINUOUS
 0
LAYER
 2
CILINDRO_DUPLICATORE
 70
64
 62
39
 6
CONTINUOUS
 0
LAYER
 2
CILINDRO
 70
64
 62
39
 6
CONTINUOUS
 0
LAYER
 2
CILINDRO_1
 70
64
 62
253
 6
CONTINUOUS
 0
LAYER
 2
CORNICE_DISPLAY
 70
64
 62
253
 6
CONTINUOUS
 0
LAYER
 2
VETRO_DISPLAY
 70
64
 62
39
 6
CONTINUOUS
 0
LAYER
 2
CUBO_1
 70
64
 62
39
 6
CONTINUOUS
 0
LAYER
 2
FORNO
 70
64
 62
253
 6
CONTINUOUS
 0
ENDTAB
 0
ENDSEC
 0
SECTION
 2
BLOCKS
 0
ENDSEC
 0
SECTION
 2
ENTITIES
 0
POLYLINE
 8
FULGOR
 66
1
 10
0.0
 20
0.0
 30
0.0
 70
64
 71
363
 72
183
 0
VERTEX
 8
FULGOR
 10
0.2189
 20
-0.0716
 30
107.5405
 70
192
 0
VERTEX
 8
FULGOR
 10
-2.5005
 20
-0.0716
 30
107.4378
 70
192
 0
VERTEX
 8
FULGOR
 10
1.3399
 20
-0.0716
 30
107.4638
 70
192
 0
VERTEX
 8
FULGOR
 10
-2.3458
 20
-0.0716
 30
107.7346
 70
192
 0
VERTEX
 8
FULGOR
 10
-2.3458
 20
-0.0716
 30
107.8281
 70
192
 0
VERTEX
 8
FULGOR
 10
-1.966
 20
-0.0716
 30
107.8281
 70
192
 0
VERTEX
 8
FULGOR
 10
-1.966
 20
-0.0716
 30
107.9389
 70
192
 0
VERTEX
 8
FULGOR
 10
-2.5005
 20
-0.0716
 30
107.9389
 70
192
 0
VERTEX
 8
FULGOR
 10
-1.8089
 20
-0.0716
 30
107.6556
 70
192
 0
VERTEX
 8
FULGOR
 10
-1.8077
 20
-0.0716
 30
107.6322
 70
192
 0
VERTEX
 8
FULGOR
 10
-1.8041
 20
-0.0716
 30
107.6105
 70
192
 0
VERTEX
 8
FULGOR
 10
-2.3458
 20
-0.0716
 30
107.4378
 70
192
 0
VERTEX
 8
FULGOR
 10
-2.3458
 20
-0.0716
 30
107.6455
 70
192
 0
VERTEX
 8
FULGOR
 10
-1.966
 20
-0.0716
 30
107.6455
 70
192
 0
VERTEX
 8
FULGOR
 10
-1.966
 20
-0.0716
 30
107.7346
 70
192
 0
VERTEX
 8
FULGOR
 10
-1.8089
 20
-0.0716
 30
107.9389
 70
192
 0
VERTEX
 8
FULGOR
 10
-1.7984
 20
-0.0716
 30
107.5906
 70
192
 0
VERTEX
 8
FULGOR
 10
-1.7906
 20
-0.0716
 30
107.5723
 70
192
 0
VERTEX
 8
FULGOR
 10
-1.781
 20
-0.0716
 30
107.5556
 70
192
 0
VERTEX
 8
FULGOR
 10
-1.7697
 20
-0.0716
 30
107.5404
 70
192
 0
VERTEX
 8
FULGOR
 10
-1.6322
 20
-0.0716
 30
107.4638
 70
192
 0
VERTEX
 8
FULGOR
 10
-1.5792
 20
-0.0716
 30
107.4529
 70
192
 0
VERTEX
 8
FULGOR
 10
-1.493
 20
-0.0716
 30
107.4437
 70
192
 0
VERTEX
 8
FULGOR
 10
-1.4036
 20
-0.0716
 30
107.4409
 70
192
 0
VERTEX
 8
FULGOR
 10
-1.3036
 20
-0.0716
 30
107.4445
 70
192
 0
VERTEX
 8
FULGOR
 10
-1.2282
 20
-0.0716
 30
107.4545
 70
192
 0
VERTEX
 8
FULGOR
 10
-1.7567
 20
-0.0716
 30
107.5266
 70
192
 0
VERTEX
 8
FULGOR
 10
-1.1353
 20
-0.0716
 30
107.4798
 70
192
 0
VERTEX
 8
FULGOR
 10
-1.7422
 20
-0.0716
 30
107.5141
 70
192
 0
VERTEX
 8
FULGOR
 10
-1.7264
 20
-0.0716
 30
107.5029
 70
192
 0
VERTEX
 8
FULGOR
 10
-1.7005
 20
-0.0716
 30
107.4884
 70
192
 0
VERTEX
 8
FULGOR
 10
-1.6724
 20
-0.0716
 30
107.4764
 70
192
 0
VERTEX
 8
FULGOR
 10
-1.0325
 20
-0.0716
 30
107.5491
 70
192
 0
VERTEX
 8
FULGOR
 10
-1.1753
 20
-0.0716
 30
107.4666
 70
192
 0
VERTEX
 8
FULGOR
 10
-1.1072
 20
-0.0716
 30
107.4921
 70
192
 0
VERTEX
 8
FULGOR
 10
-1.0814
 20
-0.0716
 30
107.5064
 70
192
 0
VERTEX
 8
FULGOR
 10
-1.0583
 20
-0.0716
 30
107.5231
 70
192
 0
VERTEX
 8
FULGOR
 10
-1.0007
 20
-0.0716
 30
107.6254
 70
192
 0
VERTEX
 8
FULGOR
 10
-0.9995
 20
-0.0716
 30
107.646
 70
192
 0
VERTEX
 8
FULGOR
 10
-0.9992
 20
-0.0716
 30
107.9389
 70
192
 0
VERTEX
 8
FULGOR
 10
-1.0447
 20
-0.0716
 30
107.5355
 70
192
 0
VERTEX
 8
FULGOR
 10
-1.0221
 20
-0.0716
 30
107.5639
 70
192
 0
VERTEX
 8
FULGOR
 10
-1.154
 20
-0.0716
 30
107.6475
 70
192
 0
VERTEX
 8
FULGOR
 10
-1.1549
 20
-0.0716
 30
107.6405
 70
192
 0
VERTEX
 8
FULGOR
 10
-1.1565
 20
-0.0716
 30
107.6335
 70
192
 0
VERTEX
 8
FULGOR
 10
-1.1588
 20
-0.0716
 30
107.6265
 70
192
 0
VERTEX
 8
FULGOR
 10
-1.1618
 20
-0.0716
 30
107.6197
 70
192
 0
VERTEX
 8
FULGOR
 10
-1.1657
 20
-0.0716
 30
107.613
 70
192
 0
VERTEX
 8
FULGOR
 10
-1.1702
 20
-0.0716
 30
107.6064
 70
192
 0
VERTEX
 8
FULGOR
 10
-1.1786
 20
-0.0716
 30
107.5968
 70
192
 0
VERTEX
 8
FULGOR
 10
-1.1888
 20
-0.0716
 30
107.5877
 70
192
 0
VERTEX
 8
FULGOR
 10
-1.2009
 20
-0.0716
 30
107.5791
 70
192
 0
VERTEX
 8
FULGOR
 10
-1.215
 20
-0.0716
 30
107.5711
 70
192
 0
VERTEX
 8
FULGOR
 10
-1.0135
 20
-0.0716
 30
107.5799
 70
192
 0
VERTEX
 8
FULGOR
 10
-1.0068
 20
-0.0716
 30
107.5971
 70
192
 0
VERTEX
 8
FULGOR
 10
-1.0022
 20
-0.0716
 30
107.6156
 70
192
 0
VERTEX
 8
FULGOR
 10
-1.1538
 20
-0.0716
 30
107.9389
 70
192
 0
VERTEX
 8
FULGOR
 10
-1.1538
 20
-0.0716
 30
107.6546
 70
192
 0
VERTEX
 8
FULGOR
 10
-1.4917
 20
-0.0716
 30
107.5416
 70
192
 0
VERTEX
 8
FULGOR
 10
-1.2369
 20
-0.0716
 30
107.5614
 70
192
 0
VERTEX
 8
FULGOR
 10
-1.5649
 20
-0.0716
 30
107.5553
 70
192
 0
VERTEX
 8
FULGOR
 10
-1.5876
 20
-0.0716
 30
107.5634
 70
192
 0
VERTEX
 8
FULGOR
 10
-1.2624
 20
-0.0716
 30
107.5531
 70
192
 0
VERTEX
 8
FULGOR
 10
-1.2997
 20
-0.0716
 30
107.545
 70
192
 0
VERTEX
 8
FULGOR
 10
-1.3433
 20
-0.0716
 30
107.5397
 70
192
 0
VERTEX
 8
FULGOR
 10
-1.6319
 20
-0.0716
 30
107.5937
 70
192
 0
VERTEX
 8
FULGOR
 10
-1.6373
 20
-0.0716
 30
107.6005
 70
192
 0
VERTEX
 8
FULGOR
 10
-1.6419
 20
-0.0716
 30
107.6076
 70
192
 0
VERTEX
 8
FULGOR
 10
-1.6458
 20
-0.0716
 30
107.6151
 70
192
 0
VERTEX
 8
FULGOR
 10
-1.6489
 20
-0.0716
 30
107.623
 70
192
 0
VERTEX
 8
FULGOR
 10
-1.4041
 20
-0.0716
 30
107.5374
 70
192
 0
VERTEX
 8
FULGOR
 10
-1.6536
 20
-0.0716
 30
107.6444
 70
192
 0
VERTEX
 8
FULGOR
 10
-1.6543
 20
-0.0716
 30
107.6584
 70
192
 0
VERTEX
 8
FULGOR
 10
-1.6543
 20
-0.0716
 30
107.9389
 70
192
 0
VERTEX
 8
FULGOR
 10
-1.5385
 20
-0.0716
 30
107.5487
 70
192
 0
VERTEX
 8
FULGOR
 10
-1.6022
 20
-0.0716
 30
107.5705
 70
192
 0
VERTEX
 8
FULGOR
 10
-1.6149
 20
-0.0716
 30
107.5785
 70
192
 0
VERTEX
 8
FULGOR
 10
-1.6257
 20
-0.0716
 30
107.5873
 70
192
 0
VERTEX
 8
FULGOR
 10
-0.6879
 20
-0.0716
 30
107.5485
 70
192
 0
VERTEX
 8
FULGOR
 10
-0.6879
 20
-0.0716
 30
107.9389
 70
192
 0
VERTEX
 8
FULGOR
 10
0.5411
 20
-0.0716
 30
107.8927
 70
192
 0
VERTEX
 8
FULGOR
 10
-1.6513
 20
-0.0716
 30
107.6313
 70
192
 0
VERTEX
 8
FULGOR
 10
-0.8426
 20
-0.0716
 30
107.9389
 70
192
 0
VERTEX
 8
FULGOR
 10
0.2351
 20
-0.0716
 30
107.9384
 70
192
 0
VERTEX
 8
FULGOR
 10
-0.8426
 20
-0.0716
 30
107.4377
 70
192
 0
VERTEX
 8
FULGOR
 10
-0.3082
 20
-0.0716
 30
107.4377
 70
192
 0
VERTEX
 8
FULGOR
 10
-0.3082
 20
-0.0716
 30
107.5485
 70
192
 0
VERTEX
 8
FULGOR
 10
0.4537
 20
-0.0716
 30
107.9125
 70
192
 0
VERTEX
 8
FULGOR
 10
0.3611
 20
-0.0716
 30
107.9272
 70
192
 0
VERTEX
 8
FULGOR
 10
0.1647
 20
-0.0716
 30
107.9383
 70
192
 0
VERTEX
 8
FULGOR
 10
-0.1068
 20
-0.0716
 30
107.8625
 70
192
 0
VERTEX
 8
FULGOR
 10
-0.1331
 20
-0.0716
 30
107.8453
 70
192
 0
VERTEX
 8
FULGOR
 10
-0.1554
 20
-0.0716
 30
107.8275
 70
192
 0
VERTEX
 8
FULGOR
 10
-0.1743
 20
-0.0716
 30
107.8091
 70
192
 0
VERTEX
 8
FULGOR
 10
0.1009
 20
-0.0716
 30
107.9319
 70
192
 0
VERTEX
 8
FULGOR
 10
0.0442
 20
-0.0716
 30
107.921
 70
192
 0
VERTEX
 8
FULGOR
 10
-0.0115
 20
-0.0716
 30
107.905
 70
192
 0
VERTEX
 8
FULGOR
 10
-0.2167
 20
-0.0716
 30
107.7412
 70
192
 0
VERTEX
 8
FULGOR
 10
-0.2212
 20
-0.0716
 30
107.7268
 70
192
 0
VERTEX
 8
FULGOR
 10
-0.0617
 20
-0.0716
 30
107.8854
 70
192
 0
VERTEX
 8
FULGOR
 10
-0.0875
 20
-0.0716
 30
107.873
 70
192
 0
VERTEX
 8
FULGOR
 10
-0.189
 20
-0.0716
 30
107.7916
 70
192
 0
VERTEX
 8
FULGOR
 10
-0.2255
 20
-0.0716
 30
107.6681
 70
192
 0
VERTEX
 8
FULGOR
 10
-0.1997
 20
-0.0716
 30
107.7761
 70
192
 0
VERTEX
 8
FULGOR
 10
-0.209
 20
-0.0716
 30
107.7593
 70
192
 0
VERTEX
 8
FULGOR
 10
-0.2244
 20
-0.0716
 30
107.7116
 70
192
 0
VERTEX
 8
FULGOR
 10
-0.2257
 20
-0.0716
 30
107.7011
 70
192
 0
VERTEX
 8
FULGOR
 10
-0.2265
 20
-0.0716
 30
107.6847
 70
192
 0
VERTEX
 8
FULGOR
 10
-0.2226
 20
-0.0716
 30
107.6519
 70
192
 0
VERTEX
 8
FULGOR
 10
-0.1576
 20
-0.0716
 30
107.5517
 70
192
 0
VERTEX
 8
FULGOR
 10
-0.133
 20
-0.0716
 30
107.5319
 70
192
 0
VERTEX
 8
FULGOR
 10
-0.2179
 20
-0.0716
 30
107.6361
 70
192
 0
VERTEX
 8
FULGOR
 10
-0.065
 20
-0.0716
 30
107.492
 70
192
 0
VERTEX
 8
FULGOR
 10
-0.0279
 20
-0.0716
 30
107.4765
 70
192
 0
VERTEX
 8
FULGOR
 10
-0.2115
 20
-0.0716
 30
107.6208
 70
192
 0
VERTEX
 8
FULGOR
 10
-0.2035
 20
-0.0716
 30
107.6059
 70
192
 0
VERTEX
 8
FULGOR
 10
0.1471
 20
-0.0716
 30
107.4403
 70
192
 0
VERTEX
 8
FULGOR
 10
0.1955
 20
-0.0716
 30
107.438
 70
192
 0
VERTEX
 8
FULGOR
 10
0.2351
 20
-0.0716
 30
107.4382
 70
192
 0
VERTEX
 8
FULGOR
 10
0.2978
 20
-0.0716
 30
107.4418
 70
192
 0
VERTEX
 8
FULGOR
 10
-0.1905
 20
-0.0716
 30
107.5869
 70
192
 0
VERTEX
 8
FULGOR
 10
-0.1751
 20
-0.0716
 30
107.5688
 70
192
 0
VERTEX
 8
FULGOR
 10
-0.1004
 20
-0.0716
 30
107.5105
 70
192
 0
VERTEX
 8
FULGOR
 10
0.3633
 20
-0.0716
 30
107.6979
 70
192
 0
VERTEX
 8
FULGOR
 10
0.0227
 20
-0.0716
 30
107.4607
 70
192
 0
VERTEX
 8
FULGOR
 10
0.0785
 20
-0.0716
 30
107.4487
 70
192
 0
VERTEX
 8
FULGOR
 10
0.3758
 20
-0.0716
 30
107.4521
 70
192
 0
VERTEX
 8
FULGOR
 10
0.5411
 20
-0.0716
 30
107.4839
 70
192
 0
VERTEX
 8
FULGOR
 10
0.1898
 20
-0.0716
 30
107.5408
 70
192
 0
VERTEX
 8
FULGOR
 10
0.1558
 20
-0.0716
 30
107.5435
 70
192
 0
VERTEX
 8
FULGOR
 10
0.5411
 20
-0.0716
 30
107.6979
 70
192
 0
VERTEX
 8
FULGOR
 10
0.0922
 20
-0.0716
 30
107.5577
 70
192
 0
VERTEX
 8
FULGOR
 10
0.0691
 20
-0.0716
 30
107.5667
 70
192
 0
VERTEX
 8
FULGOR
 10
0.3632
 20
-0.0716
 30
107.5512
 70
192
 0
VERTEX
 8
FULGOR
 10
0.343
 20
-0.0716
 30
107.5475
 70
192
 0
VERTEX
 8
FULGOR
 10
0.0158
 20
-0.0716
 30
107.6006
 70
192
 0
VERTEX
 8
FULGOR
 10
0.2873
 20
-0.0716
 30
107.5418
 70
192
 0
VERTEX
 8
FULGOR
 10
0.2463
 20
-0.0716
 30
107.5402
 70
192
 0
VERTEX
 8
FULGOR
 10
0.1231
 20
-0.0716
 30
107.5491
 70
192
 0
VERTEX
 8
FULGOR
 10
0.0479
 20
-0.0716
 30
107.5775
 70
192
 0
VERTEX
 8
FULGOR
 10
-0.0235
 20
-0.0716
 30
107.6629
 70
192
 0
VERTEX
 8
FULGOR
 10
-0.0258
 20
-0.0716
 30
107.6735
 70
192
 0
VERTEX
 8
FULGOR
 10
-0.0273
 20
-0.0716
 30
107.6844
 70
192
 0
VERTEX
 8
FULGOR
 10
-0.0278
 20
-0.0716
 30
107.6958
 70
192
 0
VERTEX
 8
FULGOR
 10
-0.0271
 20
-0.0716
 30
107.7072
 70
192
 0
VERTEX
 8
FULGOR
 10
0.0287
 20
-0.0716
 30
107.59
 70
192
 0
VERTEX
 8
FULGOR
 10
0.0043
 20
-0.0716
 30
107.6122
 70
192
 0
VERTEX
 8
FULGOR
 10
-0.0056
 20
-0.0716
 30
107.6247
 70
192
 0
VERTEX
 8
FULGOR
 10
-0.0131
 20
-0.0716
 30
107.7475
 70
192
 0
VERTEX
 8
FULGOR
 10
-0.007
 20
-0.0716
 30
107.7563
 70
192
 0
VERTEX
 8
FULGOR
 10
-0.0001
 20
-0.0716
 30
107.7646
 70
192
 0
VERTEX
 8
FULGOR
 10
-0.0138
 20
-0.0716
 30
107.6382
 70
192
 0
VERTEX
 8
FULGOR
 10
0.0251
 20
-0.0716
 30
107.7867
 70
192
 0
VERTEX
 8
FULGOR
 10
0.0397
 20
-0.0716
 30
107.7961
 70
192
 0
VERTEX
 8
FULGOR
 10
-0.0202
 20
-0.0716
 30
107.6527
 70
192
 0
VERTEX
 8
FULGOR
 10
0.089
 20
-0.0716
 30
107.8181
 70
192
 0
VERTEX
 8
FULGOR
 10
0.1181
 20
-0.0716
 30
107.8264
 70
192
 0
VERTEX
 8
FULGOR
 10
-0.0253
 20
-0.0716
 30
107.718
 70
192
 0
VERTEX
 8
FULGOR
 10
0.1691
 20
-0.0716
 30
107.8344
 70
192
 0
VERTEX
 8
FULGOR
 10
-0.0223
 20
-0.0716
 30
107.7284
 70
192
 0
VERTEX
 8
FULGOR
 10
0.2936
 20
-0.0716
 30
107.8303
 70
192
 0
VERTEX
 8
FULGOR
 10
-0.0182
 20
-0.0716
 30
107.7382
 70
192
 0
VERTEX
 8
FULGOR
 10
0.5411
 20
-0.0716
 30
107.7858
 70
192
 0
VERTEX
 8
FULGOR
 10
0.6982
 20
-0.0716
 30
107.6883
 70
192
 0
VERTEX
 8
FULGOR
 10
0.6995
 20
-0.0716
 30
107.666
 70
192
 0
VERTEX
 8
FULGOR
 10
0.0117
 20
-0.0716
 30
107.7762
 70
192
 0
VERTEX
 8
FULGOR
 10
0.0608
 20
-0.0716
 30
107.8071
 70
192
 0
VERTEX
 8
FULGOR
 10
0.7179
 20
-0.0716
 30
107.6065
 70
192
 0
VERTEX
 8
FULGOR
 10
0.7283
 20
-0.0716
 30
107.589
 70
192
 0
VERTEX
 8
FULGOR
 10
0.7407
 20
-0.0716
 30
107.5727
 70
192
 0
VERTEX
 8
FULGOR
 10
0.7548
 20
-0.0716
 30
107.5575
 70
192
 0
VERTEX
 8
FULGOR
 10
0.779
 20
-0.0716
 30
107.5366
 70
192
 0
VERTEX
 8
FULGOR
 10
0.1526
 20
-0.0716
 30
107.8327
 70
192
 0
VERTEX
 8
FULGOR
 10
0.1898
 20
-0.0716
 30
107.8353
 70
192
 0
VERTEX
 8
FULGOR
 10
0.3901
 20
-0.0716
 30
107.8165
 70
192
 0
VERTEX
 8
FULGOR
 10
0.7033
 20
-0.0716
 30
107.645
 70
192
 0
VERTEX
 8
FULGOR
 10
0.7095
 20
-0.0716
 30
107.6251
 70
192
 0
VERTEX
 8
FULGOR
 10
1.0785
 20
-0.0716
 30
107.4418
 70
192
 0
VERTEX
 8
FULGOR
 10
1.1433
 20
-0.0716
 30
107.4392
 70
192
 0
VERTEX
 8
FULGOR
 10
0.8063
 20
-0.0716
 30
107.5181
 70
192
 0
VERTEX
 8
FULGOR
 10
1.3018
 20
-0.0716
 30
107.4545
 70
192
 0
VERTEX
 8
FULGOR
 10
0.8363
 20
-0.0716
 30
107.5018
 70
192
 0
VERTEX
 8
FULGOR
 10
0.8795
 20
-0.0716
 30
107.4833
 70
192
 0
VERTEX
 8
FULGOR
 10
0.9371
 20
-0.0716
 30
107.4653
 70
192
 0
VERTEX
 8
FULGOR
 10
1.0085
 20
-0.0716
 30
107.4503
 70
192
 0
VERTEX
 8
FULGOR
 10
1.2194
 20
-0.0716
 30
107.4428
 70
192
 0
VERTEX
 8
FULGOR
 10
1.5388
 20
-0.0716
 30
107.565
 70
192
 0
VERTEX
 8
FULGOR
 10
1.3727
 20
-0.0716
 30
107.4719
 70
192
 0
VERTEX
 8
FULGOR
 10
1.4289
 20
-0.0716
 30
107.4922
 70
192
 0
VERTEX
 8
FULGOR
 10
1.4704
 20
-0.0716
 30
107.5125
 70
192
 0
VERTEX
 8
FULGOR
 10
1.4986
 20
-0.0716
 30
107.5302
 70
192
 0
VERTEX
 8
FULGOR
 10
1.5239
 20
-0.0716
 30
107.5503
 70
192
 0
VERTEX
 8
FULGOR
 10
1.5869
 20
-0.0716
 30
107.6659
 70
192
 0
VERTEX
 8
FULGOR
 10
1.5882
 20
-0.0716
 30
107.6881
 70
192
 0
VERTEX
 8
FULGOR
 10
1.587
 20
-0.0716
 30
107.7104
 70
192
 0
VERTEX
 8
FULGOR
 10
1.5832
 20
-0.0716
 30
107.7314
 70
192
 0
VERTEX
 8
FULGOR
 10
1.5521
 20
-0.0716
 30
107.5807
 70
192
 0
VERTEX
 8
FULGOR
 10
1.5635
 20
-0.0716
 30
107.5976
 70
192
 0
VERTEX
 8
FULGOR
 10
1.5729
 20
-0.0716
 30
107.6156
 70
192
 0
VERTEX
 8
FULGOR
 10
1.5459
 20
-0.0716
 30
107.8036
 70
192
 0
VERTEX
 8
FULGOR
 10
1.5318
 20
-0.0716
 30
107.8189
 70
192
 0
VERTEX
 8
FULGOR
 10
1.5077
 20
-0.0716
 30
107.8397
 70
192
 0
VERTEX
 8
FULGOR
 10
1.4803
 20
-0.0716
 30
107.8583
 70
192
 0
VERTEX
 8
FULGOR
 10
1.4504
 20
-0.0716
 30
107.8746
 70
192
 0
VERTEX
 8
FULGOR
 10
1.4071
 20
-0.0716
 30
107.8931
 70
192
 0
VERTEX
 8
FULGOR
 10
1.5802
 20
-0.0716
 30
107.6348
 70
192
 0
VERTEX
 8
FULGOR
 10
1.5853
 20
-0.0716
 30
107.6552
 70
192
 0
VERTEX
 8
FULGOR
 10
1.577
 20
-0.0716
 30
107.7512
 70
192
 0
VERTEX
 8
FULGOR
 10
1.5687
 20
-0.0716
 30
107.7698
 70
192
 0
VERTEX
 8
FULGOR
 10
1.0671
 20
-0.0716
 30
107.9338
 70
192
 0
VERTEX
 8
FULGOR
 10
1.5583
 20
-0.0716
 30
107.7873
 70
192
 0
VERTEX
 8
FULGOR
 10
1.3495
 20
-0.0716
 30
107.9112
 70
192
 0
VERTEX
 8
FULGOR
 10
1.2781
 20
-0.0716
 30
107.9263
 70
192
 0
VERTEX
 8
FULGOR
 10
1.208
 20
-0.0716
 30
107.9348
 70
192
 0
VERTEX
 8
FULGOR
 10
0.7876
 20
-0.0716
 30
107.8464
 70
192
 0
VERTEX
 8
FULGOR
 10
0.7623
 20
-0.0716
 30
107.8264
 70
192
 0
VERTEX
 8
FULGOR
 10
0.7474
 20
-0.0716
 30
107.8117
 70
192
 0
VERTEX
 8
FULGOR
 10
0.7341
 20
-0.0716
 30
107.7959
 70
192
 0
VERTEX
 8
FULGOR
 10
0.7227
 20
-0.0716
 30
107.779
 70
192
 0
VERTEX
 8
FULGOR
 10
0.7133
 20
-0.0716
 30
107.7609
 70
192
 0
VERTEX
 8
FULGOR
 10
0.706
 20
-0.0716
 30
107.7417
 70
192
 0
VERTEX
 8
FULGOR
 10
1.1433
 20
-0.0716
 30
107.9374
 70
192
 0
VERTEX
 8
FULGOR
 10
0.6995
 20
-0.0716
 30
107.7106
 70
192
 0
VERTEX
 8
FULGOR
 10
0.8981
 20
-0.0716
 30
107.6881
 70
192
 0
VERTEX
 8
FULGOR
 10
0.8987
 20
-0.0716
 30
107.6761
 70
192
 0
VERTEX
 8
FULGOR
 10
0.9846
 20
-0.0716
 30
107.9221
 70
192
 0
VERTEX
 8
FULGOR
 10
0.9136
 20
-0.0716
 30
107.9047
 70
192
 0
VERTEX
 8
FULGOR
 10
0.8574
 20
-0.0716
 30
107.8845
 70
192
 0
VERTEX
 8
FULGOR
 10
0.8159
 20
-0.0716
 30
107.8642
 70
192
 0
VERTEX
 8
FULGOR
 10
0.7011
 20
-0.0716
 30
107.7213
 70
192
 0
VERTEX
 8
FULGOR
 10
0.9227
 20
-0.0716
 30
107.6152
 70
192
 0
VERTEX
 8
FULGOR
 10
0.9298
 20
-0.0716
 30
107.6069
 70
192
 0
VERTEX
 8
FULGOR
 10
0.9002
 20
-0.0716
 30
107.6646
 70
192
 0
VERTEX
 8
FULGOR
 10
0.9028
 20
-0.0716
 30
107.6536
 70
192
 0
VERTEX
 8
FULGOR
 10
0.9064
 20
-0.0716
 30
107.6432
 70
192
 0
VERTEX
 8
FULGOR
 10
0.9109
 20
-0.0716
 30
107.6333
 70
192
 0
VERTEX
 8
FULGOR
 10
1.0188
 20
-0.0716
 30
107.5569
 70
192
 0
VERTEX
 8
FULGOR
 10
1.0528
 20
-0.0716
 30
107.5488
 70
192
 0
VERTEX
 8
FULGOR
 10
0.9164
 20
-0.0716
 30
107.624
 70
192
 0
VERTEX
 8
FULGOR
 10
1.1433
 20
-0.0716
 30
107.5409
 70
192
 0
VERTEX
 8
FULGOR
 10
1.1974
 20
-0.0716
 30
107.5436
 70
192
 0
VERTEX
 8
FULGOR
 10
0.9419
 20
-0.0716
 30
107.5954
 70
192
 0
VERTEX
 8
FULGOR
 10
1.2741
 20
-0.0716
 30
107.5589
 70
192
 0
VERTEX
 8
FULGOR
 10
1.2986
 20
-0.0716
 30
107.5679
 70
192
 0
VERTEX
 8
FULGOR
 10
1.3207
 20
-0.0716
 30
107.5789
 70
192
 0
VERTEX
 8
FULGOR
 10
0.9558
 20
-0.0716
 30
107.5851
 70
192
 0
VERTEX
 8
FULGOR
 10
1.3489
 20
-0.0716
 30
107.5992
 70
192
 0
VERTEX
 8
FULGOR
 10
0.9712
 20
-0.0716
 30
107.5759
 70
192
 0
VERTEX
 8
FULGOR
 10
0.9939
 20
-0.0716
 30
107.5654
 70
192
 0
VERTEX
 8
FULGOR
 10
1.3731
 20
-0.0716
 30
107.6286
 70
192
 0
VERTEX
 8
FULGOR
 10
1.0967
 20
-0.0716
 30
107.5429
 70
192
 0
VERTEX
 8
FULGOR
 10
1.2408
 20
-0.0716
 30
107.5502
 70
192
 0
VERTEX
 8
FULGOR
 10
1.3356
 20
-0.0716
 30
107.5885
 70
192
 0
VERTEX
 8
FULGOR
 10
1.3873
 20
-0.0716
 30
107.6703
 70
192
 0
VERTEX
 8
FULGOR
 10
1.388
 20
-0.0716
 30
107.6761
 70
192
 0
VERTEX
 8
FULGOR
 10
1.3885
 20
-0.0716
 30
107.6881
 70
192
 0
VERTEX
 8
FULGOR
 10
1.388
 20
-0.0716
 30
107.7002
 70
192
 0
VERTEX
 8
FULGOR
 10
1.3605
 20
-0.0716
 30
107.611
 70
192
 0
VERTEX
 8
FULGOR
 10
1.3672
 20
-0.0716
 30
107.6196
 70
192
 0
VERTEX
 8
FULGOR
 10
1.3802
 20
-0.0716
 30
107.733
 70
192
 0
VERTEX
 8
FULGOR
 10
1.3756
 20
-0.0716
 30
107.7429
 70
192
 0
VERTEX
 8
FULGOR
 10
1.378
 20
-0.0716
 30
107.6382
 70
192
 0
VERTEX
 8
FULGOR
 10
1.3821
 20
-0.0716
 30
107.6484
 70
192
 0
VERTEX
 8
FULGOR
 10
1.3568
 20
-0.0716
 30
107.7692
 70
192
 0
VERTEX
 8
FULGOR
 10
1.3852
 20
-0.0716
 30
107.6591
 70
192
 0
VERTEX
 8
FULGOR
 10
1.3864
 20
-0.0716
 30
107.7117
 70
192
 0
VERTEX
 8
FULGOR
 10
1.3153
 20
-0.0716
 30
107.8001
 70
192
 0
VERTEX
 8
FULGOR
 10
1.2926
 20
-0.0716
 30
107.8105
 70
192
 0
VERTEX
 8
FULGOR
 10
1.3838
 20
-0.0716
 30
107.7226
 70
192
 0
VERTEX
 8
FULGOR
 10
1.3702
 20
-0.0716
 30
107.7522
 70
192
 0
VERTEX
 8
FULGOR
 10
1.3639
 20
-0.0716
 30
107.761
 70
192
 0
VERTEX
 8
FULGOR
 10
1.3446
 20
-0.0716
 30
107.7807
 70
192
 0
VERTEX
 8
FULGOR
 10
1.0892
 20
-0.0716
 30
107.8323
 70
192
 0
VERTEX
 8
FULGOR
 10
1.0458
 20
-0.0716
 30
107.8258
 70
192
 0
VERTEX
 8
FULGOR
 10
1.0125
 20
-0.0716
 30
107.8172
 70
192
 0
VERTEX
 8
FULGOR
 10
1.3307
 20
-0.0716
 30
107.7909
 70
192
 0
VERTEX
 8
FULGOR
 10
1.2676
 20
-0.0716
 30
107.8191
 70
192
 0
VERTEX
 8
FULGOR
 10
1.2337
 20
-0.0716
 30
107.8271
 70
192
 0
VERTEX
 8
FULGOR
 10
1.1898
 20
-0.0716
 30
107.833
 70
192
 0
VERTEX
 8
FULGOR
 10
1.1433
 20
-0.0716
 30
107.8349
 70
192
 0
VERTEX
 8
FULGOR
 10
0.9881
 20
-0.0716
 30
107.8082
 70
192
 0
VERTEX
 8
FULGOR
 10
0.9659
 20
-0.0716
 30
107.7972
 70
192
 0
VERTEX
 8
FULGOR
 10
0.9511
 20
-0.0716
 30
107.7877
 70
192
 0
VERTEX
 8
FULGOR
 10
0.9377
 20
-0.0716
 30
107.7771
 70
192
 0
VERTEX
 8
FULGOR
 10
0.9262
 20
-0.0716
 30
107.7653
 70
192
 0
VERTEX
 8
FULGOR
 10
0.9194
 20
-0.0716
 30
107.7567
 70
192
 0
VERTEX
 8
FULGOR
 10
0.9136
 20
-0.0716
 30
107.7477
 70
192
 0
VERTEX
 8
FULGOR
 10
0.9086
 20
-0.0716
 30
107.7381
 70
192
 0
VERTEX
 8
FULGOR
 10
0.9045
 20
-0.0716
 30
107.728
 70
192
 0
VERTEX
 8
FULGOR
 10
0.9014
 20
-0.0716
 30
107.7173
 70
192
 0
VERTEX
 8
FULGOR
 10
1.9942
 20
-0.0716
 30
107.6496
 70
192
 0
VERTEX
 8
FULGOR
 10
0.8993
 20
-0.0716
 30
107.706
 70
192
 0
VERTEX
 8
FULGOR
 10
0.8987
 20
-0.0716
 30
107.7002
 70
192
 0
VERTEX
 8
FULGOR
 10
1.7453
 20
-0.0716
 30
107.4377
 70
192
 0
VERTEX
 8
FULGOR
 10
1.9
 20
-0.0716
 30
107.4377
 70
192
 0
VERTEX
 8
FULGOR
 10
1.9001
 20
-0.0716
 30
107.6496
 70
192
 0
VERTEX
 8
FULGOR
 10
2.1034
 20
-0.0716
 30
107.5994
 70
192
 0
VERTEX
 8
FULGOR
 10
2.1154
 20
-0.0716
 30
107.5866
 70
192
 0
VERTEX
 8
FULGOR
 10
2.2241
 20
-0.0716
 30
107.4377
 70
192
 0
VERTEX
 8
FULGOR
 10
2.5002
 20
-0.0716
 30
107.4377
 70
192
 0
VERTEX
 8
FULGOR
 10
2.4631
 20
-0.0716
 30
107.4571
 70
192
 0
VERTEX
 8
FULGOR
 10
2.0454
 20
-0.0716
 30
107.6392
 70
192
 0
VERTEX
 8
FULGOR
 10
2.0581
 20
-0.0716
 30
107.6333
 70
192
 0
VERTEX
 8
FULGOR
 10
2.4093
 20
-0.0716
 30
107.4942
 70
192
 0
VERTEX
 8
FULGOR
 10
2.369
 20
-0.0716
 30
107.5318
 70
192
 0
VERTEX
 8
FULGOR
 10
1.7453
 20
-0.0716
 30
107.7386
 70
192
 0
VERTEX
 8
FULGOR
 10
2.3178
 20
-0.0716
 30
107.6009
 70
192
 0
VERTEX
 8
FULGOR
 10
2.2929
 20
-0.0716
 30
107.6291
 70
192
 0
VERTEX
 8
FULGOR
 10
2.2692
 20
-0.0716
 30
107.6492
 70
192
 0
VERTEX
 8
FULGOR
 10
2.0882
 20
-0.0716
 30
107.6131
 70
192
 0
VERTEX
 8
FULGOR
 10
1.2618
 20
-0.0716
 30
107.4488
 70
192
 0
VERTEX
 8
FULGOR
 10
2.2125
 20
-0.0716
 30
107.6797
 70
192
 0
VERTEX
 8
FULGOR
 10
2.4319
 20
-0.0716
 30
107.4766
 70
192
 0
VERTEX
 8
FULGOR
 10
2.2875
 20
-0.0716
 30
107.7112
 70
192
 0
VERTEX
 8
FULGOR
 10
2.2465
 20
-0.0716
 30
107.6641
 70
192
 0
VERTEX
 8
FULGOR
 10
2.3139
 20
-0.0716
 30
107.7329
 70
192
 0
VERTEX
 8
FULGOR
 10
2.229
 20
-0.0716
 30
107.6734
 70
192
 0
VERTEX
 8
FULGOR
 10
2.3388
 20
-0.0716
 30
107.7714
 70
192
 0
VERTEX
 8
FULGOR
 10
2.3443
 20
-0.0716
 30
107.7927
 70
192
 0
VERTEX
 8
FULGOR
 10
2.2485
 20
-0.0716
 30
107.6911
 70
192
 0
VERTEX
 8
FULGOR
 10
2.342
 20
-0.0716
 30
107.834
 70
192
 0
VERTEX
 8
FULGOR
 10
2.3328
 20
-0.0716
 30
107.8545
 70
192
 0
VERTEX
 8
FULGOR
 10
2.3186
 20
-0.0716
 30
107.8723
 70
192
 0
VERTEX
 8
FULGOR
 10
2.2952
 20
-0.0716
 30
107.891
 70
192
 0
VERTEX
 8
FULGOR
 10
2.3295
 20
-0.0716
 30
107.7527
 70
192
 0
VERTEX
 8
FULGOR
 10
2.1817
 20
-0.0716
 30
107.9306
 70
192
 0
VERTEX
 8
FULGOR
 10
2.1364
 20
-0.0716
 30
107.9366
 70
192
 0
VERTEX
 8
FULGOR
 10
2.3454
 20
-0.0716
 30
107.8106
 70
192
 0
VERTEX
 8
FULGOR
 10
1.9001
 20
-0.0716
 30
107.8497
 70
192
 0
VERTEX
 8
FULGOR
 10
2.2545
 20
-0.0716
 30
107.9112
 70
192
 0
VERTEX
 8
FULGOR
 10
2.092
 20
-0.0716
 30
107.9389
 70
192
 0
VERTEX
 8
FULGOR
 10
1.7453
 20
-0.0716
 30
107.9389
 70
192
 0
VERTEX
 8
FULGOR
 10
1.9001
 20
-0.0716
 30
107.7388
 70
192
 0
VERTEX
 8
FULGOR
 10
2.0412
 20
-0.0716
 30
107.7386
 70
192
 0
VERTEX
 8
FULGOR
 10
2.0813
 20
-0.0716
 30
107.7419
 70
192
 0
VERTEX
 8
FULGOR
 10
2.1267
 20
-0.0716
 30
107.7582
 70
192
 0
VERTEX
 8
FULGOR
 10
2.1367
 20
-0.0716
 30
107.7663
 70
192
 0
VERTEX
 8
FULGOR
 10
2.1428
 20
-0.0716
 30
107.7741
 70
192
 0
VERTEX
 8
FULGOR
 10
2.1484
 20
-0.0716
 30
107.8014
 70
192
 0
VERTEX
 8
FULGOR
 10
2.1457
 20
-0.0716
 30
107.8112
 70
192
 0
VERTEX
 8
FULGOR
 10
2.0731
 20
-0.0716
 30
107.848
 70
192
 0
VERTEX
 8
FULGOR
 10
2.1234
 20
-0.0716
 30
107.834
 70
192
 0
VERTEX
 8
FULGOR
 10
2.0554
 20
-0.0716
 30
107.8494
 70
192
 0
VERTEX
 8
FULGOR
 10
2.1053
 20
-0.0716
 30
107.8415
 70
192
 0
VERTEX
 8
FULGOR
 10
2.091
 20
-0.0716
 30
107.8451
 70
192
 0
VERTEX
 8
FULGOR
 10
0.9723
 20
-0.0716
 30
107.4579
 70
192
 0
VERTEX
 8
FULGOR
 10
0.9113
 20
-0.0716
 30
107.4734
 70
192
 0
VERTEX
 8
FULGOR
 10
2.0364
 20
-0.0716
 30
107.8497
 70
192
 0
VERTEX
 8
FULGOR
 10
2.0333
 20
-0.0716
 30
107.9389
 70
192
 0
VERTEX
 8
FULGOR
 10
2.1405
 20
-0.0716
 30
107.8196
 70
192
 0
VERTEX
 8
FULGOR
 10
2.1338
 20
-0.0716
 30
107.8267
 70
192
 0
VERTEX
 8
FULGOR
 10
2.1486
 20
-0.0716
 30
107.7919
 70
192
 0
VERTEX
 8
FULGOR
 10
2.1469
 20
-0.0716
 30
107.7829
 70
192
 0
VERTEX
 8
FULGOR
 10
1.9941
 20
-0.0716
 30
107.7387
 70
192
 0
VERTEX
 8
FULGOR
 10
2.2185
 20
-0.0716
 30
107.4455
 70
192
 0
VERTEX
 8
FULGOR
 10
2.2105
 20
-0.0716
 30
107.4565
 70
192
 0
VERTEX
 8
FULGOR
 10
0.139
 20
-0.0716
 30
107.5464
 70
192
 0
VERTEX
 8
FULGOR
 10
2.1963
 20
-0.0716
 30
107.4761
 70
192
 0
VERTEX
 8
FULGOR
 10
2.1831
 20
-0.0716
 30
107.4944
 70
192
 0
VERTEX
 8
FULGOR
 10
0.1722
 20
-0.0716
 30
107.5422
 70
192
 0
VERTEX
 8
FULGOR
 10
1.7453
 20
-0.0716
 30
107.6494
 70
192
 0
VERTEX
 8
FULGOR
 10
2.1476
 20
-0.0716
 30
107.5434
 70
192
 0
VERTEX
 8
FULGOR
 10
2.1343
 20
-0.0716
 30
107.5618
 70
192
 0
VERTEX
 8
FULGOR
 10
0
 20
0
 30
0
 70
128
 71
244
 72
245
 73
188
 74
3
 0
VERTEX
 8
FULGOR
 10
0
 20
0
 30
0
 70
128
 71
137
 72
135
 73
127
 74
120
 0
VERTEX
 8
FULGOR
 10
0
 20
0
 30
0
 70
128
 71
287
 72
288
 73
220
 74
219
 0
VERTEX
 8
FULGOR
 10
0
 20
0
 30
0
 70
128
 71
135
 72
134
 73
128
 74
127
 0
VERTEX
 8
FULGOR
 10
0
 20
0
 30
0
 70
128
 71
145
 72
144
 73
106
 74
99
 0
VERTEX
 8
FULGOR
 10
0
 20
0
 30
0
 70
128
 71
152
 72
148
 73
115
 74
112
 0
VERTEX
 8
FULGOR
 10
0
 20
0
 30
0
 70
128
 71
288
 72
289
 73
221
 74
220
 0
VERTEX
 8
FULGOR
 10
0
 20
0
 30
0
 70
128
 71
155
 72
152
 73
112
 74
109
 0
VERTEX
 8
FULGOR
 10
0
 20
0
 30
0
 70
128
 71
141
 72
155
 73
109
 74
103
 0
VERTEX
 8
FULGOR
 10
0
 20
0
 30
0
 70
128
 71
289
 72
290
 73
230
 74
221
 0
VERTEX
 8
FULGOR
 10
0
 20
0
 30
0
 70
128
 71
290
 72
292
 73
223
 74
230
 0
VERTEX
 8
FULGOR
 10
0
 20
0
 30
0
 70
128
 71
142
 72
141
 73
103
 74
108
 0
VERTEX
 8
FULGOR
 10
0
 20
0
 30
0
 70
128
 71
143
 72
142
 73
108
 74
107
 0
VERTEX
 8
FULGOR
 10
0
 20
0
 30
0
 70
128
 71
144
 72
143
 73
107
 74
106
 0
VERTEX
 8
FULGOR
 10
0
 20
0
 30
0
 70
128
 71
254
 72
255
 73
207
 74
206
 0
VERTEX
 8
FULGOR
 10
0
 20
0
 30
0
 70
128
 71
265
 72
254
 73
206
 74
199
 0
VERTEX
 8
FULGOR
 10
0
 20
0
 30
0
 70
128
 71
263
 72
265
 73
199
 74
198
 0
VERTEX
 8
FULGOR
 10
0
 20
0
 30
0
 70
128
 71
251
 72
240
 73
179
 74
178
 0
VERTEX
 8
FULGOR
 10
0
 20
0
 30
0
 70
128
 71
5
 72
8
 73
7
 74
6
 0
VERTEX
 8
FULGOR
 10
0
 20
0
 30
0
 70
128
 71
8
 72
5
 73
4
 74
4
 0
VERTEX
 8
FULGOR
 10
0
 20
0
 30
0
 70
128
 71
8
 72
4
 73
13
 74
2
 0
VERTEX
 8
FULGOR
 10
0
 20
0
 30
0
 70
128
 71
237
 72
238
 73
185
 74
346
 0
VERTEX
 8
FULGOR
 10
0
 20
0
 30
0
 70
128
 71
339
 72
340
 73
321
 74
328
 0
VERTEX
 8
FULGOR
 10
0
 20
0
 30
0
 70
128
 71
161
 72
174
 73
84
 74
89
 0
VERTEX
 8
FULGOR
 10
0
 20
0
 30
0
 70
128
 71
174
 72
159
 73
90
 74
84
 0
VERTEX
 8
FULGOR
 10
0
 20
0
 30
0
 70
128
 71
249
 72
237
 73
346
 74
184
 0
VERTEX
 8
FULGOR
 10
0
 20
0
 30
0
 70
128
 71
248
 72
249
 73
184
 74
347
 0
VERTEX
 8
FULGOR
 10
0
 20
0
 30
0
 70
128
 71
159
 72
173
 73
95
 74
90
 0
VERTEX
 8
FULGOR
 10
0
 20
0
 30
0
 70
128
 71
173
 72
157
 73
96
 74
95
 0
VERTEX
 8
FULGOR
 10
0
 20
0
 30
0
 70
128
 71
246
 72
248
 73
347
 74
183
 0
VERTEX
 8
FULGOR
 10
0
 20
0
 30
0
 70
128
 71
362
 72
307
 73
305
 74
359
 0
VERTEX
 8
FULGOR
 10
0
 20
0
 30
0
 70
128
 71
151
 72
150
 73
94
 74
93
 0
VERTEX
 8
FULGOR
 10
0
 20
0
 30
0
 70
128
 71
353
 72
352
 73
319
 74
318
 0
VERTEX
 8
FULGOR
 10
0
 20
0
 30
0
 70
128
 71
175
 72
161
 73
89
 74
88
 0
VERTEX
 8
FULGOR
 10
0
 20
0
 30
0
 70
128
 71
253
 72
247
 73
190
 74
189
 0
VERTEX
 8
FULGOR
 10
0
 20
0
 30
0
 70
128
 71
153
 72
166
 73
92
 74
91
 0
VERTEX
 8
FULGOR
 10
0
 20
0
 30
0
 70
128
 71
166
 72
151
 73
93
 74
92
 0
VERTEX
 8
FULGOR
 10
0
 20
0
 30
0
 70
128
 71
273
 72
274
 73
226
 74
210
 0
VERTEX
 8
FULGOR
 10
0
 20
0
 30
0
 70
128
 71
163
 72
175
 73
88
 74
81
 0
VERTEX
 8
FULGOR
 10
0
 20
0
 30
0
 70
128
 71
167
 72
154
 73
101
 74
100
 0
VERTEX
 8
FULGOR
 10
0
 20
0
 30
0
 70
128
 71
154
 72
153
 73
91
 74
101
 0
VERTEX
 8
FULGOR
 10
0
 20
0
 30
0
 70
128
 71
274
 72
275
 73
227
 74
226
 0
VERTEX
 8
FULGOR
 10
0
 20
0
 30
0
 70
128
 71
13
 72
12
 73
2
 74
2
 0
VERTEX
 8
FULGOR
 10
0
 20
0
 30
0
 70
128
 71
13
 72
4
 73
15
 74
14
 0
VERTEX
 8
FULGOR
 10
0
 20
0
 30
0
 70
128
 71
16
 72
74
 73
73
 74
9
 0
VERTEX
 8
FULGOR
 10
0
 20
0
 30
0
 70
128
 71
73
 72
72
 73
10
 74
9
 0
VERTEX
 8
FULGOR
 10
0
 20
0
 30
0
 70
128
 71
72
 72
82
 73
11
 74
10
 0
VERTEX
 8
FULGOR
 10
0
 20
0
 30
0
 70
128
 71
82
 72
70
 73
18
 74
17
 0
VERTEX
 8
FULGOR
 10
0
 20
0
 30
0
 70
128
 71
58
 72
57
 73
40
 74
39
 0
VERTEX
 8
FULGOR
 10
0
 20
0
 30
0
 70
128
 71
82
 72
17
 73
11
 74
11
 0
VERTEX
 8
FULGOR
 10
0
 20
0
 30
0
 70
128
 71
43
 72
58
 73
39
 74
38
 0
VERTEX
 8
FULGOR
 10
0
 20
0
 30
0
 70
128
 71
70
 72
69
 73
20
 74
19
 0
VERTEX
 8
FULGOR
 10
0
 20
0
 30
0
 70
128
 71
70
 72
19
 73
18
 74
18
 0
VERTEX
 8
FULGOR
 10
0
 20
0
 30
0
 70
128
 71
69
 72
68
 73
27
 74
20
 0
VERTEX
 8
FULGOR
 10
0
 20
0
 30
0
 70
128
 71
68
 72
67
 73
29
 74
27
 0
VERTEX
 8
FULGOR
 10
0
 20
0
 30
0
 70
128
 71
67
 72
66
 73
30
 74
29
 0
VERTEX
 8
FULGOR
 10
0
 20
0
 30
0
 70
128
 71
66
 72
78
 73
31
 74
30
 0
VERTEX
 8
FULGOR
 10
0
 20
0
 30
0
 70
128
 71
78
 72
77
 73
32
 74
31
 0
VERTEX
 8
FULGOR
 10
0
 20
0
 30
0
 70
128
 71
32
 72
77
 73
76
 74
21
 0
VERTEX
 8
FULGOR
 10
0
 20
0
 30
0
 70
128
 71
76
 72
62
 73
21
 74
21
 0
VERTEX
 8
FULGOR
 10
0
 20
0
 30
0
 70
128
 71
62
 72
61
 73
22
 74
21
 0
VERTEX
 8
FULGOR
 10
0
 20
0
 30
0
 70
128
 71
61
 72
75
 73
22
 74
22
 0
VERTEX
 8
FULGOR
 10
0
 20
0
 30
0
 70
128
 71
75
 72
59
 73
23
 74
22
 0
VERTEX
 8
FULGOR
 10
0
 20
0
 30
0
 70
128
 71
23
 72
59
 73
71
 74
24
 0
VERTEX
 8
FULGOR
 10
0
 20
0
 30
0
 70
128
 71
275
 72
281
 73
228
 74
227
 0
VERTEX
 8
FULGOR
 10
0
 20
0
 30
0
 70
128
 71
157
 72
156
 73
97
 74
96
 0
VERTEX
 8
FULGOR
 10
0
 20
0
 30
0
 70
128
 71
291
 72
296
 73
333
 74
354
 0
VERTEX
 8
FULGOR
 10
0
 20
0
 30
0
 70
128
 71
281
 72
282
 73
229
 74
228
 0
VERTEX
 8
FULGOR
 10
0
 20
0
 30
0
 70
128
 71
282
 72
283
 73
215
 74
229
 0
VERTEX
 8
FULGOR
 10
0
 20
0
 30
0
 70
128
 71
283
 72
284
 73
216
 74
215
 0
VERTEX
 8
FULGOR
 10
0
 20
0
 30
0
 70
128
 71
129
 72
1
 73
118
 74
117
 0
VERTEX
 8
FULGOR
 10
0
 20
0
 30
0
 70
128
 71
238
 72
251
 73
178
 74
185
 0
VERTEX
 8
FULGOR
 10
0
 20
0
 30
0
 70
128
 71
245
 72
253
 73
189
 74
188
 0
VERTEX
 8
FULGOR
 10
0
 20
0
 30
0
 70
128
 71
337
 72
338
 73
325
 74
316
 0
VERTEX
 8
FULGOR
 10
0
 20
0
 30
0
 70
128
 71
336
 72
337
 73
316
 74
314
 0
VERTEX
 8
FULGOR
 10
0
 20
0
 30
0
 70
128
 71
241
 72
252
 73
311
 74
186
 0
VERTEX
 8
FULGOR
 10
0
 20
0
 30
0
 70
128
 71
24
 72
71
 73
65
 74
25
 0
VERTEX
 8
FULGOR
 10
0
 20
0
 30
0
 70
128
 71
65
 72
64
 73
25
 74
25
 0
VERTEX
 8
FULGOR
 10
0
 20
0
 30
0
 70
128
 71
156
 72
167
 73
100
 74
97
 0
VERTEX
 8
FULGOR
 10
0
 20
0
 30
0
 70
128
 71
149
 72
162
 73
104
 74
102
 0
VERTEX
 8
FULGOR
 10
0
 20
0
 30
0
 70
128
 71
64
 72
63
 73
26
 74
25
 0
VERTEX
 8
FULGOR
 10
0
 20
0
 30
0
 70
128
 71
162
 72
160
 73
105
 74
104
 0
VERTEX
 8
FULGOR
 10
0
 20
0
 30
0
 70
128
 71
63
 72
60
 73
26
 74
26
 0
VERTEX
 8
FULGOR
 10
0
 20
0
 30
0
 70
128
 71
266
 72
269
 73
196
 74
195
 0
VERTEX
 8
FULGOR
 10
0
 20
0
 30
0
 70
128
 71
360
 72
129
 73
117
 74
126
 0
VERTEX
 8
FULGOR
 10
0
 20
0
 30
0
 70
128
 71
60
 72
53
 73
34
 74
26
 0
VERTEX
 8
FULGOR
 10
0
 20
0
 30
0
 70
128
 71
53
 72
52
 73
34
 74
34
 0
VERTEX
 8
FULGOR
 10
0
 20
0
 30
0
 70
128
 71
52
 72
51
 73
28
 74
34
 0
VERTEX
 8
FULGOR
 10
0
 20
0
 30
0
 70
128
 71
51
 72
50
 73
35
 74
28
 0
VERTEX
 8
FULGOR
 10
0
 20
0
 30
0
 70
128
 71
50
 72
49
 73
36
 74
35
 0
VERTEX
 8
FULGOR
 10
0
 20
0
 30
0
 70
128
 71
36
 72
49
 73
48
 74
37
 0
VERTEX
 8
FULGOR
 10
0
 20
0
 30
0
 70
128
 71
44
 72
43
 73
38
 74
56
 0
VERTEX
 8
FULGOR
 10
0
 20
0
 30
0
 70
128
 71
37
 72
48
 73
47
 74
41
 0
VERTEX
 8
FULGOR
 10
0
 20
0
 30
0
 70
128
 71
33
 72
47
 73
46
 74
42
 0
VERTEX
 8
FULGOR
 10
0
 20
0
 30
0
 70
128
 71
45
 72
55
 73
54
 74
54
 0
VERTEX
 8
FULGOR
 10
0
 20
0
 30
0
 70
128
 71
47
 72
33
 73
41
 74
41
 0
VERTEX
 8
FULGOR
 10
0
 20
0
 30
0
 70
128
 71
42
 72
46
 73
45
 74
54
 0
VERTEX
 8
FULGOR
 10
0
 20
0
 30
0
 70
128
 71
55
 72
45
 73
44
 74
56
 0
VERTEX
 8
FULGOR
 10
0
 20
0
 30
0
 70
128
 71
83
 72
80
 73
79
 74
85
 0
VERTEX
 8
FULGOR
 10
0
 20
0
 30
0
 70
128
 71
79
 72
87
 73
86
 74
85
 0
VERTEX
 8
FULGOR
 10
0
 20
0
 30
0
 70
128
 71
134
 72
124
 73
131
 74
128
 0
VERTEX
 8
FULGOR
 10
0
 20
0
 30
0
 70
128
 71
334
 72
335
 73
320
 74
312
 0
VERTEX
 8
FULGOR
 10
0
 20
0
 30
0
 70
128
 71
308
 72
307
 73
362
 74
363
 0
VERTEX
 8
FULGOR
 10
0
 20
0
 30
0
 70
128
 71
139
 72
357
 73
114
 74
113
 0
VERTEX
 8
FULGOR
 10
0
 20
0
 30
0
 70
128
 71
305
 72
304
 73
358
 74
359
 0
VERTEX
 8
FULGOR
 10
0
 20
0
 30
0
 70
128
 71
335
 72
336
 73
314
 74
320
 0
VERTEX
 8
FULGOR
 10
0
 20
0
 30
0
 70
128
 71
355
 72
356
 73
313
 74
301
 0
VERTEX
 8
FULGOR
 10
0
 20
0
 30
0
 70
128
 71
301
 72
300
 73
299
 74
355
 0
VERTEX
 8
FULGOR
 10
0
 20
0
 30
0
 70
128
 71
352
 72
339
 73
328
 74
319
 0
VERTEX
 8
FULGOR
 10
0
 20
0
 30
0
 70
128
 71
343
 72
348
 73
349
 74
331
 0
VERTEX
 8
FULGOR
 10
0
 20
0
 30
0
 70
128
 71
342
 72
344
 73
330
 74
324
 0
VERTEX
 8
FULGOR
 10
0
 20
0
 30
0
 70
128
 71
262
 72
263
 73
198
 74
197
 0
VERTEX
 8
FULGOR
 10
0
 20
0
 30
0
 70
128
 71
303
 72
312
 73
317
 74
310
 0
VERTEX
 8
FULGOR
 10
0
 20
0
 30
0
 70
128
 71
250
 72
262
 73
197
 74
187
 0
VERTEX
 8
FULGOR
 10
0
 20
0
 30
0
 70
128
 71
291
 72
354
 73
334
 74
302
 0
VERTEX
 8
FULGOR
 10
0
 20
0
 30
0
 70
128
 71
341
 72
343
 73
331
 74
327
 0
VERTEX
 8
FULGOR
 10
0
 20
0
 30
0
 70
128
 71
150
 72
149
 73
102
 74
94
 0
VERTEX
 8
FULGOR
 10
0
 20
0
 30
0
 70
128
 71
1
 72
138
 73
119
 74
118
 0
VERTEX
 8
FULGOR
 10
0
 20
0
 30
0
 70
128
 71
338
 72
353
 73
318
 74
325
 0
VERTEX
 8
FULGOR
 10
0
 20
0
 30
0
 70
128
 71
280
 72
273
 73
210
 74
222
 0
VERTEX
 8
FULGOR
 10
0
 20
0
 30
0
 70
128
 71
285
 72
286
 73
218
 74
217
 0
VERTEX
 8
FULGOR
 10
0
 20
0
 30
0
 70
128
 71
160
 72
158
 73
98
 74
105
 0
VERTEX
 8
FULGOR
 10
0
 20
0
 30
0
 70
128
 71
138
 72
137
 73
120
 74
119
 0
VERTEX
 8
FULGOR
 10
0
 20
0
 30
0
 70
128
 71
286
 72
287
 73
219
 74
218
 0
VERTEX
 8
FULGOR
 10
0
 20
0
 30
0
 70
128
 71
261
 72
270
 73
211
 74
209
 0
VERTEX
 8
FULGOR
 10
0
 20
0
 30
0
 70
128
 71
348
 72
329
 73
332
 74
349
 0
VERTEX
 8
FULGOR
 10
0
 20
0
 30
0
 70
128
 71
329
 72
333
 73
306
 74
332
 0
VERTEX
 8
FULGOR
 10
0
 20
0
 30
0
 70
128
 71
333
 72
296
 73
361
 74
306
 0
VERTEX
 8
FULGOR
 10
0
 20
0
 30
0
 70
128
 71
296
 72
295
 73
294
 74
361
 0
VERTEX
 8
FULGOR
 10
0
 20
0
 30
0
 70
128
 71
358
 72
304
 73
313
 74
356
 0
VERTEX
 8
FULGOR
 10
0
 20
0
 30
0
 70
128
 71
148
 72
147
 73
116
 74
115
 0
VERTEX
 8
FULGOR
 10
0
 20
0
 30
0
 70
128
 71
158
 72
145
 73
99
 74
98
 0
VERTEX
 8
FULGOR
 10
0
 20
0
 30
0
 70
128
 71
260
 72
261
 73
209
 74
208
 0
VERTEX
 8
FULGOR
 10
0
 20
0
 30
0
 70
128
 71
269
 72
260
 73
208
 74
196
 0
VERTEX
 8
FULGOR
 10
0
 20
0
 30
0
 70
128
 71
276
 72
267
 73
204
 74
203
 0
VERTEX
 8
FULGOR
 10
0
 20
0
 30
0
 70
128
 71
232
 72
242
 73
182
 74
180
 0
VERTEX
 8
FULGOR
 10
0
 20
0
 30
0
 70
128
 71
242
 72
246
 73
183
 74
182
 0
VERTEX
 8
FULGOR
 10
0
 20
0
 30
0
 70
128
 71
272
 72
276
 73
203
 74
202
 0
VERTEX
 8
FULGOR
 10
0
 20
0
 30
0
 70
128
 71
264
 72
272
 73
202
 74
201
 0
VERTEX
 8
FULGOR
 10
0
 20
0
 30
0
 70
128
 71
240
 72
241
 73
186
 74
179
 0
VERTEX
 8
FULGOR
 10
0
 20
0
 30
0
 70
128
 71
147
 72
136
 73
121
 74
116
 0
VERTEX
 8
FULGOR
 10
0
 20
0
 30
0
 70
128
 71
340
 72
350
 73
322
 74
321
 0
VERTEX
 8
FULGOR
 10
0
 20
0
 30
0
 70
128
 71
303
 72
302
 73
334
 74
312
 0
VERTEX
 8
FULGOR
 10
0
 20
0
 30
0
 70
128
 71
345
 72
341
 73
327
 74
326
 0
VERTEX
 8
FULGOR
 10
0
 20
0
 30
0
 70
128
 71
252
 72
243
 73
181
 74
311
 0
VERTEX
 8
FULGOR
 10
0
 20
0
 30
0
 70
128
 71
344
 72
345
 73
326
 74
330
 0
VERTEX
 8
FULGOR
 10
0
 20
0
 30
0
 70
128
 71
231
 72
232
 73
180
 74
172
 0
VERTEX
 8
FULGOR
 10
0
 20
0
 30
0
 70
128
 71
257
 72
266
 73
195
 74
194
 0
VERTEX
 8
FULGOR
 10
0
 20
0
 30
0
 70
128
 71
256
 72
257
 73
194
 74
193
 0
VERTEX
 8
FULGOR
 10
0
 20
0
 30
0
 70
128
 71
297
 72
310
 73
317
 74
315
 0
VERTEX
 8
FULGOR
 10
0
 20
0
 30
0
 70
128
 71
357
 72
130
 73
125
 74
114
 0
VERTEX
 8
FULGOR
 10
0
 20
0
 30
0
 70
128
 71
255
 72
256
 73
193
 74
207
 0
VERTEX
 8
FULGOR
 10
0
 20
0
 30
0
 70
128
 71
298
 72
297
 73
315
 74
309
 0
VERTEX
 8
FULGOR
 10
0
 20
0
 30
0
 70
128
 71
298
 72
309
 73
308
 74
363
 0
VERTEX
 8
FULGOR
 10
0
 20
0
 30
0
 70
128
 71
243
 72
244
 73
3
 74
181
 0
VERTEX
 8
FULGOR
 10
0
 20
0
 30
0
 70
128
 71
259
 72
250
 73
187
 74
192
 0
VERTEX
 8
FULGOR
 10
0
 20
0
 30
0
 70
128
 71
279
 72
280
 73
222
 74
214
 0
VERTEX
 8
FULGOR
 10
0
 20
0
 30
0
 70
128
 71
278
 72
279
 73
214
 74
213
 0
VERTEX
 8
FULGOR
 10
0
 20
0
 30
0
 70
128
 71
258
 72
259
 73
192
 74
191
 0
VERTEX
 8
FULGOR
 10
0
 20
0
 30
0
 70
128
 71
247
 72
258
 73
191
 74
190
 0
VERTEX
 8
FULGOR
 10
0
 20
0
 30
0
 70
128
 71
351
 72
342
 73
324
 74
323
 0
VERTEX
 8
FULGOR
 10
0
 20
0
 30
0
 70
128
 71
350
 72
351
 73
323
 74
322
 0
VERTEX
 8
FULGOR
 10
0
 20
0
 30
0
 70
128
 71
284
 72
285
 73
217
 74
216
 0
VERTEX
 8
FULGOR
 10
0
 20
0
 30
0
 70
128
 71
136
 72
146
 73
122
 74
121
 0
VERTEX
 8
FULGOR
 10
0
 20
0
 30
0
 70
128
 71
146
 72
140
 73
110
 74
122
 0
VERTEX
 8
FULGOR
 10
0
 20
0
 30
0
 70
128
 71
130
 72
360
 73
126
 74
125
 0
VERTEX
 8
FULGOR
 10
0
 20
0
 30
0
 70
128
 71
140
 72
133
 73
111
 74
110
 0
VERTEX
 8
FULGOR
 10
0
 20
0
 30
0
 70
128
 71
133
 72
132
 73
123
 74
111
 0
VERTEX
 8
FULGOR
 10
0
 20
0
 30
0
 70
128
 71
132
 72
139
 73
113
 74
123
 0
VERTEX
 8
FULGOR
 10
0
 20
0
 30
0
 70
128
 71
292
 72
293
 73
164
 74
223
 0
VERTEX
 8
FULGOR
 10
0
 20
0
 30
0
 70
128
 71
293
 72
224
 73
165
 74
164
 0
VERTEX
 8
FULGOR
 10
0
 20
0
 30
0
 70
128
 71
224
 72
225
 73
176
 74
165
 0
VERTEX
 8
FULGOR
 10
0
 20
0
 30
0
 70
128
 71
225
 72
233
 73
177
 74
176
 0
VERTEX
 8
FULGOR
 10
0
 20
0
 30
0
 70
128
 71
233
 72
234
 73
168
 74
177
 0
VERTEX
 8
FULGOR
 10
0
 20
0
 30
0
 70
128
 71
234
 72
235
 73
169
 74
168
 0
VERTEX
 8
FULGOR
 10
0
 20
0
 30
0
 70
128
 71
235
 72
236
 73
170
 74
169
 0
VERTEX
 8
FULGOR
 10
0
 20
0
 30
0
 70
128
 71
236
 72
239
 73
171
 74
170
 0
VERTEX
 8
FULGOR
 10
0
 20
0
 30
0
 70
128
 71
239
 72
231
 73
172
 74
171
 0
VERTEX
 8
FULGOR
 10
0
 20
0
 30
0
 70
128
 71
213
 72
212
 73
277
 74
278
 0
VERTEX
 8
FULGOR
 10
0
 20
0
 30
0
 70
128
 71
212
 72
205
 73
268
 74
277
 0
VERTEX
 8
FULGOR
 10
0
 20
0
 30
0
 70
128
 71
267
 72
268
 73
205
 74
204
 0
VERTEX
 8
FULGOR
 10
0
 20
0
 30
0
 70
128
 71
270
 72
271
 73
200
 74
211
 0
VERTEX
 8
FULGOR
 10
0
 20
0
 30
0
 70
128
 71
271
 72
264
 73
201
 74
200
 0
SEQEND
 0
POLYLINE
 8
MILANO
 66
1
 10
0.0
 20
0.0
 30
0.0
 70
64
 71
93
 72
47
 0
VERTEX
 8
MILANO
 10
0.2468
 20
-0.0717
 30
107.1026
 70
192
 0
VERTEX
 8
MILANO
 10
0.6787
 20
-0.0717
 30
106.9331
 70
192
 0
VERTEX
 8
MILANO
 10
0.6833
 20
-0.0717
 30
106.8942
 70
192
 0
VERTEX
 8
MILANO
 10
0.6997
 20
-0.0717
 30
106.8587
 70
192
 0
VERTEX
 8
MILANO
 10
0.7272
 20
-0.0717
 30
106.831
 70
192
 0
VERTEX
 8
MILANO
 10
0.7614
 20
-0.0717
 30
106.8121
 70
192
 0
VERTEX
 8
MILANO
 10
0.7989
 20
-0.0717
 30
106.8011
 70
192
 0
VERTEX
 8
MILANO
 10
0.8377
 20
-0.0717
 30
106.7969
 70
192
 0
VERTEX
 8
MILANO
 10
0.5157
 20
-0.0717
 30
106.8488
 70
192
 0
VERTEX
 8
MILANO
 10
0.8766
 20
-0.0717
 30
106.7999
 70
192
 0
VERTEX
 8
MILANO
 10
0.9142
 20
-0.0717
 30
106.8103
 70
192
 0
VERTEX
 8
MILANO
 10
0.9483
 20
-0.0717
 30
106.8294
 70
192
 0
VERTEX
 8
MILANO
 10
0.0833
 20
-0.0717
 30
106.8712
 70
192
 0
VERTEX
 8
MILANO
 10
0.1447
 20
-0.0717
 30
106.7607
 70
192
 0
VERTEX
 8
MILANO
 10
0.1951
 20
-0.0717
 30
106.7607
 70
192
 0
VERTEX
 8
MILANO
 10
0.9749
 20
-0.0717
 30
106.858
 70
192
 0
VERTEX
 8
MILANO
 10
0.9921
 20
-0.0717
 30
106.8931
 70
192
 0
VERTEX
 8
MILANO
 10
-0.195
 20
-0.0717
 30
106.7607
 70
192
 0
VERTEX
 8
MILANO
 10
-0.06
 20
-0.0717
 30
106.9092
 70
192
 0
VERTEX
 8
MILANO
 10
0.0626
 20
-0.0717
 30
106.9092
 70
192
 0
VERTEX
 8
MILANO
 10
0.9976
 20
-0.0717
 30
106.9318
 70
192
 0
VERTEX
 8
MILANO
 10
0.9926
 20
-0.0717
 30
106.9707
 70
192
 0
VERTEX
 8
MILANO
 10
0.9761
 20
-0.0717
 30
107.0061
 70
192
 0
VERTEX
 8
MILANO
 10
-0.3634
 20
-0.0717
 30
107.1026
 70
192
 0
VERTEX
 8
MILANO
 10
-0.3634
 20
-0.0717
 30
106.7979
 70
192
 0
VERTEX
 8
MILANO
 10
0.9493
 20
-0.0717
 30
107.0345
 70
192
 0
VERTEX
 8
MILANO
 10
0.9153
 20
-0.0717
 30
107.0536
 70
192
 0
VERTEX
 8
MILANO
 10
0.8776
 20
-0.0717
 30
107.064
 70
192
 0
VERTEX
 8
MILANO
 10
-0.5348
 20
-0.0717
 30
107.1026
 70
192
 0
VERTEX
 8
MILANO
 10
-0.4923
 20
-0.0717
 30
107.1026
 70
192
 0
VERTEX
 8
MILANO
 10
-0.4923
 20
-0.0717
 30
106.7607
 70
192
 0
VERTEX
 8
MILANO
 10
-0.5348
 20
-0.0717
 30
106.7607
 70
192
 0
VERTEX
 8
MILANO
 10
-1.0466
 20
-0.0717
 30
106.7607
 70
192
 0
VERTEX
 8
MILANO
 10
-0.9937
 20
-0.0717
 30
107.1047
 70
192
 0
VERTEX
 8
MILANO
 10
-0.6709
 20
-0.0717
 30
107.1047
 70
192
 0
VERTEX
 8
MILANO
 10
-0.6551
 20
-0.0717
 30
107.1047
 70
192
 0
VERTEX
 8
MILANO
 10
-0.5992
 20
-0.0717
 30
106.7607
 70
192
 0
VERTEX
 8
MILANO
 10
-0.6454
 20
-0.0717
 30
106.7607
 70
192
 0
VERTEX
 8
MILANO
 10
-0.8326
 20
-0.0717
 30
106.7607
 70
192
 0
VERTEX
 8
MILANO
 10
-0.9675
 20
-0.0717
 30
106.9915
 70
192
 0
VERTEX
 8
MILANO
 10
-0.2121
 20
-0.0717
 30
106.7979
 70
192
 0
VERTEX
 8
MILANO
 10
-0.2121
 20
-0.0717
 30
106.7607
 70
192
 0
VERTEX
 8
MILANO
 10
-0.4054
 20
-0.0717
 30
106.7607
 70
192
 0
VERTEX
 8
MILANO
 10
-0.9833
 20
-0.0717
 30
107.1047
 70
192
 0
VERTEX
 8
MILANO
 10
-0.8241
 20
-0.0717
 30
106.8309
 70
192
 0
VERTEX
 8
MILANO
 10
-0.6825
 20
-0.0717
 30
106.9915
 70
192
 0
VERTEX
 8
MILANO
 10
-0.8119
 20
-0.0717
 30
106.7607
 70
192
 0
VERTEX
 8
MILANO
 10
-1.001
 20
-0.0717
 30
106.7607
 70
192
 0
VERTEX
 8
MILANO
 10
0.8389
 20
-0.0717
 30
107.1084
 70
192
 0
VERTEX
 8
MILANO
 10
0.7879
 20
-0.0717
 30
107.1056
 70
192
 0
VERTEX
 8
MILANO
 10
0.7383
 20
-0.0717
 30
107.0932
 70
192
 0
VERTEX
 8
MILANO
 10
0.6946
 20
-0.0717
 30
107.0671
 70
192
 0
VERTEX
 8
MILANO
 10
0.6595
 20
-0.0717
 30
107.0298
 70
192
 0
VERTEX
 8
MILANO
 10
0.6367
 20
-0.0717
 30
106.9841
 70
192
 0
VERTEX
 8
MILANO
 10
0.6296
 20
-0.0717
 30
106.9334
 70
192
 0
VERTEX
 8
MILANO
 10
0.6356
 20
-0.0717
 30
106.8825
 70
192
 0
VERTEX
 8
MILANO
 10
0.6571
 20
-0.0717
 30
106.8362
 70
192
 0
VERTEX
 8
MILANO
 10
0.693
 20
-0.0717
 30
106.8
 70
192
 0
VERTEX
 8
MILANO
 10
0.7377
 20
-0.0717
 30
106.7753
 70
192
 0
VERTEX
 8
MILANO
 10
0.7868
 20
-0.0717
 30
106.7609
 70
192
 0
VERTEX
 8
MILANO
 10
0.8375
 20
-0.0717
 30
106.7553
 70
192
 0
VERTEX
 8
MILANO
 10
0.8884
 20
-0.0717
 30
106.7592
 70
192
 0
VERTEX
 8
MILANO
 10
0.9376
 20
-0.0717
 30
106.7729
 70
192
 0
VERTEX
 8
MILANO
 10
0.9822
 20
-0.0717
 30
106.7979
 70
192
 0
VERTEX
 8
MILANO
 10
1.017
 20
-0.0717
 30
106.8352
 70
192
 0
VERTEX
 8
MILANO
 10
1.0395
 20
-0.0717
 30
106.8811
 70
192
 0
VERTEX
 8
MILANO
 10
1.0467
 20
-0.0717
 30
106.9318
 70
192
 0
VERTEX
 8
MILANO
 10
1.0402
 20
-0.0717
 30
106.9826
 70
192
 0
VERTEX
 8
MILANO
 10
1.0185
 20
-0.0717
 30
107.0289
 70
192
 0
VERTEX
 8
MILANO
 10
0.9835
 20
-0.0717
 30
107.0661
 70
192
 0
VERTEX
 8
MILANO
 10
0.2468
 20
-0.0717
 30
106.7607
 70
192
 0
VERTEX
 8
MILANO
 10
0.2914
 20
-0.0717
 30
106.7607
 70
192
 0
VERTEX
 8
MILANO
 10
0.2914
 20
-0.0717
 30
107.0099
 70
192
 0
VERTEX
 8
MILANO
 10
0.5453
 20
-0.0717
 30
106.7607
 70
192
 0
VERTEX
 8
MILANO
 10
0.5599
 20
-0.0717
 30
106.7607
 70
192
 0
VERTEX
 8
MILANO
 10
0.5599
 20
-0.0717
 30
107.1026
 70
192
 0
VERTEX
 8
MILANO
 10
0.5151
 20
-0.0717
 30
107.1026
 70
192
 0
VERTEX
 8
MILANO
 10
0.939
 20
-0.0717
 30
107.0911
 70
192
 0
VERTEX
 8
MILANO
 10
0.2634
 20
-0.0717
 30
107.1026
 70
192
 0
VERTEX
 8
MILANO
 10
-0.139
 20
-0.0717
 30
106.7607
 70
192
 0
VERTEX
 8
MILANO
 10
-0.082
 20
-0.0717
 30
106.8712
 70
192
 0
VERTEX
 8
MILANO
 10
0.8898
 20
-0.0717
 30
107.1046
 70
192
 0
VERTEX
 8
MILANO
 10
0.8387
 20
-0.0717
 30
107.0669
 70
192
 0
VERTEX
 8
MILANO
 10
0.7997
 20
-0.0717
 30
107.0647
 70
192
 0
VERTEX
 8
MILANO
 10
0.0082
 20
-0.0717
 30
107.1026
 70
192
 0
VERTEX
 8
MILANO
 10
-0.0063
 20
-0.0717
 30
107.1026
 70
192
 0
VERTEX
 8
MILANO
 10
0.7618
 20
-0.0717
 30
107.0552
 70
192
 0
VERTEX
 8
MILANO
 10
0.7284
 20
-0.0717
 30
107.0353
 70
192
 0
VERTEX
 8
MILANO
 10
0.7016
 20
-0.0717
 30
107.0068
 70
192
 0
VERTEX
 8
MILANO
 10
0.0056
 20
-0.0717
 30
107.0187
 70
192
 0
VERTEX
 8
MILANO
 10
-0.0044
 20
-0.0717
 30
107.0187
 70
192
 0
VERTEX
 8
MILANO
 10
-0.409
 20
-0.0717
 30
107.1026
 70
192
 0
VERTEX
 8
MILANO
 10
0.6841
 20
-0.0717
 30
106.9718
 70
192
 0
VERTEX
 8
MILANO
 10
0
 20
0
 30
0
 70
128
 71
71
 72
1
 73
73
 74
72
 0
VERTEX
 8
MILANO
 10
0
 20
0
 30
0
 70
128
 71
1
 72
79
 73
73
 74
73
 0
VERTEX
 8
MILANO
 10
0
 20
0
 30
0
 70
128
 71
73
 72
79
 73
9
 74
74
 0
VERTEX
 8
MILANO
 10
0
 20
0
 30
0
 70
128
 71
76
 72
75
 73
9
 74
77
 0
VERTEX
 8
MILANO
 10
0
 20
0
 30
0
 70
128
 71
9
 72
75
 73
74
 74
74
 0
VERTEX
 8
MILANO
 10
0
 20
0
 30
0
 70
128
 71
18
 72
86
 73
19
 74
81
 0
VERTEX
 8
MILANO
 10
0
 20
0
 30
0
 70
128
 71
80
 72
18
 73
81
 74
81
 0
VERTEX
 8
MILANO
 10
0
 20
0
 30
0
 70
128
 71
86
 72
85
 73
90
 74
91
 0
VERTEX
 8
MILANO
 10
0
 20
0
 30
0
 70
128
 71
15
 72
13
 73
20
 74
20
 0
VERTEX
 8
MILANO
 10
0
 20
0
 30
0
 70
128
 71
86
 72
91
 73
19
 74
19
 0
VERTEX
 8
MILANO
 10
0
 20
0
 30
0
 70
128
 71
85
 72
15
 73
20
 74
90
 0
VERTEX
 8
MILANO
 10
0
 20
0
 30
0
 70
128
 71
13
 72
81
 73
19
 74
20
 0
VERTEX
 8
MILANO
 10
0
 20
0
 30
0
 70
128
 71
15
 72
14
 73
13
 74
13
 0
VERTEX
 8
MILANO
 10
0
 20
0
 30
0
 70
128
 71
92
 72
24
 73
25
 74
43
 0
VERTEX
 8
MILANO
 10
0
 20
0
 30
0
 70
128
 71
25
 72
41
 73
42
 74
43
 0
VERTEX
 8
MILANO
 10
0
 20
0
 30
0
 70
128
 71
29
 72
30
 73
31
 74
32
 0
VERTEX
 8
MILANO
 10
0
 20
0
 30
0
 70
128
 71
33
 72
34
 73
40
 74
48
 0
VERTEX
 8
MILANO
 10
0
 20
0
 30
0
 70
128
 71
34
 72
44
 73
40
 74
40
 0
VERTEX
 8
MILANO
 10
0
 20
0
 30
0
 70
128
 71
40
 72
44
 73
45
 74
39
 0
VERTEX
 8
MILANO
 10
0
 20
0
 30
0
 70
128
 71
45
 72
35
 73
46
 74
47
 0
VERTEX
 8
MILANO
 10
0
 20
0
 30
0
 70
128
 71
46
 72
36
 73
37
 74
38
 0
VERTEX
 8
MILANO
 10
0
 20
0
 30
0
 70
128
 71
45
 72
47
 73
39
 74
39
 0
VERTEX
 8
MILANO
 10
0
 20
0
 30
0
 70
128
 71
35
 72
36
 73
46
 74
46
 0
VERTEX
 8
MILANO
 10
0
 20
0
 30
0
 70
128
 71
50
 72
49
 73
83
 74
84
 0
VERTEX
 8
MILANO
 10
0
 20
0
 30
0
 70
128
 71
51
 72
50
 73
84
 74
87
 0
VERTEX
 8
MILANO
 10
0
 20
0
 30
0
 70
128
 71
5
 72
6
 73
59
 74
58
 0
VERTEX
 8
MILANO
 10
0
 20
0
 30
0
 70
128
 71
28
 72
83
 73
49
 74
82
 0
VERTEX
 8
MILANO
 10
0
 20
0
 30
0
 70
128
 71
27
 72
28
 73
82
 74
78
 0
VERTEX
 8
MILANO
 10
0
 20
0
 30
0
 70
128
 71
26
 72
27
 73
78
 74
70
 0
VERTEX
 8
MILANO
 10
0
 20
0
 30
0
 70
128
 71
23
 72
26
 73
70
 74
69
 0
VERTEX
 8
MILANO
 10
0
 20
0
 30
0
 70
128
 71
6
 72
7
 73
60
 74
59
 0
VERTEX
 8
MILANO
 10
0
 20
0
 30
0
 70
128
 71
7
 72
8
 73
61
 74
60
 0
VERTEX
 8
MILANO
 10
0
 20
0
 30
0
 70
128
 71
22
 72
23
 73
69
 74
68
 0
VERTEX
 8
MILANO
 10
0
 20
0
 30
0
 70
128
 71
21
 72
22
 73
68
 74
67
 0
VERTEX
 8
MILANO
 10
0
 20
0
 30
0
 70
128
 71
17
 72
21
 73
67
 74
66
 0
VERTEX
 8
MILANO
 10
0
 20
0
 30
0
 70
128
 71
16
 72
17
 73
66
 74
65
 0
VERTEX
 8
MILANO
 10
0
 20
0
 30
0
 70
128
 71
12
 72
16
 73
65
 74
64
 0
VERTEX
 8
MILANO
 10
0
 20
0
 30
0
 70
128
 71
11
 72
12
 73
64
 74
63
 0
VERTEX
 8
MILANO
 10
0
 20
0
 30
0
 70
128
 71
10
 72
11
 73
63
 74
62
 0
VERTEX
 8
MILANO
 10
0
 20
0
 30
0
 70
128
 71
4
 72
5
 73
58
 74
57
 0
VERTEX
 8
MILANO
 10
0
 20
0
 30
0
 70
128
 71
57
 72
56
 73
3
 74
4
 0
VERTEX
 8
MILANO
 10
0
 20
0
 30
0
 70
128
 71
56
 72
55
 73
2
 74
3
 0
VERTEX
 8
MILANO
 10
0
 20
0
 30
0
 70
128
 71
55
 72
54
 73
93
 74
2
 0
VERTEX
 8
MILANO
 10
0
 20
0
 30
0
 70
128
 71
54
 72
53
 73
89
 74
93
 0
VERTEX
 8
MILANO
 10
0
 20
0
 30
0
 70
128
 71
53
 72
52
 73
88
 74
89
 0
VERTEX
 8
MILANO
 10
0
 20
0
 30
0
 70
128
 71
52
 72
51
 73
87
 74
88
 0
VERTEX
 8
MILANO
 10
0
 20
0
 30
0
 70
128
 71
8
 72
10
 73
62
 74
61
 0
SEQEND
 0
POLYLINE
 8
VETRO_ANTA
 66
1
 10
0.0
 20
0.0
 30
0.0
 70
64
 71
32
 72
32
 0
VERTEX
 8
VETRO_ANTA
 10
29.6
 20
0.4002
 30
102.1982
 70
192
 0
VERTEX
 8
VETRO_ANTA
 10
29.6
 20
0.4002
 30
148.3481
 70
192
 0
VERTEX
 8
VETRO_ANTA
 10
-29.6
 20
0.4002
 30
102.1982
 70
192
 0
VERTEX
 8
VETRO_ANTA
 10
-29.6
 20
0.4002
 30
148.3481
 70
192
 0
VERTEX
 8
VETRO_ANTA
 10
-29.6
 20
0.0002
 30
102.1982
 70
192
 0
VERTEX
 8
VETRO_ANTA
 10
-29.6
 20
0.0002
 30
148.3481
 70
192
 0
VERTEX
 8
VETRO_ANTA
 10
29.6
 20
0.0002
 30
102.1982
 70
192
 0
VERTEX
 8
VETRO_ANTA
 10
29.6
 20
0.0002
 30
148.3481
 70
192
 0
VERTEX
 8
VETRO_ANTA
 10
20
 20
0.4002
 30
148.3481
 70
192
 0
VERTEX
 8
VETRO_ANTA
 10
20
 20
0.4002
 30
102.1982
 70
192
 0
VERTEX
 8
VETRO_ANTA
 10
20
 20
0.0002
 30
148.3481
 70
192
 0
VERTEX
 8
VETRO_ANTA
 10
20
 20
0.0002
 30
102.1982
 70
192
 0
VERTEX
 8
VETRO_ANTA
 10
29.6
 20
0.4002
 30
137.848
 70
192
 0
VERTEX
 8
VETRO_ANTA
 10
20
 20
0.4002
 30
137.848
 70
192
 0
VERTEX
 8
VETRO_ANTA
 10
-29.6
 20
0.4002
 30
137.848
 70
192
 0
VERTEX
 8
VETRO_ANTA
 10
-29.6
 20
0.0002
 30
137.848
 70
192
 0
VERTEX
 8
VETRO_ANTA
 10
20
 20
0.0002
 30
137.848
 70
192
 0
VERTEX
 8
VETRO_ANTA
 10
29.6
 20
0.0002
 30
137.848
 70
192
 0
VERTEX
 8
VETRO_ANTA
 10
-20.0001
 20
0.0002
 30
137.848
 70
192
 0
VERTEX
 8
VETRO_ANTA
 10
-20.0001
 20
0.0002
 30
102.1982
 70
192
 0
VERTEX
 8
VETRO_ANTA
 10
-20.0001
 20
0.4002
 30
148.3481
 70
192
 0
VERTEX
 8
VETRO_ANTA
 10
-20.0001
 20
0.4002
 30
137.848
 70
192
 0
VERTEX
 8
VETRO_ANTA
 10
-20.0001
 20
0.0002
 30
148.3481
 70
192
 0
VERTEX
 8
VETRO_ANTA
 10
-20.0001
 20
0.4002
 30
102.1982
 70
192
 0
VERTEX
 8
VETRO_ANTA
 10
29.6
 20
0.4002
 30
112.8481
 70
192
 0
VERTEX
 8
VETRO_ANTA
 10
20
 20
0.4002
 30
112.8481
 70
192
 0
VERTEX
 8
VETRO_ANTA
 10
-29.6
 20
0.4002
 30
112.8481
 70
192
 0
VERTEX
 8
VETRO_ANTA
 10
-29.6
 20
0.0002
 30
112.8481
 70
192
 0
VERTEX
 8
VETRO_ANTA
 10
-20.0001
 20
0.0002
 30
112.8481
 70
192
 0
VERTEX
 8
VETRO_ANTA
 10
29.6
 20
0.0002
 30
112.8481
 70
192
 0
VERTEX
 8
VETRO_ANTA
 10
-20.0001
 20
0.4002
 30
112.8481
 70
192
 0
VERTEX
 8
VETRO_ANTA
 10
20
 20
0.0002
 30
112.8481
 70
192
 0
VERTEX
 8
VETRO_ANTA
 10
0
 20
0
 30
0
 70
128
 71
1
 72
25
 73
26
 74
10
 0
VERTEX
 8
VETRO_ANTA
 10
0
 20
0
 30
0
 70
128
 71
3
 72
27
 73
28
 74
5
 0
VERTEX
 8
VETRO_ANTA
 10
0
 20
0
 30
0
 70
128
 71
5
 72
28
 73
29
 74
20
 0
VERTEX
 8
VETRO_ANTA
 10
0
 20
0
 30
0
 70
128
 71
7
 72
30
 73
25
 74
1
 0
VERTEX
 8
VETRO_ANTA
 10
0
 20
0
 30
0
 70
128
 71
2
 72
8
 73
11
 74
9
 0
VERTEX
 8
VETRO_ANTA
 10
0
 20
0
 30
0
 70
128
 71
7
 72
1
 73
10
 74
12
 0
VERTEX
 8
VETRO_ANTA
 10
0
 20
0
 30
0
 70
128
 71
9
 72
21
 73
22
 74
14
 0
VERTEX
 8
VETRO_ANTA
 10
0
 20
0
 30
0
 70
128
 71
11
 72
8
 73
18
 74
17
 0
VERTEX
 8
VETRO_ANTA
 10
0
 20
0
 30
0
 70
128
 71
11
 72
23
 73
21
 74
9
 0
VERTEX
 8
VETRO_ANTA
 10
0
 20
0
 30
0
 70
128
 71
10
 72
24
 73
20
 74
12
 0
VERTEX
 8
VETRO_ANTA
 10
0
 20
0
 30
0
 70
128
 71
13
 72
2
 73
9
 74
14
 0
VERTEX
 8
VETRO_ANTA
 10
0
 20
0
 30
0
 70
128
 71
15
 72
4
 73
6
 74
16
 0
VERTEX
 8
VETRO_ANTA
 10
0
 20
0
 30
0
 70
128
 71
16
 72
6
 73
23
 74
19
 0
VERTEX
 8
VETRO_ANTA
 10
0
 20
0
 30
0
 70
128
 71
18
 72
8
 73
2
 74
13
 0
VERTEX
 8
VETRO_ANTA
 10
0
 20
0
 30
0
 70
128
 71
15
 72
27
 73
31
 74
22
 0
VERTEX
 8
VETRO_ANTA
 10
0
 20
0
 30
0
 70
128
 71
18
 72
30
 73
32
 74
17
 0
VERTEX
 8
VETRO_ANTA
 10
0
 20
0
 30
0
 70
128
 71
32
 72
12
 73
20
 74
29
 0
VERTEX
 8
VETRO_ANTA
 10
0
 20
0
 30
0
 70
128
 71
21
 72
4
 73
15
 74
22
 0
VERTEX
 8
VETRO_ANTA
 10
0
 20
0
 30
0
 70
128
 71
23
 72
6
 73
4
 74
21
 0
VERTEX
 8
VETRO_ANTA
 10
0
 20
0
 30
0
 70
128
 71
24
 72
3
 73
5
 74
20
 0
VERTEX
 8
VETRO_ANTA
 10
0
 20
0
 30
0
 70
128
 71
23
 72
11
 73
17
 74
19
 0
VERTEX
 8
VETRO_ANTA
 10
0
 20
0
 30
0
 70
128
 71
24
 72
10
 73
26
 74
31
 0
VERTEX
 8
VETRO_ANTA
 10
0
 20
0
 30
0
 70
128
 71
25
 72
13
 73
14
 74
26
 0
VERTEX
 8
VETRO_ANTA
 10
0
 20
0
 30
0
 70
128
 71
27
 72
15
 73
16
 74
28
 0
VERTEX
 8
VETRO_ANTA
 10
0
 20
0
 30
0
 70
128
 71
28
 72
16
 73
19
 74
29
 0
VERTEX
 8
VETRO_ANTA
 10
0
 20
0
 30
0
 70
128
 71
30
 72
18
 73
13
 74
25
 0
VERTEX
 8
VETRO_ANTA
 10
0
 20
0
 30
0
 70
128
 71
27
 72
3
 73
24
 74
31
 0
VERTEX
 8
VETRO_ANTA
 10
0
 20
0
 30
0
 70
128
 71
30
 72
7
 73
12
 74
32
 0
VERTEX
 8
VETRO_ANTA
 10
0
 20
0
 30
0
 70
128
 71
29
 72
19
 73
22
 74
31
 0
VERTEX
 8
VETRO_ANTA
 10
0
 20
0
 30
0
 70
128
 71
32
 72
29
 73
31
 74
26
 0
VERTEX
 8
VETRO_ANTA
 10
0
 20
0
 30
0
 70
128
 71
19
 72
17
 73
14
 74
22
 0
VERTEX
 8
VETRO_ANTA
 10
0
 20
0
 30
0
 70
128
 71
17
 72
32
 73
26
 74
14
 0
SEQEND
 0
POLYLINE
 8
VETRO_ANTA_1
 66
1
 10
0.0
 20
0.0
 30
0.0
 70
64
 71
8
 72
6
 0
VERTEX
 8
VETRO_ANTA_1
 10
20
 20
0.4002
 30
137.848
 70
192
 0
VERTEX
 8
VETRO_ANTA_1
 10
20
 20
0.0002
 30
137.848
 70
192
 0
VERTEX
 8
VETRO_ANTA_1
 10
-20.0001
 20
0.0002
 30
137.848
 70
192
 0
VERTEX
 8
VETRO_ANTA_1
 10
-20.0001
 20
0.4002
 30
137.848
 70
192
 0
VERTEX
 8
VETRO_ANTA_1
 10
20
 20
0.4002
 30
112.8481
 70
192
 0
VERTEX
 8
VETRO_ANTA_1
 10
-20.0001
 20
0.0002
 30
112.8481
 70
192
 0
VERTEX
 8
VETRO_ANTA_1
 10
-20.0001
 20
0.4002
 30
112.8481
 70
192
 0
VERTEX
 8
VETRO_ANTA_1
 10
20
 20
0.0002
 30
112.8481
 70
192
 0
VERTEX
 8
VETRO_ANTA_1
 10
0
 20
0
 30
0
 70
128
 71
3
 72
2
 73
8
 74
6
 0
VERTEX
 8
VETRO_ANTA_1
 10
0
 20
0
 30
0
 70
128
 71
5
 72
1
 73
4
 74
7
 0
VERTEX
 8
VETRO_ANTA_1
 10
0
 20
0
 30
0
 70
128
 71
1
 72
5
 73
8
 74
2
 0
VERTEX
 8
VETRO_ANTA_1
 10
0
 20
0
 30
0
 70
128
 71
5
 72
7
 73
6
 74
8
 0
VERTEX
 8
VETRO_ANTA_1
 10
0
 20
0
 30
0
 70
128
 71
3
 72
6
 73
7
 74
4
 0
VERTEX
 8
VETRO_ANTA_1
 10
0
 20
0
 30
0
 70
128
 71
4
 72
1
 73
2
 74
3
 0
SEQEND
 0
POLYLINE
 8
CUBO
 66
1
 10
0.0
 20
0.0
 30
0.0
 70
64
 71
8
 72
6
 0
VERTEX
 8
CUBO
 10
14.9999
 20
0.0002
 30
148.348
 70
192
 0
VERTEX
 8
CUBO
 10
14.9999
 20
-0.3998
 30
148.348
 70
192
 0
VERTEX
 8
CUBO
 10
-15.0001
 20
0.0002
 30
148.348
 70
192
 0
VERTEX
 8
CUBO
 10
-15.0001
 20
-0.3998
 30
148.348
 70
192
 0
VERTEX
 8
CUBO
 10
-15.0001
 20
0.0002
 30
144.348
 70
192
 0
VERTEX
 8
CUBO
 10
-15.0001
 20
-0.3998
 30
144.348
 70
192
 0
VERTEX
 8
CUBO
 10
14.9999
 20
0.0002
 30
144.348
 70
192
 0
VERTEX
 8
CUBO
 10
14.9999
 20
-0.3998
 30
144.348
 70
192
 0
VERTEX
 8
CUBO
 10
0
 20
0
 30
0
 70
128
 71
1
 72
2
 73
4
 74
3
 0
VERTEX
 8
CUBO
 10
0
 20
0
 30
0
 70
128
 71
3
 72
4
 73
6
 74
5
 0
VERTEX
 8
CUBO
 10
0
 20
0
 30
0
 70
128
 71
5
 72
6
 73
8
 74
7
 0
VERTEX
 8
CUBO
 10
0
 20
0
 30
0
 70
128
 71
7
 72
8
 73
2
 74
1
 0
VERTEX
 8
CUBO
 10
0
 20
0
 30
0
 70
128
 71
2
 72
8
 73
6
 74
4
 0
VERTEX
 8
CUBO
 10
0
 20
0
 30
0
 70
128
 71
7
 72
1
 73
3
 74
5
 0
SEQEND
 0
POLYLINE
 8
SUPPORTO_MANIGLIA_DUPLICATORE
 66
1
 10
0.0
 20
0.0
 30
0.0
 70
64
 71
174
 72
126
 0
VERTEX
 8
SUPPORTO_MANIGLIA_DUPLICATORE
 10
11.2001
 20
-3.9997
 30
145.3478
 70
192
 0
VERTEX
 8
SUPPORTO_MANIGLIA_DUPLICATORE
 10
15
 20
-3.9997
 30
145.3478
 70
192
 0
VERTEX
 8
SUPPORTO_MANIGLIA_DUPLICATORE
 10
11.2001
 20
-3.9997
 30
146.3483
 70
192
 0
VERTEX
 8
SUPPORTO_MANIGLIA_DUPLICATORE
 10
11.2001
 20
-3.9997
 30
146.3483
 70
192
 0
VERTEX
 8
SUPPORTO_MANIGLIA_DUPLICATORE
 10
15
 20
-3.9997
 30
146.3483
 70
192
 0
VERTEX
 8
SUPPORTO_MANIGLIA_DUPLICATORE
 10
15
 20
-3.9997
 30
146.3483
 70
192
 0
VERTEX
 8
SUPPORTO_MANIGLIA_DUPLICATORE
 10
11.2001
 20
-4.0869
 30
146.3445
 70
192
 0
VERTEX
 8
SUPPORTO_MANIGLIA_DUPLICATORE
 10
11.2001
 20
-4.0869
 30
146.3445
 70
192
 0
VERTEX
 8
SUPPORTO_MANIGLIA_DUPLICATORE
 10
15
 20
-4.0869
 30
146.3445
 70
192
 0
VERTEX
 8
SUPPORTO_MANIGLIA_DUPLICATORE
 10
15
 20
-4.0869
 30
146.3445
 70
192
 0
VERTEX
 8
SUPPORTO_MANIGLIA_DUPLICATORE
 10
11.2001
 20
-4.1735
 30
146.3331
 70
192
 0
VERTEX
 8
SUPPORTO_MANIGLIA_DUPLICATORE
 10
11.2001
 20
-4.1735
 30
146.3331
 70
192
 0
VERTEX
 8
SUPPORTO_MANIGLIA_DUPLICATORE
 10
15
 20
-4.1735
 30
146.3331
 70
192
 0
VERTEX
 8
SUPPORTO_MANIGLIA_DUPLICATORE
 10
15
 20
-4.1735
 30
146.3331
 70
192
 0
VERTEX
 8
SUPPORTO_MANIGLIA_DUPLICATORE
 10
11.2001
 20
-4.2587
 30
146.3142
 70
192
 0
VERTEX
 8
SUPPORTO_MANIGLIA_DUPLICATORE
 10
11.2001
 20
-4.2587
 30
146.3142
 70
192
 0
VERTEX
 8
SUPPORTO_MANIGLIA_DUPLICATORE
 10
15
 20
-4.2587
 30
146.3142
 70
192
 0
VERTEX
 8
SUPPORTO_MANIGLIA_DUPLICATORE
 10
15
 20
-4.2587
 30
146.3142
 70
192
 0
VERTEX
 8
SUPPORTO_MANIGLIA_DUPLICATORE
 10
11.2001
 20
-4.3419
 30
146.2879
 70
192
 0
VERTEX
 8
SUPPORTO_MANIGLIA_DUPLICATORE
 10
11.2001
 20
-4.3419
 30
146.2879
 70
192
 0
VERTEX
 8
SUPPORTO_MANIGLIA_DUPLICATORE
 10
15
 20
-4.3419
 30
146.2879
 70
192
 0
VERTEX
 8
SUPPORTO_MANIGLIA_DUPLICATORE
 10
15
 20
-4.3419
 30
146.2879
 70
192
 0
VERTEX
 8
SUPPORTO_MANIGLIA_DUPLICATORE
 10
11.2001
 20
-4.4226
 30
146.2545
 70
192
 0
VERTEX
 8
SUPPORTO_MANIGLIA_DUPLICATORE
 10
11.2001
 20
-4.4226
 30
146.2545
 70
192
 0
VERTEX
 8
SUPPORTO_MANIGLIA_DUPLICATORE
 10
15
 20
-4.4226
 30
146.2545
 70
192
 0
VERTEX
 8
SUPPORTO_MANIGLIA_DUPLICATORE
 10
15
 20
-4.4226
 30
146.2545
 70
192
 0
VERTEX
 8
SUPPORTO_MANIGLIA_DUPLICATORE
 10
11.2001
 20
-4.5
 30
146.2142
 70
192
 0
VERTEX
 8
SUPPORTO_MANIGLIA_DUPLICATORE
 10
11.2001
 20
-4.5
 30
146.2142
 70
192
 0
VERTEX
 8
SUPPORTO_MANIGLIA_DUPLICATORE
 10
15
 20
-4.5
 30
146.2142
 70
192
 0
VERTEX
 8
SUPPORTO_MANIGLIA_DUPLICATORE
 10
15
 20
-4.5
 30
146.2142
 70
192
 0
VERTEX
 8
SUPPORTO_MANIGLIA_DUPLICATORE
 10
11.2001
 20
-4.5736
 30
146.1673
 70
192
 0
VERTEX
 8
SUPPORTO_MANIGLIA_DUPLICATORE
 10
11.2001
 20
-4.5736
 30
146.1673
 70
192
 0
VERTEX
 8
SUPPORTO_MANIGLIA_DUPLICATORE
 10
15
 20
-4.5736
 30
146.1673
 70
192
 0
VERTEX
 8
SUPPORTO_MANIGLIA_DUPLICATORE
 10
15
 20
-4.5736
 30
146.1673
 70
192
 0
VERTEX
 8
SUPPORTO_MANIGLIA_DUPLICATORE
 10
11.2001
 20
-4.6429
 30
146.1142
 70
192
 0
VERTEX
 8
SUPPORTO_MANIGLIA_DUPLICATORE
 10
11.2001
 20
-4.6429
 30
146.1142
 70
192
 0
VERTEX
 8
SUPPORTO_MANIGLIA_DUPLICATORE
 10
15
 20
-4.6429
 30
146.1142
 70
192
 0
VERTEX
 8
SUPPORTO_MANIGLIA_DUPLICATORE
 10
15
 20
-4.6429
 30
146.1142
 70
192
 0
VERTEX
 8
SUPPORTO_MANIGLIA_DUPLICATORE
 10
11.2001
 20
-4.7072
 30
146.0552
 70
192
 0
VERTEX
 8
SUPPORTO_MANIGLIA_DUPLICATORE
 10
11.2001
 20
-4.7072
 30
146.0552
 70
192
 0
VERTEX
 8
SUPPORTO_MANIGLIA_DUPLICATORE
 10
15
 20
-4.7072
 30
146.0552
 70
192
 0
VERTEX
 8
SUPPORTO_MANIGLIA_DUPLICATORE
 10
15
 20
-4.7072
 30
146.0552
 70
192
 0
VERTEX
 8
SUPPORTO_MANIGLIA_DUPLICATORE
 10
11.2001
 20
-4.7662
 30
145.9909
 70
192
 0
VERTEX
 8
SUPPORTO_MANIGLIA_DUPLICATORE
 10
11.2001
 20
-4.7662
 30
145.9909
 70
192
 0
VERTEX
 8
SUPPORTO_MANIGLIA_DUPLICATORE
 10
15
 20
-4.7662
 30
145.9909
 70
192
 0
VERTEX
 8
SUPPORTO_MANIGLIA_DUPLICATORE
 10
15
 20
-4.7662
 30
145.9909
 70
192
 0
VERTEX
 8
SUPPORTO_MANIGLIA_DUPLICATORE
 10
11.2001
 20
-4.8193
 30
145.9216
 70
192
 0
VERTEX
 8
SUPPORTO_MANIGLIA_DUPLICATORE
 10
11.2001
 20
-4.8193
 30
145.9216
 70
192
 0
VERTEX
 8
SUPPORTO_MANIGLIA_DUPLICATORE
 10
15
 20
-4.8193
 30
145.9216
 70
192
 0
VERTEX
 8
SUPPORTO_MANIGLIA_DUPLICATORE
 10
15
 20
-4.8193
 30
145.9216
 70
192
 0
VERTEX
 8
SUPPORTO_MANIGLIA_DUPLICATORE
 10
11.2001
 20
-4.8662
 30
145.848
 70
192
 0
VERTEX
 8
SUPPORTO_MANIGLIA_DUPLICATORE
 10
11.2001
 20
-4.8662
 30
145.848
 70
192
 0
VERTEX
 8
SUPPORTO_MANIGLIA_DUPLICATORE
 10
15
 20
-4.8662
 30
145.848
 70
192
 0
VERTEX
 8
SUPPORTO_MANIGLIA_DUPLICATORE
 10
15
 20
-4.8662
 30
145.848
 70
192
 0
VERTEX
 8
SUPPORTO_MANIGLIA_DUPLICATORE
 10
11.2001
 20
-4.9065
 30
145.7706
 70
192
 0
VERTEX
 8
SUPPORTO_MANIGLIA_DUPLICATORE
 10
11.2001
 20
-4.9065
 30
145.7706
 70
192
 0
VERTEX
 8
SUPPORTO_MANIGLIA_DUPLICATORE
 10
15
 20
-4.9065
 30
145.7706
 70
192
 0
VERTEX
 8
SUPPORTO_MANIGLIA_DUPLICATORE
 10
15
 20
-4.9065
 30
145.7706
 70
192
 0
VERTEX
 8
SUPPORTO_MANIGLIA_DUPLICATORE
 10
11.2001
 20
-4.9399
 30
145.69
 70
192
 0
VERTEX
 8
SUPPORTO_MANIGLIA_DUPLICATORE
 10
11.2001
 20
-4.9399
 30
145.69
 70
192
 0
VERTEX
 8
SUPPORTO_MANIGLIA_DUPLICATORE
 10
15
 20
-4.9399
 30
145.69
 70
192
 0
VERTEX
 8
SUPPORTO_MANIGLIA_DUPLICATORE
 10
15
 20
-4.9399
 30
145.69
 70
192
 0
VERTEX
 8
SUPPORTO_MANIGLIA_DUPLICATORE
 10
11.2001
 20
-4.9662
 30
145.6067
 70
192
 0
VERTEX
 8
SUPPORTO_MANIGLIA_DUPLICATORE
 10
11.2001
 20
-4.9662
 30
145.6067
 70
192
 0
VERTEX
 8
SUPPORTO_MANIGLIA_DUPLICATORE
 10
15
 20
-4.9662
 30
145.6067
 70
192
 0
VERTEX
 8
SUPPORTO_MANIGLIA_DUPLICATORE
 10
15
 20
-4.9662
 30
145.6067
 70
192
 0
VERTEX
 8
SUPPORTO_MANIGLIA_DUPLICATORE
 10
11.2001
 20
-4.985
 30
145.5215
 70
192
 0
VERTEX
 8
SUPPORTO_MANIGLIA_DUPLICATORE
 10
11.2001
 20
-4.985
 30
145.5215
 70
192
 0
VERTEX
 8
SUPPORTO_MANIGLIA_DUPLICATORE
 10
15
 20
-4.985
 30
145.5215
 70
192
 0
VERTEX
 8
SUPPORTO_MANIGLIA_DUPLICATORE
 10
15
 20
-4.985
 30
145.5215
 70
192
 0
VERTEX
 8
SUPPORTO_MANIGLIA_DUPLICATORE
 10
11.2001
 20
-4.9964
 30
145.435
 70
192
 0
VERTEX
 8
SUPPORTO_MANIGLIA_DUPLICATORE
 10
11.2001
 20
-4.9964
 30
145.435
 70
192
 0
VERTEX
 8
SUPPORTO_MANIGLIA_DUPLICATORE
 10
15
 20
-4.9964
 30
145.435
 70
192
 0
VERTEX
 8
SUPPORTO_MANIGLIA_DUPLICATORE
 10
15
 20
-4.9964
 30
145.435
 70
192
 0
VERTEX
 8
SUPPORTO_MANIGLIA_DUPLICATORE
 10
11.2001
 20
-5.0002
 30
145.3478
 70
192
 0
VERTEX
 8
SUPPORTO_MANIGLIA_DUPLICATORE
 10
11.2001
 20
-5.0002
 30
145.3478
 70
192
 0
VERTEX
 8
SUPPORTO_MANIGLIA_DUPLICATORE
 10
15
 20
-5.0002
 30
145.3478
 70
192
 0
VERTEX
 8
SUPPORTO_MANIGLIA_DUPLICATORE
 10
15
 20
-5.0002
 30
145.3478
 70
192
 0
VERTEX
 8
SUPPORTO_MANIGLIA_DUPLICATORE
 10
11.2001
 20
-4.9964
 30
145.2606
 70
192
 0
VERTEX
 8
SUPPORTO_MANIGLIA_DUPLICATORE
 10
11.2001
 20
-4.9964
 30
145.2606
 70
192
 0
VERTEX
 8
SUPPORTO_MANIGLIA_DUPLICATORE
 10
15
 20
-4.9964
 30
145.2606
 70
192
 0
VERTEX
 8
SUPPORTO_MANIGLIA_DUPLICATORE
 10
15
 20
-4.9964
 30
145.2606
 70
192
 0
VERTEX
 8
SUPPORTO_MANIGLIA_DUPLICATORE
 10
11.2001
 20
-4.985
 30
145.1741
 70
192
 0
VERTEX
 8
SUPPORTO_MANIGLIA_DUPLICATORE
 10
11.2001
 20
-4.985
 30
145.1741
 70
192
 0
VERTEX
 8
SUPPORTO_MANIGLIA_DUPLICATORE
 10
15
 20
-4.985
 30
145.1741
 70
192
 0
VERTEX
 8
SUPPORTO_MANIGLIA_DUPLICATORE
 10
15
 20
-4.985
 30
145.1741
 70
192
 0
VERTEX
 8
SUPPORTO_MANIGLIA_DUPLICATORE
 10
11.2001
 20
-4.9662
 30
145.0888
 70
192
 0
VERTEX
 8
SUPPORTO_MANIGLIA_DUPLICATORE
 10
11.2001
 20
-4.9662
 30
145.0888
 70
192
 0
VERTEX
 8
SUPPORTO_MANIGLIA_DUPLICATORE
 10
15
 20
-4.9662
 30
145.0888
 70
192
 0
VERTEX
 8
SUPPORTO_MANIGLIA_DUPLICATORE
 10
15
 20
-4.9662
 30
145.0888
 70
192
 0
VERTEX
 8
SUPPORTO_MANIGLIA_DUPLICATORE
 10
11.2001
 20
-4.9399
 30
145.0056
 70
192
 0
VERTEX
 8
SUPPORTO_MANIGLIA_DUPLICATORE
 10
11.2001
 20
-4.9399
 30
145.0056
 70
192
 0
VERTEX
 8
SUPPORTO_MANIGLIA_DUPLICATORE
 10
15
 20
-4.9399
 30
145.0056
 70
192
 0
VERTEX
 8
SUPPORTO_MANIGLIA_DUPLICATORE
 10
15
 20
-4.9399
 30
145.0056
 70
192
 0
VERTEX
 8
SUPPORTO_MANIGLIA_DUPLICATORE
 10
11.2001
 20
-4.9065
 30
144.925
 70
192
 0
VERTEX
 8
SUPPORTO_MANIGLIA_DUPLICATORE
 10
11.2001
 20
-4.9065
 30
144.925
 70
192
 0
VERTEX
 8
SUPPORTO_MANIGLIA_DUPLICATORE
 10
15
 20
-4.9065
 30
144.925
 70
192
 0
VERTEX
 8
SUPPORTO_MANIGLIA_DUPLICATORE
 10
15
 20
-4.9065
 30
144.925
 70
192
 0
VERTEX
 8
SUPPORTO_MANIGLIA_DUPLICATORE
 10
11.2001
 20
-4.8662
 30
144.8475
 70
192
 0
VERTEX
 8
SUPPORTO_MANIGLIA_DUPLICATORE
 10
11.2001
 20
-4.8662
 30
144.8475
 70
192
 0
VERTEX
 8
SUPPORTO_MANIGLIA_DUPLICATORE
 10
15
 20
-4.8662
 30
144.8475
 70
192
 0
VERTEX
 8
SUPPORTO_MANIGLIA_DUPLICATORE
 10
15
 20
-4.8662
 30
144.8475
 70
192
 0
VERTEX
 8
SUPPORTO_MANIGLIA_DUPLICATORE
 10
11.2001
 20
-4.8193
 30
144.7739
 70
192
 0
VERTEX
 8
SUPPORTO_MANIGLIA_DUPLICATORE
 10
11.2001
 20
-4.8193
 30
144.7739
 70
192
 0
VERTEX
 8
SUPPORTO_MANIGLIA_DUPLICATORE
 10
15
 20
-4.8193
 30
144.7739
 70
192
 0
VERTEX
 8
SUPPORTO_MANIGLIA_DUPLICATORE
 10
15
 20
-4.8193
 30
144.7739
 70
192
 0
VERTEX
 8
SUPPORTO_MANIGLIA_DUPLICATORE
 10
11.2001
 20
-4.7662
 30
144.7047
 70
192
 0
VERTEX
 8
SUPPORTO_MANIGLIA_DUPLICATORE
 10
11.2001
 20
-4.7662
 30
144.7047
 70
192
 0
VERTEX
 8
SUPPORTO_MANIGLIA_DUPLICATORE
 10
15
 20
-4.7662
 30
144.7047
 70
192
 0
VERTEX
 8
SUPPORTO_MANIGLIA_DUPLICATORE
 10
15
 20
-4.7662
 30
144.7047
 70
192
 0
VERTEX
 8
SUPPORTO_MANIGLIA_DUPLICATORE
 10
11.2001
 20
-4.7072
 30
144.6403
 70
192
 0
VERTEX
 8
SUPPORTO_MANIGLIA_DUPLICATORE
 10
11.2001
 20
-4.7072
 30
144.6403
 70
192
 0
VERTEX
 8
SUPPORTO_MANIGLIA_DUPLICATORE
 10
15
 20
-4.7072
 30
144.6403
 70
192
 0
VERTEX
 8
SUPPORTO_MANIGLIA_DUPLICATORE
 10
15
 20
-4.7072
 30
144.6403
 70
192
 0
VERTEX
 8
SUPPORTO_MANIGLIA_DUPLICATORE
 10
11.2001
 20
-4.6429
 30
144.5814
 70
192
 0
VERTEX
 8
SUPPORTO_MANIGLIA_DUPLICATORE
 10
11.2001
 20
-4.6429
 30
144.5814
 70
192
 0
VERTEX
 8
SUPPORTO_MANIGLIA_DUPLICATORE
 10
15
 20
-4.6429
 30
144.5814
 70
192
 0
VERTEX
 8
SUPPORTO_MANIGLIA_DUPLICATORE
 10
15
 20
-4.6429
 30
144.5814
 70
192
 0
VERTEX
 8
SUPPORTO_MANIGLIA_DUPLICATORE
 10
11.2001
 20
-4.5736
 30
144.5282
 70
192
 0
VERTEX
 8
SUPPORTO_MANIGLIA_DUPLICATORE
 10
11.2001
 20
-4.5736
 30
144.5282
 70
192
 0
VERTEX
 8
SUPPORTO_MANIGLIA_DUPLICATORE
 10
15
 20
-4.5736
 30
144.5282
 70
192
 0
VERTEX
 8
SUPPORTO_MANIGLIA_DUPLICATORE
 10
15
 20
-4.5736
 30
144.5282
 70
192
 0
VERTEX
 8
SUPPORTO_MANIGLIA_DUPLICATORE
 10
11.2001
 20
-4.5
 30
144.4813
 70
192
 0
VERTEX
 8
SUPPORTO_MANIGLIA_DUPLICATORE
 10
11.2001
 20
-4.5
 30
144.4813
 70
192
 0
VERTEX
 8
SUPPORTO_MANIGLIA_DUPLICATORE
 10
15
 20
-4.5
 30
144.4813
 70
192
 0
VERTEX
 8
SUPPORTO_MANIGLIA_DUPLICATORE
 10
15
 20
-4.5
 30
144.4813
 70
192
 0
VERTEX
 8
SUPPORTO_MANIGLIA_DUPLICATORE
 10
11.2001
 20
-4.4226
 30
144.441
 70
192
 0
VERTEX
 8
SUPPORTO_MANIGLIA_DUPLICATORE
 10
11.2001
 20
-4.4226
 30
144.441
 70
192
 0
VERTEX
 8
SUPPORTO_MANIGLIA_DUPLICATORE
 10
15
 20
-4.4226
 30
144.441
 70
192
 0
VERTEX
 8
SUPPORTO_MANIGLIA_DUPLICATORE
 10
15
 20
-4.4226
 30
144.441
 70
192
 0
VERTEX
 8
SUPPORTO_MANIGLIA_DUPLICATORE
 10
11.2001
 20
-4.3419
 30
144.4076
 70
192
 0
VERTEX
 8
SUPPORTO_MANIGLIA_DUPLICATORE
 10
11.2001
 20
-4.3419
 30
144.4076
 70
192
 0
VERTEX
 8
SUPPORTO_MANIGLIA_DUPLICATORE
 10
15
 20
-4.3419
 30
144.4076
 70
192
 0
VERTEX
 8
SUPPORTO_MANIGLIA_DUPLICATORE
 10
15
 20
-4.3419
 30
144.4076
 70
192
 0
VERTEX
 8
SUPPORTO_MANIGLIA_DUPLICATORE
 10
11.2001
 20
-4.2587
 30
144.3814
 70
192
 0
VERTEX
 8
SUPPORTO_MANIGLIA_DUPLICATORE
 10
11.2001
 20
-4.2587
 30
144.3814
 70
192
 0
VERTEX
 8
SUPPORTO_MANIGLIA_DUPLICATORE
 10
15
 20
-4.2587
 30
144.3814
 70
192
 0
VERTEX
 8
SUPPORTO_MANIGLIA_DUPLICATORE
 10
15
 20
-4.2587
 30
144.3814
 70
192
 0
VERTEX
 8
SUPPORTO_MANIGLIA_DUPLICATORE
 10
11.2001
 20
-4.1735
 30
144.3625
 70
192
 0
VERTEX
 8
SUPPORTO_MANIGLIA_DUPLICATORE
 10
11.2001
 20
-4.1735
 30
144.3625
 70
192
 0
VERTEX
 8
SUPPORTO_MANIGLIA_DUPLICATORE
 10
15
 20
-4.1735
 30
144.3625
 70
192
 0
VERTEX
 8
SUPPORTO_MANIGLIA_DUPLICATORE
 10
15
 20
-4.1735
 30
144.3625
 70
192
 0
VERTEX
 8
SUPPORTO_MANIGLIA_DUPLICATORE
 10
11.2001
 20
-4.0869
 30
144.3511
 70
192
 0
VERTEX
 8
SUPPORTO_MANIGLIA_DUPLICATORE
 10
11.2001
 20
-4.0869
 30
144.3511
 70
192
 0
VERTEX
 8
SUPPORTO_MANIGLIA_DUPLICATORE
 10
15
 20
-4.0869
 30
144.3511
 70
192
 0
VERTEX
 8
SUPPORTO_MANIGLIA_DUPLICATORE
 10
15
 20
-4.0869
 30
144.3511
 70
192
 0
VERTEX
 8
SUPPORTO_MANIGLIA_DUPLICATORE
 10
11.2001
 20
-3.9997
 30
144.3473
 70
192
 0
VERTEX
 8
SUPPORTO_MANIGLIA_DUPLICATORE
 10
11.2001
 20
-3.9997
 30
144.3473
 70
192
 0
VERTEX
 8
SUPPORTO_MANIGLIA_DUPLICATORE
 10
15
 20
-3.9997
 30
144.3473
 70
192
 0
VERTEX
 8
SUPPORTO_MANIGLIA_DUPLICATORE
 10
15
 20
-3.9997
 30
144.3473
 70
192
 0
VERTEX
 8
SUPPORTO_MANIGLIA_DUPLICATORE
 10
11.2001
 20
-3.9997
 30
145.3478
 70
192
 0
VERTEX
 8
SUPPORTO_MANIGLIA_DUPLICATORE
 10
11.2001
 20
-3.9997
 30
146.3483
 70
192
 0
VERTEX
 8
SUPPORTO_MANIGLIA_DUPLICATORE
 10
15
 20
-3.9997
 30
146.3483
 70
192
 0
VERTEX
 8
SUPPORTO_MANIGLIA_DUPLICATORE
 10
15
 20
-3.9997
 30
145.3478
 70
192
 0
VERTEX
 8
SUPPORTO_MANIGLIA_DUPLICATORE
 10
11.2001
 20
-3.9997
 30
145.3478
 70
192
 0
VERTEX
 8
SUPPORTO_MANIGLIA_DUPLICATORE
 10
11.2001
 20
-3.9997
 30
144.3473
 70
192
 0
VERTEX
 8
SUPPORTO_MANIGLIA_DUPLICATORE
 10
15
 20
-3.9997
 30
144.3473
 70
192
 0
VERTEX
 8
SUPPORTO_MANIGLIA_DUPLICATORE
 10
15
 20
-3.9997
 30
145.3478
 70
192
 0
VERTEX
 8
SUPPORTO_MANIGLIA_DUPLICATORE
 10
11.2001
 20
-0.9334
 30
145.3481
 70
192
 0
VERTEX
 8
SUPPORTO_MANIGLIA_DUPLICATORE
 10
11.2001
 20
-0.9334
 30
146.3486
 70
192
 0
VERTEX
 8
SUPPORTO_MANIGLIA_DUPLICATORE
 10
15
 20
-0.9334
 30
146.3486
 70
192
 0
VERTEX
 8
SUPPORTO_MANIGLIA_DUPLICATORE
 10
15
 20
-0.9334
 30
145.3481
 70
192
 0
VERTEX
 8
SUPPORTO_MANIGLIA_DUPLICATORE
 10
11.2001
 20
-0.9334
 30
145.3481
 70
192
 0
VERTEX
 8
SUPPORTO_MANIGLIA_DUPLICATORE
 10
11.2001
 20
-0.9334
 30
144.3476
 70
192
 0
VERTEX
 8
SUPPORTO_MANIGLIA_DUPLICATORE
 10
15
 20
-0.9334
 30
144.3476
 70
192
 0
VERTEX
 8
SUPPORTO_MANIGLIA_DUPLICATORE
 10
15
 20
-0.9334
 30
145.3481
 70
192
 0
VERTEX
 8
SUPPORTO_MANIGLIA_DUPLICATORE
 10
11.2001
 20
-0.3998
 30
145.3481
 70
192
 0
VERTEX
 8
SUPPORTO_MANIGLIA_DUPLICATORE
 10
11.2001
 20
-0.3998
 30
146.3486
 70
192
 0
VERTEX
 8
SUPPORTO_MANIGLIA_DUPLICATORE
 10
15
 20
-0.3998
 30
146.3486
 70
192
 0
VERTEX
 8
SUPPORTO_MANIGLIA_DUPLICATORE
 10
15
 20
-0.3998
 30
145.3481
 70
192
 0
VERTEX
 8
SUPPORTO_MANIGLIA_DUPLICATORE
 10
11.2001
 20
-0.3998
 30
145.3481
 70
192
 0
VERTEX
 8
SUPPORTO_MANIGLIA_DUPLICATORE
 10
11.2001
 20
-0.3998
 30
144.3476
 70
192
 0
VERTEX
 8
SUPPORTO_MANIGLIA_DUPLICATORE
 10
15
 20
-0.3998
 30
144.3476
 70
192
 0
VERTEX
 8
SUPPORTO_MANIGLIA_DUPLICATORE
 10
15
 20
-0.3998
 30
145.3481
 70
192
 0
VERTEX
 8
SUPPORTO_MANIGLIA_DUPLICATORE
 10
0
 20
0
 30
0
 70
128
 71
164
 72
172
 73
171
 74
163
 0
VERTEX
 8
SUPPORTO_MANIGLIA_DUPLICATORE
 10
0
 20
0
 30
0
 70
128
 71
166
 72
174
 73
173
 74
165
 0
VERTEX
 8
SUPPORTO_MANIGLIA_DUPLICATORE
 10
0
 20
0
 30
0
 70
128
 71
1
 72
3
 73
7
 74
7
 0
VERTEX
 8
SUPPORTO_MANIGLIA_DUPLICATORE
 10
0
 20
0
 30
0
 70
128
 71
4
 72
5
 73
9
 74
8
 0
VERTEX
 8
SUPPORTO_MANIGLIA_DUPLICATORE
 10
0
 20
0
 30
0
 70
128
 71
6
 72
2
 73
10
 74
10
 0
VERTEX
 8
SUPPORTO_MANIGLIA_DUPLICATORE
 10
0
 20
0
 30
0
 70
128
 71
1
 72
7
 73
11
 74
11
 0
VERTEX
 8
SUPPORTO_MANIGLIA_DUPLICATORE
 10
0
 20
0
 30
0
 70
128
 71
8
 72
9
 73
13
 74
12
 0
VERTEX
 8
SUPPORTO_MANIGLIA_DUPLICATORE
 10
0
 20
0
 30
0
 70
128
 71
10
 72
2
 73
14
 74
14
 0
VERTEX
 8
SUPPORTO_MANIGLIA_DUPLICATORE
 10
0
 20
0
 30
0
 70
128
 71
1
 72
11
 73
15
 74
15
 0
VERTEX
 8
SUPPORTO_MANIGLIA_DUPLICATORE
 10
0
 20
0
 30
0
 70
128
 71
12
 72
13
 73
17
 74
16
 0
VERTEX
 8
SUPPORTO_MANIGLIA_DUPLICATORE
 10
0
 20
0
 30
0
 70
128
 71
14
 72
2
 73
18
 74
18
 0
VERTEX
 8
SUPPORTO_MANIGLIA_DUPLICATORE
 10
0
 20
0
 30
0
 70
128
 71
1
 72
15
 73
19
 74
19
 0
VERTEX
 8
SUPPORTO_MANIGLIA_DUPLICATORE
 10
0
 20
0
 30
0
 70
128
 71
16
 72
17
 73
21
 74
20
 0
VERTEX
 8
SUPPORTO_MANIGLIA_DUPLICATORE
 10
0
 20
0
 30
0
 70
128
 71
18
 72
2
 73
22
 74
22
 0
VERTEX
 8
SUPPORTO_MANIGLIA_DUPLICATORE
 10
0
 20
0
 30
0
 70
128
 71
1
 72
19
 73
23
 74
23
 0
VERTEX
 8
SUPPORTO_MANIGLIA_DUPLICATORE
 10
0
 20
0
 30
0
 70
128
 71
20
 72
21
 73
25
 74
24
 0
VERTEX
 8
SUPPORTO_MANIGLIA_DUPLICATORE
 10
0
 20
0
 30
0
 70
128
 71
22
 72
2
 73
26
 74
26
 0
VERTEX
 8
SUPPORTO_MANIGLIA_DUPLICATORE
 10
0
 20
0
 30
0
 70
128
 71
1
 72
23
 73
27
 74
27
 0
VERTEX
 8
SUPPORTO_MANIGLIA_DUPLICATORE
 10
0
 20
0
 30
0
 70
128
 71
24
 72
25
 73
29
 74
28
 0
VERTEX
 8
SUPPORTO_MANIGLIA_DUPLICATORE
 10
0
 20
0
 30
0
 70
128
 71
26
 72
2
 73
30
 74
30
 0
VERTEX
 8
SUPPORTO_MANIGLIA_DUPLICATORE
 10
0
 20
0
 30
0
 70
128
 71
1
 72
27
 73
31
 74
31
 0
VERTEX
 8
SUPPORTO_MANIGLIA_DUPLICATORE
 10
0
 20
0
 30
0
 70
128
 71
28
 72
29
 73
33
 74
32
 0
VERTEX
 8
SUPPORTO_MANIGLIA_DUPLICATORE
 10
0
 20
0
 30
0
 70
128
 71
30
 72
2
 73
34
 74
34
 0
VERTEX
 8
SUPPORTO_MANIGLIA_DUPLICATORE
 10
0
 20
0
 30
0
 70
128
 71
1
 72
31
 73
35
 74
35
 0
VERTEX
 8
SUPPORTO_MANIGLIA_DUPLICATORE
 10
0
 20
0
 30
0
 70
128
 71
32
 72
33
 73
37
 74
36
 0
VERTEX
 8
SUPPORTO_MANIGLIA_DUPLICATORE
 10
0
 20
0
 30
0
 70
128
 71
34
 72
2
 73
38
 74
38
 0
VERTEX
 8
SUPPORTO_MANIGLIA_DUPLICATORE
 10
0
 20
0
 30
0
 70
128
 71
1
 72
35
 73
39
 74
39
 0
VERTEX
 8
SUPPORTO_MANIGLIA_DUPLICATORE
 10
0
 20
0
 30
0
 70
128
 71
36
 72
37
 73
41
 74
40
 0
VERTEX
 8
SUPPORTO_MANIGLIA_DUPLICATORE
 10
0
 20
0
 30
0
 70
128
 71
38
 72
2
 73
42
 74
42
 0
VERTEX
 8
SUPPORTO_MANIGLIA_DUPLICATORE
 10
0
 20
0
 30
0
 70
128
 71
1
 72
39
 73
43
 74
43
 0
VERTEX
 8
SUPPORTO_MANIGLIA_DUPLICATORE
 10
0
 20
0
 30
0
 70
128
 71
40
 72
41
 73
45
 74
44
 0
VERTEX
 8
SUPPORTO_MANIGLIA_DUPLICATORE
 10
0
 20
0
 30
0
 70
128
 71
42
 72
2
 73
46
 74
46
 0
VERTEX
 8
SUPPORTO_MANIGLIA_DUPLICATORE
 10
0
 20
0
 30
0
 70
128
 71
1
 72
43
 73
47
 74
47
 0
VERTEX
 8
SUPPORTO_MANIGLIA_DUPLICATORE
 10
0
 20
0
 30
0
 70
128
 71
44
 72
45
 73
49
 74
48
 0
VERTEX
 8
SUPPORTO_MANIGLIA_DUPLICATORE
 10
0
 20
0
 30
0
 70
128
 71
46
 72
2
 73
50
 74
50
 0
VERTEX
 8
SUPPORTO_MANIGLIA_DUPLICATORE
 10
0
 20
0
 30
0
 70
128
 71
1
 72
47
 73
51
 74
51
 0
VERTEX
 8
SUPPORTO_MANIGLIA_DUPLICATORE
 10
0
 20
0
 30
0
 70
128
 71
48
 72
49
 73
53
 74
52
 0
VERTEX
 8
SUPPORTO_MANIGLIA_DUPLICATORE
 10
0
 20
0
 30
0
 70
128
 71
50
 72
2
 73
54
 74
54
 0
VERTEX
 8
SUPPORTO_MANIGLIA_DUPLICATORE
 10
0
 20
0
 30
0
 70
128
 71
1
 72
51
 73
55
 74
55
 0
VERTEX
 8
SUPPORTO_MANIGLIA_DUPLICATORE
 10
0
 20
0
 30
0
 70
128
 71
52
 72
53
 73
57
 74
56
 0
VERTEX
 8
SUPPORTO_MANIGLIA_DUPLICATORE
 10
0
 20
0
 30
0
 70
128
 71
54
 72
2
 73
58
 74
58
 0
VERTEX
 8
SUPPORTO_MANIGLIA_DUPLICATORE
 10
0
 20
0
 30
0
 70
128
 71
1
 72
55
 73
59
 74
59
 0
VERTEX
 8
SUPPORTO_MANIGLIA_DUPLICATORE
 10
0
 20
0
 30
0
 70
128
 71
56
 72
57
 73
61
 74
60
 0
VERTEX
 8
SUPPORTO_MANIGLIA_DUPLICATORE
 10
0
 20
0
 30
0
 70
128
 71
58
 72
2
 73
62
 74
62
 0
VERTEX
 8
SUPPORTO_MANIGLIA_DUPLICATORE
 10
0
 20
0
 30
0
 70
128
 71
1
 72
59
 73
63
 74
63
 0
VERTEX
 8
SUPPORTO_MANIGLIA_DUPLICATORE
 10
0
 20
0
 30
0
 70
128
 71
60
 72
61
 73
65
 74
64
 0
VERTEX
 8
SUPPORTO_MANIGLIA_DUPLICATORE
 10
0
 20
0
 30
0
 70
128
 71
62
 72
2
 73
66
 74
66
 0
VERTEX
 8
SUPPORTO_MANIGLIA_DUPLICATORE
 10
0
 20
0
 30
0
 70
128
 71
1
 72
63
 73
67
 74
67
 0
VERTEX
 8
SUPPORTO_MANIGLIA_DUPLICATORE
 10
0
 20
0
 30
0
 70
128
 71
64
 72
65
 73
69
 74
68
 0
VERTEX
 8
SUPPORTO_MANIGLIA_DUPLICATORE
 10
0
 20
0
 30
0
 70
128
 71
66
 72
2
 73
70
 74
70
 0
VERTEX
 8
SUPPORTO_MANIGLIA_DUPLICATORE
 10
0
 20
0
 30
0
 70
128
 71
1
 72
67
 73
71
 74
71
 0
VERTEX
 8
SUPPORTO_MANIGLIA_DUPLICATORE
 10
0
 20
0
 30
0
 70
128
 71
68
 72
69
 73
73
 74
72
 0
VERTEX
 8
SUPPORTO_MANIGLIA_DUPLICATORE
 10
0
 20
0
 30
0
 70
128
 71
70
 72
2
 73
74
 74
74
 0
VERTEX
 8
SUPPORTO_MANIGLIA_DUPLICATORE
 10
0
 20
0
 30
0
 70
128
 71
1
 72
71
 73
75
 74
75
 0
VERTEX
 8
SUPPORTO_MANIGLIA_DUPLICATORE
 10
0
 20
0
 30
0
 70
128
 71
72
 72
73
 73
77
 74
76
 0
VERTEX
 8
SUPPORTO_MANIGLIA_DUPLICATORE
 10
0
 20
0
 30
0
 70
128
 71
74
 72
2
 73
78
 74
78
 0
VERTEX
 8
SUPPORTO_MANIGLIA_DUPLICATORE
 10
0
 20
0
 30
0
 70
128
 71
1
 72
75
 73
79
 74
79
 0
VERTEX
 8
SUPPORTO_MANIGLIA_DUPLICATORE
 10
0
 20
0
 30
0
 70
128
 71
76
 72
77
 73
81
 74
80
 0
VERTEX
 8
SUPPORTO_MANIGLIA_DUPLICATORE
 10
0
 20
0
 30
0
 70
128
 71
78
 72
2
 73
82
 74
82
 0
VERTEX
 8
SUPPORTO_MANIGLIA_DUPLICATORE
 10
0
 20
0
 30
0
 70
128
 71
1
 72
79
 73
83
 74
83
 0
VERTEX
 8
SUPPORTO_MANIGLIA_DUPLICATORE
 10
0
 20
0
 30
0
 70
128
 71
80
 72
81
 73
85
 74
84
 0
VERTEX
 8
SUPPORTO_MANIGLIA_DUPLICATORE
 10
0
 20
0
 30
0
 70
128
 71
82
 72
2
 73
86
 74
86
 0
VERTEX
 8
SUPPORTO_MANIGLIA_DUPLICATORE
 10
0
 20
0
 30
0
 70
128
 71
1
 72
83
 73
87
 74
87
 0
VERTEX
 8
SUPPORTO_MANIGLIA_DUPLICATORE
 10
0
 20
0
 30
0
 70
128
 71
84
 72
85
 73
89
 74
88
 0
VERTEX
 8
SUPPORTO_MANIGLIA_DUPLICATORE
 10
0
 20
0
 30
0
 70
128
 71
86
 72
2
 73
90
 74
90
 0
VERTEX
 8
SUPPORTO_MANIGLIA_DUPLICATORE
 10
0
 20
0
 30
0
 70
128
 71
1
 72
87
 73
91
 74
91
 0
VERTEX
 8
SUPPORTO_MANIGLIA_DUPLICATORE
 10
0
 20
0
 30
0
 70
128
 71
88
 72
89
 73
93
 74
92
 0
VERTEX
 8
SUPPORTO_MANIGLIA_DUPLICATORE
 10
0
 20
0
 30
0
 70
128
 71
90
 72
2
 73
94
 74
94
 0
VERTEX
 8
SUPPORTO_MANIGLIA_DUPLICATORE
 10
0
 20
0
 30
0
 70
128
 71
1
 72
91
 73
95
 74
95
 0
VERTEX
 8
SUPPORTO_MANIGLIA_DUPLICATORE
 10
0
 20
0
 30
0
 70
128
 71
92
 72
93
 73
97
 74
96
 0
VERTEX
 8
SUPPORTO_MANIGLIA_DUPLICATORE
 10
0
 20
0
 30
0
 70
128
 71
94
 72
2
 73
98
 74
98
 0
VERTEX
 8
SUPPORTO_MANIGLIA_DUPLICATORE
 10
0
 20
0
 30
0
 70
128
 71
1
 72
95
 73
99
 74
99
 0
VERTEX
 8
SUPPORTO_MANIGLIA_DUPLICATORE
 10
0
 20
0
 30
0
 70
128
 71
96
 72
97
 73
101
 74
100
 0
VERTEX
 8
SUPPORTO_MANIGLIA_DUPLICATORE
 10
0
 20
0
 30
0
 70
128
 71
98
 72
2
 73
102
 74
102
 0
VERTEX
 8
SUPPORTO_MANIGLIA_DUPLICATORE
 10
0
 20
0
 30
0
 70
128
 71
1
 72
99
 73
103
 74
103
 0
VERTEX
 8
SUPPORTO_MANIGLIA_DUPLICATORE
 10
0
 20
0
 30
0
 70
128
 71
100
 72
101
 73
105
 74
104
 0
VERTEX
 8
SUPPORTO_MANIGLIA_DUPLICATORE
 10
0
 20
0
 30
0
 70
128
 71
102
 72
2
 73
106
 74
106
 0
VERTEX
 8
SUPPORTO_MANIGLIA_DUPLICATORE
 10
0
 20
0
 30
0
 70
128
 71
1
 72
103
 73
107
 74
107
 0
VERTEX
 8
SUPPORTO_MANIGLIA_DUPLICATORE
 10
0
 20
0
 30
0
 70
128
 71
104
 72
105
 73
109
 74
108
 0
VERTEX
 8
SUPPORTO_MANIGLIA_DUPLICATORE
 10
0
 20
0
 30
0
 70
128
 71
106
 72
2
 73
110
 74
110
 0
VERTEX
 8
SUPPORTO_MANIGLIA_DUPLICATORE
 10
0
 20
0
 30
0
 70
128
 71
1
 72
107
 73
111
 74
111
 0
VERTEX
 8
SUPPORTO_MANIGLIA_DUPLICATORE
 10
0
 20
0
 30
0
 70
128
 71
108
 72
109
 73
113
 74
112
 0
VERTEX
 8
SUPPORTO_MANIGLIA_DUPLICATORE
 10
0
 20
0
 30
0
 70
128
 71
110
 72
2
 73
114
 74
114
 0
VERTEX
 8
SUPPORTO_MANIGLIA_DUPLICATORE
 10
0
 20
0
 30
0
 70
128
 71
1
 72
111
 73
115
 74
115
 0
VERTEX
 8
SUPPORTO_MANIGLIA_DUPLICATORE
 10
0
 20
0
 30
0
 70
128
 71
112
 72
113
 73
117
 74
116
 0
VERTEX
 8
SUPPORTO_MANIGLIA_DUPLICATORE
 10
0
 20
0
 30
0
 70
128
 71
114
 72
2
 73
118
 74
118
 0
VERTEX
 8
SUPPORTO_MANIGLIA_DUPLICATORE
 10
0
 20
0
 30
0
 70
128
 71
1
 72
115
 73
119
 74
119
 0
VERTEX
 8
SUPPORTO_MANIGLIA_DUPLICATORE
 10
0
 20
0
 30
0
 70
128
 71
116
 72
117
 73
121
 74
120
 0
VERTEX
 8
SUPPORTO_MANIGLIA_DUPLICATORE
 10
0
 20
0
 30
0
 70
128
 71
118
 72
2
 73
122
 74
122
 0
VERTEX
 8
SUPPORTO_MANIGLIA_DUPLICATORE
 10
0
 20
0
 30
0
 70
128
 71
1
 72
119
 73
123
 74
123
 0
VERTEX
 8
SUPPORTO_MANIGLIA_DUPLICATORE
 10
0
 20
0
 30
0
 70
128
 71
120
 72
121
 73
125
 74
124
 0
VERTEX
 8
SUPPORTO_MANIGLIA_DUPLICATORE
 10
0
 20
0
 30
0
 70
128
 71
122
 72
2
 73
126
 74
126
 0
VERTEX
 8
SUPPORTO_MANIGLIA_DUPLICATORE
 10
0
 20
0
 30
0
 70
128
 71
1
 72
123
 73
127
 74
127
 0
VERTEX
 8
SUPPORTO_MANIGLIA_DUPLICATORE
 10
0
 20
0
 30
0
 70
128
 71
124
 72
125
 73
129
 74
128
 0
VERTEX
 8
SUPPORTO_MANIGLIA_DUPLICATORE
 10
0
 20
0
 30
0
 70
128
 71
126
 72
2
 73
130
 74
130
 0
VERTEX
 8
SUPPORTO_MANIGLIA_DUPLICATORE
 10
0
 20
0
 30
0
 70
128
 71
1
 72
127
 73
131
 74
131
 0
VERTEX
 8
SUPPORTO_MANIGLIA_DUPLICATORE
 10
0
 20
0
 30
0
 70
128
 71
128
 72
129
 73
133
 74
132
 0
VERTEX
 8
SUPPORTO_MANIGLIA_DUPLICATORE
 10
0
 20
0
 30
0
 70
128
 71
130
 72
2
 73
134
 74
134
 0
VERTEX
 8
SUPPORTO_MANIGLIA_DUPLICATORE
 10
0
 20
0
 30
0
 70
128
 71
1
 72
131
 73
135
 74
135
 0
VERTEX
 8
SUPPORTO_MANIGLIA_DUPLICATORE
 10
0
 20
0
 30
0
 70
128
 71
132
 72
133
 73
137
 74
136
 0
VERTEX
 8
SUPPORTO_MANIGLIA_DUPLICATORE
 10
0
 20
0
 30
0
 70
128
 71
134
 72
2
 73
138
 74
138
 0
VERTEX
 8
SUPPORTO_MANIGLIA_DUPLICATORE
 10
0
 20
0
 30
0
 70
128
 71
1
 72
135
 73
139
 74
139
 0
VERTEX
 8
SUPPORTO_MANIGLIA_DUPLICATORE
 10
0
 20
0
 30
0
 70
128
 71
136
 72
137
 73
141
 74
140
 0
VERTEX
 8
SUPPORTO_MANIGLIA_DUPLICATORE
 10
0
 20
0
 30
0
 70
128
 71
138
 72
2
 73
142
 74
142
 0
VERTEX
 8
SUPPORTO_MANIGLIA_DUPLICATORE
 10
0
 20
0
 30
0
 70
128
 71
1
 72
139
 73
143
 74
143
 0
VERTEX
 8
SUPPORTO_MANIGLIA_DUPLICATORE
 10
0
 20
0
 30
0
 70
128
 71
140
 72
141
 73
145
 74
144
 0
VERTEX
 8
SUPPORTO_MANIGLIA_DUPLICATORE
 10
0
 20
0
 30
0
 70
128
 71
142
 72
2
 73
146
 74
146
 0
VERTEX
 8
SUPPORTO_MANIGLIA_DUPLICATORE
 10
0
 20
0
 30
0
 70
128
 71
1
 72
143
 73
147
 74
147
 0
VERTEX
 8
SUPPORTO_MANIGLIA_DUPLICATORE
 10
0
 20
0
 30
0
 70
128
 71
144
 72
145
 73
149
 74
148
 0
VERTEX
 8
SUPPORTO_MANIGLIA_DUPLICATORE
 10
0
 20
0
 30
0
 70
128
 71
146
 72
2
 73
150
 74
150
 0
VERTEX
 8
SUPPORTO_MANIGLIA_DUPLICATORE
 10
0
 20
0
 30
0
 70
128
 71
167
 72
170
 73
169
 74
168
 0
VERTEX
 8
SUPPORTO_MANIGLIA_DUPLICATORE
 10
0
 20
0
 30
0
 70
128
 71
171
 72
172
 73
173
 74
174
 0
VERTEX
 8
SUPPORTO_MANIGLIA_DUPLICATORE
 10
0
 20
0
 30
0
 70
128
 71
151
 72
159
 73
160
 74
152
 0
VERTEX
 8
SUPPORTO_MANIGLIA_DUPLICATORE
 10
0
 20
0
 30
0
 70
128
 71
152
 72
160
 73
161
 74
153
 0
VERTEX
 8
SUPPORTO_MANIGLIA_DUPLICATORE
 10
0
 20
0
 30
0
 70
128
 71
153
 72
161
 73
162
 74
154
 0
VERTEX
 8
SUPPORTO_MANIGLIA_DUPLICATORE
 10
0
 20
0
 30
0
 70
128
 71
154
 72
162
 73
159
 74
151
 0
VERTEX
 8
SUPPORTO_MANIGLIA_DUPLICATORE
 10
0
 20
0
 30
0
 70
128
 71
155
 72
163
 73
166
 74
158
 0
VERTEX
 8
SUPPORTO_MANIGLIA_DUPLICATORE
 10
0
 20
0
 30
0
 70
128
 71
158
 72
166
 73
165
 74
157
 0
VERTEX
 8
SUPPORTO_MANIGLIA_DUPLICATORE
 10
0
 20
0
 30
0
 70
128
 71
157
 72
165
 73
164
 74
156
 0
VERTEX
 8
SUPPORTO_MANIGLIA_DUPLICATORE
 10
0
 20
0
 30
0
 70
128
 71
156
 72
164
 73
163
 74
155
 0
VERTEX
 8
SUPPORTO_MANIGLIA_DUPLICATORE
 10
0
 20
0
 30
0
 70
128
 71
159
 72
167
 73
168
 74
160
 0
VERTEX
 8
SUPPORTO_MANIGLIA_DUPLICATORE
 10
0
 20
0
 30
0
 70
128
 71
160
 72
168
 73
169
 74
161
 0
VERTEX
 8
SUPPORTO_MANIGLIA_DUPLICATORE
 10
0
 20
0
 30
0
 70
128
 71
161
 72
169
 73
170
 74
162
 0
VERTEX
 8
SUPPORTO_MANIGLIA_DUPLICATORE
 10
0
 20
0
 30
0
 70
128
 71
162
 72
170
 73
167
 74
159
 0
VERTEX
 8
SUPPORTO_MANIGLIA_DUPLICATORE
 10
0
 20
0
 30
0
 70
128
 71
163
 72
171
 73
174
 74
166
 0
VERTEX
 8
SUPPORTO_MANIGLIA_DUPLICATORE
 10
0
 20
0
 30
0
 70
128
 71
164
 72
165
 73
173
 74
172
 0
SEQEND
 0
POLYLINE
 8
SUPPORTO_MANIGLIA
 66
1
 10
0.0
 20
0.0
 30
0.0
 70
64
 71
174
 72
126
 0
VERTEX
 8
SUPPORTO_MANIGLIA
 10
-15
 20
-3.9997
 30
145.3478
 70
192
 0
VERTEX
 8
SUPPORTO_MANIGLIA
 10
-11.2003
 20
-3.9997
 30
145.3478
 70
192
 0
VERTEX
 8
SUPPORTO_MANIGLIA
 10
-15
 20
-3.9997
 30
146.3483
 70
192
 0
VERTEX
 8
SUPPORTO_MANIGLIA
 10
-15
 20
-3.9997
 30
146.3483
 70
192
 0
VERTEX
 8
SUPPORTO_MANIGLIA
 10
-11.2003
 20
-3.9997
 30
146.3483
 70
192
 0
VERTEX
 8
SUPPORTO_MANIGLIA
 10
-11.2003
 20
-3.9997
 30
146.3483
 70
192
 0
VERTEX
 8
SUPPORTO_MANIGLIA
 10
-15
 20
-4.0869
 30
146.3445
 70
192
 0
VERTEX
 8
SUPPORTO_MANIGLIA
 10
-15
 20
-4.0869
 30
146.3445
 70
192
 0
VERTEX
 8
SUPPORTO_MANIGLIA
 10
-11.2003
 20
-4.0869
 30
146.3445
 70
192
 0
VERTEX
 8
SUPPORTO_MANIGLIA
 10
-11.2003
 20
-4.0869
 30
146.3445
 70
192
 0
VERTEX
 8
SUPPORTO_MANIGLIA
 10
-15
 20
-4.1735
 30
146.3331
 70
192
 0
VERTEX
 8
SUPPORTO_MANIGLIA
 10
-15
 20
-4.1735
 30
146.3331
 70
192
 0
VERTEX
 8
SUPPORTO_MANIGLIA
 10
-11.2003
 20
-4.1735
 30
146.3331
 70
192
 0
VERTEX
 8
SUPPORTO_MANIGLIA
 10
-11.2003
 20
-4.1735
 30
146.3331
 70
192
 0
VERTEX
 8
SUPPORTO_MANIGLIA
 10
-15
 20
-4.2587
 30
146.3142
 70
192
 0
VERTEX
 8
SUPPORTO_MANIGLIA
 10
-15
 20
-4.2587
 30
146.3142
 70
192
 0
VERTEX
 8
SUPPORTO_MANIGLIA
 10
-11.2003
 20
-4.2587
 30
146.3142
 70
192
 0
VERTEX
 8
SUPPORTO_MANIGLIA
 10
-11.2003
 20
-4.2587
 30
146.3142
 70
192
 0
VERTEX
 8
SUPPORTO_MANIGLIA
 10
-15
 20
-4.3419
 30
146.2879
 70
192
 0
VERTEX
 8
SUPPORTO_MANIGLIA
 10
-15
 20
-4.3419
 30
146.2879
 70
192
 0
VERTEX
 8
SUPPORTO_MANIGLIA
 10
-11.2003
 20
-4.3419
 30
146.2879
 70
192
 0
VERTEX
 8
SUPPORTO_MANIGLIA
 10
-11.2003
 20
-4.3419
 30
146.2879
 70
192
 0
VERTEX
 8
SUPPORTO_MANIGLIA
 10
-15
 20
-4.4226
 30
146.2545
 70
192
 0
VERTEX
 8
SUPPORTO_MANIGLIA
 10
-15
 20
-4.4226
 30
146.2545
 70
192
 0
VERTEX
 8
SUPPORTO_MANIGLIA
 10
-11.2003
 20
-4.4226
 30
146.2545
 70
192
 0
VERTEX
 8
SUPPORTO_MANIGLIA
 10
-11.2003
 20
-4.4226
 30
146.2545
 70
192
 0
VERTEX
 8
SUPPORTO_MANIGLIA
 10
-15
 20
-4.5
 30
146.2142
 70
192
 0
VERTEX
 8
SUPPORTO_MANIGLIA
 10
-15
 20
-4.5
 30
146.2142
 70
192
 0
VERTEX
 8
SUPPORTO_MANIGLIA
 10
-11.2003
 20
-4.5
 30
146.2142
 70
192
 0
VERTEX
 8
SUPPORTO_MANIGLIA
 10
-11.2003
 20
-4.5
 30
146.2142
 70
192
 0
VERTEX
 8
SUPPORTO_MANIGLIA
 10
-15
 20
-4.5736
 30
146.1673
 70
192
 0
VERTEX
 8
SUPPORTO_MANIGLIA
 10
-15
 20
-4.5736
 30
146.1673
 70
192
 0
VERTEX
 8
SUPPORTO_MANIGLIA
 10
-11.2003
 20
-4.5736
 30
146.1673
 70
192
 0
VERTEX
 8
SUPPORTO_MANIGLIA
 10
-11.2003
 20
-4.5736
 30
146.1673
 70
192
 0
VERTEX
 8
SUPPORTO_MANIGLIA
 10
-15
 20
-4.6429
 30
146.1142
 70
192
 0
VERTEX
 8
SUPPORTO_MANIGLIA
 10
-15
 20
-4.6429
 30
146.1142
 70
192
 0
VERTEX
 8
SUPPORTO_MANIGLIA
 10
-11.2003
 20
-4.6429
 30
146.1142
 70
192
 0
VERTEX
 8
SUPPORTO_MANIGLIA
 10
-11.2003
 20
-4.6429
 30
146.1142
 70
192
 0
VERTEX
 8
SUPPORTO_MANIGLIA
 10
-15
 20
-4.7072
 30
146.0552
 70
192
 0
VERTEX
 8
SUPPORTO_MANIGLIA
 10
-15
 20
-4.7072
 30
146.0552
 70
192
 0
VERTEX
 8
SUPPORTO_MANIGLIA
 10
-11.2003
 20
-4.7072
 30
146.0552
 70
192
 0
VERTEX
 8
SUPPORTO_MANIGLIA
 10
-11.2003
 20
-4.7072
 30
146.0552
 70
192
 0
VERTEX
 8
SUPPORTO_MANIGLIA
 10
-15
 20
-4.7662
 30
145.9909
 70
192
 0
VERTEX
 8
SUPPORTO_MANIGLIA
 10
-15
 20
-4.7662
 30
145.9909
 70
192
 0
VERTEX
 8
SUPPORTO_MANIGLIA
 10
-11.2003
 20
-4.7662
 30
145.9909
 70
192
 0
VERTEX
 8
SUPPORTO_MANIGLIA
 10
-11.2003
 20
-4.7662
 30
145.9909
 70
192
 0
VERTEX
 8
SUPPORTO_MANIGLIA
 10
-15
 20
-4.8193
 30
145.9216
 70
192
 0
VERTEX
 8
SUPPORTO_MANIGLIA
 10
-15
 20
-4.8193
 30
145.9216
 70
192
 0
VERTEX
 8
SUPPORTO_MANIGLIA
 10
-11.2003
 20
-4.8193
 30
145.9216
 70
192
 0
VERTEX
 8
SUPPORTO_MANIGLIA
 10
-11.2003
 20
-4.8193
 30
145.9216
 70
192
 0
VERTEX
 8
SUPPORTO_MANIGLIA
 10
-15
 20
-4.8662
 30
145.848
 70
192
 0
VERTEX
 8
SUPPORTO_MANIGLIA
 10
-15
 20
-4.8662
 30
145.848
 70
192
 0
VERTEX
 8
SUPPORTO_MANIGLIA
 10
-11.2003
 20
-4.8662
 30
145.848
 70
192
 0
VERTEX
 8
SUPPORTO_MANIGLIA
 10
-11.2003
 20
-4.8662
 30
145.848
 70
192
 0
VERTEX
 8
SUPPORTO_MANIGLIA
 10
-15
 20
-4.9065
 30
145.7706
 70
192
 0
VERTEX
 8
SUPPORTO_MANIGLIA
 10
-15
 20
-4.9065
 30
145.7706
 70
192
 0
VERTEX
 8
SUPPORTO_MANIGLIA
 10
-11.2003
 20
-4.9065
 30
145.7706
 70
192
 0
VERTEX
 8
SUPPORTO_MANIGLIA
 10
-11.2003
 20
-4.9065
 30
145.7706
 70
192
 0
VERTEX
 8
SUPPORTO_MANIGLIA
 10
-15
 20
-4.9399
 30
145.69
 70
192
 0
VERTEX
 8
SUPPORTO_MANIGLIA
 10
-15
 20
-4.9399
 30
145.69
 70
192
 0
VERTEX
 8
SUPPORTO_MANIGLIA
 10
-11.2003
 20
-4.9399
 30
145.69
 70
192
 0
VERTEX
 8
SUPPORTO_MANIGLIA
 10
-11.2003
 20
-4.9399
 30
145.69
 70
192
 0
VERTEX
 8
SUPPORTO_MANIGLIA
 10
-15
 20
-4.9662
 30
145.6067
 70
192
 0
VERTEX
 8
SUPPORTO_MANIGLIA
 10
-15
 20
-4.9662
 30
145.6067
 70
192
 0
VERTEX
 8
SUPPORTO_MANIGLIA
 10
-11.2003
 20
-4.9662
 30
145.6067
 70
192
 0
VERTEX
 8
SUPPORTO_MANIGLIA
 10
-11.2003
 20
-4.9662
 30
145.6067
 70
192
 0
VERTEX
 8
SUPPORTO_MANIGLIA
 10
-15
 20
-4.985
 30
145.5215
 70
192
 0
VERTEX
 8
SUPPORTO_MANIGLIA
 10
-15
 20
-4.985
 30
145.5215
 70
192
 0
VERTEX
 8
SUPPORTO_MANIGLIA
 10
-11.2003
 20
-4.985
 30
145.5215
 70
192
 0
VERTEX
 8
SUPPORTO_MANIGLIA
 10
-11.2003
 20
-4.985
 30
145.5215
 70
192
 0
VERTEX
 8
SUPPORTO_MANIGLIA
 10
-15
 20
-4.9964
 30
145.435
 70
192
 0
VERTEX
 8
SUPPORTO_MANIGLIA
 10
-15
 20
-4.9964
 30
145.435
 70
192
 0
VERTEX
 8
SUPPORTO_MANIGLIA
 10
-11.2003
 20
-4.9964
 30
145.435
 70
192
 0
VERTEX
 8
SUPPORTO_MANIGLIA
 10
-11.2003
 20
-4.9964
 30
145.435
 70
192
 0
VERTEX
 8
SUPPORTO_MANIGLIA
 10
-15
 20
-5.0002
 30
145.3478
 70
192
 0
VERTEX
 8
SUPPORTO_MANIGLIA
 10
-15
 20
-5.0002
 30
145.3478
 70
192
 0
VERTEX
 8
SUPPORTO_MANIGLIA
 10
-11.2003
 20
-5.0002
 30
145.3478
 70
192
 0
VERTEX
 8
SUPPORTO_MANIGLIA
 10
-11.2003
 20
-5.0002
 30
145.3478
 70
192
 0
VERTEX
 8
SUPPORTO_MANIGLIA
 10
-15
 20
-4.9964
 30
145.2606
 70
192
 0
VERTEX
 8
SUPPORTO_MANIGLIA
 10
-15
 20
-4.9964
 30
145.2606
 70
192
 0
VERTEX
 8
SUPPORTO_MANIGLIA
 10
-11.2003
 20
-4.9964
 30
145.2606
 70
192
 0
VERTEX
 8
SUPPORTO_MANIGLIA
 10
-11.2003
 20
-4.9964
 30
145.2606
 70
192
 0
VERTEX
 8
SUPPORTO_MANIGLIA
 10
-15
 20
-4.985
 30
145.1741
 70
192
 0
VERTEX
 8
SUPPORTO_MANIGLIA
 10
-15
 20
-4.985
 30
145.1741
 70
192
 0
VERTEX
 8
SUPPORTO_MANIGLIA
 10
-11.2003
 20
-4.985
 30
145.1741
 70
192
 0
VERTEX
 8
SUPPORTO_MANIGLIA
 10
-11.2003
 20
-4.985
 30
145.1741
 70
192
 0
VERTEX
 8
SUPPORTO_MANIGLIA
 10
-15
 20
-4.9662
 30
145.0888
 70
192
 0
VERTEX
 8
SUPPORTO_MANIGLIA
 10
-15
 20
-4.9662
 30
145.0888
 70
192
 0
VERTEX
 8
SUPPORTO_MANIGLIA
 10
-11.2003
 20
-4.9662
 30
145.0888
 70
192
 0
VERTEX
 8
SUPPORTO_MANIGLIA
 10
-11.2003
 20
-4.9662
 30
145.0888
 70
192
 0
VERTEX
 8
SUPPORTO_MANIGLIA
 10
-15
 20
-4.9399
 30
145.0056
 70
192
 0
VERTEX
 8
SUPPORTO_MANIGLIA
 10
-15
 20
-4.9399
 30
145.0056
 70
192
 0
VERTEX
 8
SUPPORTO_MANIGLIA
 10
-11.2003
 20
-4.9399
 30
145.0056
 70
192
 0
VERTEX
 8
SUPPORTO_MANIGLIA
 10
-11.2003
 20
-4.9399
 30
145.0056
 70
192
 0
VERTEX
 8
SUPPORTO_MANIGLIA
 10
-15
 20
-4.9065
 30
144.925
 70
192
 0
VERTEX
 8
SUPPORTO_MANIGLIA
 10
-15
 20
-4.9065
 30
144.925
 70
192
 0
VERTEX
 8
SUPPORTO_MANIGLIA
 10
-11.2003
 20
-4.9065
 30
144.925
 70
192
 0
VERTEX
 8
SUPPORTO_MANIGLIA
 10
-11.2003
 20
-4.9065
 30
144.925
 70
192
 0
VERTEX
 8
SUPPORTO_MANIGLIA
 10
-15
 20
-4.8662
 30
144.8475
 70
192
 0
VERTEX
 8
SUPPORTO_MANIGLIA
 10
-15
 20
-4.8662
 30
144.8475
 70
192
 0
VERTEX
 8
SUPPORTO_MANIGLIA
 10
-11.2003
 20
-4.8662
 30
144.8475
 70
192
 0
VERTEX
 8
SUPPORTO_MANIGLIA
 10
-11.2003
 20
-4.8662
 30
144.8475
 70
192
 0
VERTEX
 8
SUPPORTO_MANIGLIA
 10
-15
 20
-4.8193
 30
144.7739
 70
192
 0
VERTEX
 8
SUPPORTO_MANIGLIA
 10
-15
 20
-4.8193
 30
144.7739
 70
192
 0
VERTEX
 8
SUPPORTO_MANIGLIA
 10
-11.2003
 20
-4.8193
 30
144.7739
 70
192
 0
VERTEX
 8
SUPPORTO_MANIGLIA
 10
-11.2003
 20
-4.8193
 30
144.7739
 70
192
 0
VERTEX
 8
SUPPORTO_MANIGLIA
 10
-15
 20
-4.7662
 30
144.7047
 70
192
 0
VERTEX
 8
SUPPORTO_MANIGLIA
 10
-15
 20
-4.7662
 30
144.7047
 70
192
 0
VERTEX
 8
SUPPORTO_MANIGLIA
 10
-11.2003
 20
-4.7662
 30
144.7047
 70
192
 0
VERTEX
 8
SUPPORTO_MANIGLIA
 10
-11.2003
 20
-4.7662
 30
144.7047
 70
192
 0
VERTEX
 8
SUPPORTO_MANIGLIA
 10
-15
 20
-4.7072
 30
144.6403
 70
192
 0
VERTEX
 8
SUPPORTO_MANIGLIA
 10
-15
 20
-4.7072
 30
144.6403
 70
192
 0
VERTEX
 8
SUPPORTO_MANIGLIA
 10
-11.2003
 20
-4.7072
 30
144.6403
 70
192
 0
VERTEX
 8
SUPPORTO_MANIGLIA
 10
-11.2003
 20
-4.7072
 30
144.6403
 70
192
 0
VERTEX
 8
SUPPORTO_MANIGLIA
 10
-15
 20
-4.6429
 30
144.5814
 70
192
 0
VERTEX
 8
SUPPORTO_MANIGLIA
 10
-15
 20
-4.6429
 30
144.5814
 70
192
 0
VERTEX
 8
SUPPORTO_MANIGLIA
 10
-11.2003
 20
-4.6429
 30
144.5814
 70
192
 0
VERTEX
 8
SUPPORTO_MANIGLIA
 10
-11.2003
 20
-4.6429
 30
144.5814
 70
192
 0
VERTEX
 8
SUPPORTO_MANIGLIA
 10
-15
 20
-4.5736
 30
144.5282
 70
192
 0
VERTEX
 8
SUPPORTO_MANIGLIA
 10
-15
 20
-4.5736
 30
144.5282
 70
192
 0
VERTEX
 8
SUPPORTO_MANIGLIA
 10
-11.2003
 20
-4.5736
 30
144.5282
 70
192
 0
VERTEX
 8
SUPPORTO_MANIGLIA
 10
-11.2003
 20
-4.5736
 30
144.5282
 70
192
 0
VERTEX
 8
SUPPORTO_MANIGLIA
 10
-15
 20
-4.5
 30
144.4813
 70
192
 0
VERTEX
 8
SUPPORTO_MANIGLIA
 10
-15
 20
-4.5
 30
144.4813
 70
192
 0
VERTEX
 8
SUPPORTO_MANIGLIA
 10
-11.2003
 20
-4.5
 30
144.4813
 70
192
 0
VERTEX
 8
SUPPORTO_MANIGLIA
 10
-11.2003
 20
-4.5
 30
144.4813
 70
192
 0
VERTEX
 8
SUPPORTO_MANIGLIA
 10
-15
 20
-4.4226
 30
144.441
 70
192
 0
VERTEX
 8
SUPPORTO_MANIGLIA
 10
-15
 20
-4.4226
 30
144.441
 70
192
 0
VERTEX
 8
SUPPORTO_MANIGLIA
 10
-11.2003
 20
-4.4226
 30
144.441
 70
192
 0
VERTEX
 8
SUPPORTO_MANIGLIA
 10
-11.2003
 20
-4.4226
 30
144.441
 70
192
 0
VERTEX
 8
SUPPORTO_MANIGLIA
 10
-15
 20
-4.3419
 30
144.4076
 70
192
 0
VERTEX
 8
SUPPORTO_MANIGLIA
 10
-15
 20
-4.3419
 30
144.4076
 70
192
 0
VERTEX
 8
SUPPORTO_MANIGLIA
 10
-11.2003
 20
-4.3419
 30
144.4076
 70
192
 0
VERTEX
 8
SUPPORTO_MANIGLIA
 10
-11.2003
 20
-4.3419
 30
144.4076
 70
192
 0
VERTEX
 8
SUPPORTO_MANIGLIA
 10
-15
 20
-4.2587
 30
144.3814
 70
192
 0
VERTEX
 8
SUPPORTO_MANIGLIA
 10
-15
 20
-4.2587
 30
144.3814
 70
192
 0
VERTEX
 8
SUPPORTO_MANIGLIA
 10
-11.2003
 20
-4.2587
 30
144.3814
 70
192
 0
VERTEX
 8
SUPPORTO_MANIGLIA
 10
-11.2003
 20
-4.2587
 30
144.3814
 70
192
 0
VERTEX
 8
SUPPORTO_MANIGLIA
 10
-15
 20
-4.1735
 30
144.3625
 70
192
 0
VERTEX
 8
SUPPORTO_MANIGLIA
 10
-15
 20
-4.1735
 30
144.3625
 70
192
 0
VERTEX
 8
SUPPORTO_MANIGLIA
 10
-11.2003
 20
-4.1735
 30
144.3625
 70
192
 0
VERTEX
 8
SUPPORTO_MANIGLIA
 10
-11.2003
 20
-4.1735
 30
144.3625
 70
192
 0
VERTEX
 8
SUPPORTO_MANIGLIA
 10
-15
 20
-4.0869
 30
144.3511
 70
192
 0
VERTEX
 8
SUPPORTO_MANIGLIA
 10
-15
 20
-4.0869
 30
144.3511
 70
192
 0
VERTEX
 8
SUPPORTO_MANIGLIA
 10
-11.2003
 20
-4.0869
 30
144.3511
 70
192
 0
VERTEX
 8
SUPPORTO_MANIGLIA
 10
-11.2003
 20
-4.0869
 30
144.3511
 70
192
 0
VERTEX
 8
SUPPORTO_MANIGLIA
 10
-15
 20
-3.9997
 30
144.3473
 70
192
 0
VERTEX
 8
SUPPORTO_MANIGLIA
 10
-15
 20
-3.9997
 30
144.3473
 70
192
 0
VERTEX
 8
SUPPORTO_MANIGLIA
 10
-11.2003
 20
-3.9997
 30
144.3473
 70
192
 0
VERTEX
 8
SUPPORTO_MANIGLIA
 10
-11.2003
 20
-3.9997
 30
144.3473
 70
192
 0
VERTEX
 8
SUPPORTO_MANIGLIA
 10
-15
 20
-3.9997
 30
145.3478
 70
192
 0
VERTEX
 8
SUPPORTO_MANIGLIA
 10
-15
 20
-3.9997
 30
146.3483
 70
192
 0
VERTEX
 8
SUPPORTO_MANIGLIA
 10
-11.2003
 20
-3.9997
 30
146.3483
 70
192
 0
VERTEX
 8
SUPPORTO_MANIGLIA
 10
-11.2003
 20
-3.9997
 30
145.3478
 70
192
 0
VERTEX
 8
SUPPORTO_MANIGLIA
 10
-15
 20
-3.9997
 30
145.3478
 70
192
 0
VERTEX
 8
SUPPORTO_MANIGLIA
 10
-15
 20
-3.9997
 30
144.3473
 70
192
 0
VERTEX
 8
SUPPORTO_MANIGLIA
 10
-11.2003
 20
-3.9997
 30
144.3473
 70
192
 0
VERTEX
 8
SUPPORTO_MANIGLIA
 10
-11.2003
 20
-3.9997
 30
145.3478
 70
192
 0
VERTEX
 8
SUPPORTO_MANIGLIA
 10
-15
 20
-0.9334
 30
145.3481
 70
192
 0
VERTEX
 8
SUPPORTO_MANIGLIA
 10
-15
 20
-0.9334
 30
146.3486
 70
192
 0
VERTEX
 8
SUPPORTO_MANIGLIA
 10
-11.2003
 20
-0.9334
 30
146.3486
 70
192
 0
VERTEX
 8
SUPPORTO_MANIGLIA
 10
-11.2003
 20
-0.9334
 30
145.3481
 70
192
 0
VERTEX
 8
SUPPORTO_MANIGLIA
 10
-15
 20
-0.9334
 30
145.3481
 70
192
 0
VERTEX
 8
SUPPORTO_MANIGLIA
 10
-15
 20
-0.9334
 30
144.3476
 70
192
 0
VERTEX
 8
SUPPORTO_MANIGLIA
 10
-11.2003
 20
-0.9334
 30
144.3476
 70
192
 0
VERTEX
 8
SUPPORTO_MANIGLIA
 10
-11.2003
 20
-0.9334
 30
145.3481
 70
192
 0
VERTEX
 8
SUPPORTO_MANIGLIA
 10
-15
 20
-0.3998
 30
145.3481
 70
192
 0
VERTEX
 8
SUPPORTO_MANIGLIA
 10
-15
 20
-0.3998
 30
146.3486
 70
192
 0
VERTEX
 8
SUPPORTO_MANIGLIA
 10
-11.2003
 20
-0.3998
 30
146.3486
 70
192
 0
VERTEX
 8
SUPPORTO_MANIGLIA
 10
-11.2003
 20
-0.3998
 30
145.3481
 70
192
 0
VERTEX
 8
SUPPORTO_MANIGLIA
 10
-15
 20
-0.3998
 30
145.3481
 70
192
 0
VERTEX
 8
SUPPORTO_MANIGLIA
 10
-15
 20
-0.3998
 30
144.3476
 70
192
 0
VERTEX
 8
SUPPORTO_MANIGLIA
 10
-11.2003
 20
-0.3998
 30
144.3476
 70
192
 0
VERTEX
 8
SUPPORTO_MANIGLIA
 10
-11.2003
 20
-0.3998
 30
145.3481
 70
192
 0
VERTEX
 8
SUPPORTO_MANIGLIA
 10
0
 20
0
 30
0
 70
128
 71
164
 72
172
 73
171
 74
163
 0
VERTEX
 8
SUPPORTO_MANIGLIA
 10
0
 20
0
 30
0
 70
128
 71
166
 72
174
 73
173
 74
165
 0
VERTEX
 8
SUPPORTO_MANIGLIA
 10
0
 20
0
 30
0
 70
128
 71
1
 72
3
 73
7
 74
7
 0
VERTEX
 8
SUPPORTO_MANIGLIA
 10
0
 20
0
 30
0
 70
128
 71
4
 72
5
 73
9
 74
8
 0
VERTEX
 8
SUPPORTO_MANIGLIA
 10
0
 20
0
 30
0
 70
128
 71
6
 72
2
 73
10
 74
10
 0
VERTEX
 8
SUPPORTO_MANIGLIA
 10
0
 20
0
 30
0
 70
128
 71
1
 72
7
 73
11
 74
11
 0
VERTEX
 8
SUPPORTO_MANIGLIA
 10
0
 20
0
 30
0
 70
128
 71
8
 72
9
 73
13
 74
12
 0
VERTEX
 8
SUPPORTO_MANIGLIA
 10
0
 20
0
 30
0
 70
128
 71
10
 72
2
 73
14
 74
14
 0
VERTEX
 8
SUPPORTO_MANIGLIA
 10
0
 20
0
 30
0
 70
128
 71
1
 72
11
 73
15
 74
15
 0
VERTEX
 8
SUPPORTO_MANIGLIA
 10
0
 20
0
 30
0
 70
128
 71
12
 72
13
 73
17
 74
16
 0
VERTEX
 8
SUPPORTO_MANIGLIA
 10
0
 20
0
 30
0
 70
128
 71
14
 72
2
 73
18
 74
18
 0
VERTEX
 8
SUPPORTO_MANIGLIA
 10
0
 20
0
 30
0
 70
128
 71
1
 72
15
 73
19
 74
19
 0
VERTEX
 8
SUPPORTO_MANIGLIA
 10
0
 20
0
 30
0
 70
128
 71
16
 72
17
 73
21
 74
20
 0
VERTEX
 8
SUPPORTO_MANIGLIA
 10
0
 20
0
 30
0
 70
128
 71
18
 72
2
 73
22
 74
22
 0
VERTEX
 8
SUPPORTO_MANIGLIA
 10
0
 20
0
 30
0
 70
128
 71
1
 72
19
 73
23
 74
23
 0
VERTEX
 8
SUPPORTO_MANIGLIA
 10
0
 20
0
 30
0
 70
128
 71
20
 72
21
 73
25
 74
24
 0
VERTEX
 8
SUPPORTO_MANIGLIA
 10
0
 20
0
 30
0
 70
128
 71
22
 72
2
 73
26
 74
26
 0
VERTEX
 8
SUPPORTO_MANIGLIA
 10
0
 20
0
 30
0
 70
128
 71
1
 72
23
 73
27
 74
27
 0
VERTEX
 8
SUPPORTO_MANIGLIA
 10
0
 20
0
 30
0
 70
128
 71
24
 72
25
 73
29
 74
28
 0
VERTEX
 8
SUPPORTO_MANIGLIA
 10
0
 20
0
 30
0
 70
128
 71
26
 72
2
 73
30
 74
30
 0
VERTEX
 8
SUPPORTO_MANIGLIA
 10
0
 20
0
 30
0
 70
128
 71
1
 72
27
 73
31
 74
31
 0
VERTEX
 8
SUPPORTO_MANIGLIA
 10
0
 20
0
 30
0
 70
128
 71
28
 72
29
 73
33
 74
32
 0
VERTEX
 8
SUPPORTO_MANIGLIA
 10
0
 20
0
 30
0
 70
128
 71
30
 72
2
 73
34
 74
34
 0
VERTEX
 8
SUPPORTO_MANIGLIA
 10
0
 20
0
 30
0
 70
128
 71
1
 72
31
 73
35
 74
35
 0
VERTEX
 8
SUPPORTO_MANIGLIA
 10
0
 20
0
 30
0
 70
128
 71
32
 72
33
 73
37
 74
36
 0
VERTEX
 8
SUPPORTO_MANIGLIA
 10
0
 20
0
 30
0
 70
128
 71
34
 72
2
 73
38
 74
38
 0
VERTEX
 8
SUPPORTO_MANIGLIA
 10
0
 20
0
 30
0
 70
128
 71
1
 72
35
 73
39
 74
39
 0
VERTEX
 8
SUPPORTO_MANIGLIA
 10
0
 20
0
 30
0
 70
128
 71
36
 72
37
 73
41
 74
40
 0
VERTEX
 8
SUPPORTO_MANIGLIA
 10
0
 20
0
 30
0
 70
128
 71
38
 72
2
 73
42
 74
42
 0
VERTEX
 8
SUPPORTO_MANIGLIA
 10
0
 20
0
 30
0
 70
128
 71
1
 72
39
 73
43
 74
43
 0
VERTEX
 8
SUPPORTO_MANIGLIA
 10
0
 20
0
 30
0
 70
128
 71
40
 72
41
 73
45
 74
44
 0
VERTEX
 8
SUPPORTO_MANIGLIA
 10
0
 20
0
 30
0
 70
128
 71
42
 72
2
 73
46
 74
46
 0
VERTEX
 8
SUPPORTO_MANIGLIA
 10
0
 20
0
 30
0
 70
128
 71
1
 72
43
 73
47
 74
47
 0
VERTEX
 8
SUPPORTO_MANIGLIA
 10
0
 20
0
 30
0
 70
128
 71
44
 72
45
 73
49
 74
48
 0
VERTEX
 8
SUPPORTO_MANIGLIA
 10
0
 20
0
 30
0
 70
128
 71
46
 72
2
 73
50
 74
50
 0
VERTEX
 8
SUPPORTO_MANIGLIA
 10
0
 20
0
 30
0
 70
128
 71
1
 72
47
 73
51
 74
51
 0
VERTEX
 8
SUPPORTO_MANIGLIA
 10
0
 20
0
 30
0
 70
128
 71
48
 72
49
 73
53
 74
52
 0
VERTEX
 8
SUPPORTO_MANIGLIA
 10
0
 20
0
 30
0
 70
128
 71
50
 72
2
 73
54
 74
54
 0
VERTEX
 8
SUPPORTO_MANIGLIA
 10
0
 20
0
 30
0
 70
128
 71
1
 72
51
 73
55
 74
55
 0
VERTEX
 8
SUPPORTO_MANIGLIA
 10
0
 20
0
 30
0
 70
128
 71
52
 72
53
 73
57
 74
56
 0
VERTEX
 8
SUPPORTO_MANIGLIA
 10
0
 20
0
 30
0
 70
128
 71
54
 72
2
 73
58
 74
58
 0
VERTEX
 8
SUPPORTO_MANIGLIA
 10
0
 20
0
 30
0
 70
128
 71
1
 72
55
 73
59
 74
59
 0
VERTEX
 8
SUPPORTO_MANIGLIA
 10
0
 20
0
 30
0
 70
128
 71
56
 72
57
 73
61
 74
60
 0
VERTEX
 8
SUPPORTO_MANIGLIA
 10
0
 20
0
 30
0
 70
128
 71
58
 72
2
 73
62
 74
62
 0
VERTEX
 8
SUPPORTO_MANIGLIA
 10
0
 20
0
 30
0
 70
128
 71
1
 72
59
 73
63
 74
63
 0
VERTEX
 8
SUPPORTO_MANIGLIA
 10
0
 20
0
 30
0
 70
128
 71
60
 72
61
 73
65
 74
64
 0
VERTEX
 8
SUPPORTO_MANIGLIA
 10
0
 20
0
 30
0
 70
128
 71
62
 72
2
 73
66
 74
66
 0
VERTEX
 8
SUPPORTO_MANIGLIA
 10
0
 20
0
 30
0
 70
128
 71
1
 72
63
 73
67
 74
67
 0
VERTEX
 8
SUPPORTO_MANIGLIA
 10
0
 20
0
 30
0
 70
128
 71
64
 72
65
 73
69
 74
68
 0
VERTEX
 8
SUPPORTO_MANIGLIA
 10
0
 20
0
 30
0
 70
128
 71
66
 72
2
 73
70
 74
70
 0
VERTEX
 8
SUPPORTO_MANIGLIA
 10
0
 20
0
 30
0
 70
128
 71
1
 72
67
 73
71
 74
71
 0
VERTEX
 8
SUPPORTO_MANIGLIA
 10
0
 20
0
 30
0
 70
128
 71
68
 72
69
 73
73
 74
72
 0
VERTEX
 8
SUPPORTO_MANIGLIA
 10
0
 20
0
 30
0
 70
128
 71
70
 72
2
 73
74
 74
74
 0
VERTEX
 8
SUPPORTO_MANIGLIA
 10
0
 20
0
 30
0
 70
128
 71
1
 72
71
 73
75
 74
75
 0
VERTEX
 8
SUPPORTO_MANIGLIA
 10
0
 20
0
 30
0
 70
128
 71
72
 72
73
 73
77
 74
76
 0
VERTEX
 8
SUPPORTO_MANIGLIA
 10
0
 20
0
 30
0
 70
128
 71
74
 72
2
 73
78
 74
78
 0
VERTEX
 8
SUPPORTO_MANIGLIA
 10
0
 20
0
 30
0
 70
128
 71
1
 72
75
 73
79
 74
79
 0
VERTEX
 8
SUPPORTO_MANIGLIA
 10
0
 20
0
 30
0
 70
128
 71
76
 72
77
 73
81
 74
80
 0
VERTEX
 8
SUPPORTO_MANIGLIA
 10
0
 20
0
 30
0
 70
128
 71
78
 72
2
 73
82
 74
82
 0
VERTEX
 8
SUPPORTO_MANIGLIA
 10
0
 20
0
 30
0
 70
128
 71
1
 72
79
 73
83
 74
83
 0
VERTEX
 8
SUPPORTO_MANIGLIA
 10
0
 20
0
 30
0
 70
128
 71
80
 72
81
 73
85
 74
84
 0
VERTEX
 8
SUPPORTO_MANIGLIA
 10
0
 20
0
 30
0
 70
128
 71
82
 72
2
 73
86
 74
86
 0
VERTEX
 8
SUPPORTO_MANIGLIA
 10
0
 20
0
 30
0
 70
128
 71
1
 72
83
 73
87
 74
87
 0
VERTEX
 8
SUPPORTO_MANIGLIA
 10
0
 20
0
 30
0
 70
128
 71
84
 72
85
 73
89
 74
88
 0
VERTEX
 8
SUPPORTO_MANIGLIA
 10
0
 20
0
 30
0
 70
128
 71
86
 72
2
 73
90
 74
90
 0
VERTEX
 8
SUPPORTO_MANIGLIA
 10
0
 20
0
 30
0
 70
128
 71
1
 72
87
 73
91
 74
91
 0
VERTEX
 8
SUPPORTO_MANIGLIA
 10
0
 20
0
 30
0
 70
128
 71
88
 72
89
 73
93
 74
92
 0
VERTEX
 8
SUPPORTO_MANIGLIA
 10
0
 20
0
 30
0
 70
128
 71
90
 72
2
 73
94
 74
94
 0
VERTEX
 8
SUPPORTO_MANIGLIA
 10
0
 20
0
 30
0
 70
128
 71
1
 72
91
 73
95
 74
95
 0
VERTEX
 8
SUPPORTO_MANIGLIA
 10
0
 20
0
 30
0
 70
128
 71
92
 72
93
 73
97
 74
96
 0
VERTEX
 8
SUPPORTO_MANIGLIA
 10
0
 20
0
 30
0
 70
128
 71
94
 72
2
 73
98
 74
98
 0
VERTEX
 8
SUPPORTO_MANIGLIA
 10
0
 20
0
 30
0
 70
128
 71
1
 72
95
 73
99
 74
99
 0
VERTEX
 8
SUPPORTO_MANIGLIA
 10
0
 20
0
 30
0
 70
128
 71
96
 72
97
 73
101
 74
100
 0
VERTEX
 8
SUPPORTO_MANIGLIA
 10
0
 20
0
 30
0
 70
128
 71
98
 72
2
 73
102
 74
102
 0
VERTEX
 8
SUPPORTO_MANIGLIA
 10
0
 20
0
 30
0
 70
128
 71
1
 72
99
 73
103
 74
103
 0
VERTEX
 8
SUPPORTO_MANIGLIA
 10
0
 20
0
 30
0
 70
128
 71
100
 72
101
 73
105
 74
104
 0
VERTEX
 8
SUPPORTO_MANIGLIA
 10
0
 20
0
 30
0
 70
128
 71
102
 72
2
 73
106
 74
106
 0
VERTEX
 8
SUPPORTO_MANIGLIA
 10
0
 20
0
 30
0
 70
128
 71
1
 72
103
 73
107
 74
107
 0
VERTEX
 8
SUPPORTO_MANIGLIA
 10
0
 20
0
 30
0
 70
128
 71
104
 72
105
 73
109
 74
108
 0
VERTEX
 8
SUPPORTO_MANIGLIA
 10
0
 20
0
 30
0
 70
128
 71
106
 72
2
 73
110
 74
110
 0
VERTEX
 8
SUPPORTO_MANIGLIA
 10
0
 20
0
 30
0
 70
128
 71
1
 72
107
 73
111
 74
111
 0
VERTEX
 8
SUPPORTO_MANIGLIA
 10
0
 20
0
 30
0
 70
128
 71
108
 72
109
 73
113
 74
112
 0
VERTEX
 8
SUPPORTO_MANIGLIA
 10
0
 20
0
 30
0
 70
128
 71
110
 72
2
 73
114
 74
114
 0
VERTEX
 8
SUPPORTO_MANIGLIA
 10
0
 20
0
 30
0
 70
128
 71
1
 72
111
 73
115
 74
115
 0
VERTEX
 8
SUPPORTO_MANIGLIA
 10
0
 20
0
 30
0
 70
128
 71
112
 72
113
 73
117
 74
116
 0
VERTEX
 8
SUPPORTO_MANIGLIA
 10
0
 20
0
 30
0
 70
128
 71
114
 72
2
 73
118
 74
118
 0
VERTEX
 8
SUPPORTO_MANIGLIA
 10
0
 20
0
 30
0
 70
128
 71
1
 72
115
 73
119
 74
119
 0
VERTEX
 8
SUPPORTO_MANIGLIA
 10
0
 20
0
 30
0
 70
128
 71
116
 72
117
 73
121
 74
120
 0
VERTEX
 8
SUPPORTO_MANIGLIA
 10
0
 20
0
 30
0
 70
128
 71
118
 72
2
 73
122
 74
122
 0
VERTEX
 8
SUPPORTO_MANIGLIA
 10
0
 20
0
 30
0
 70
128
 71
1
 72
119
 73
123
 74
123
 0
VERTEX
 8
SUPPORTO_MANIGLIA
 10
0
 20
0
 30
0
 70
128
 71
120
 72
121
 73
125
 74
124
 0
VERTEX
 8
SUPPORTO_MANIGLIA
 10
0
 20
0
 30
0
 70
128
 71
122
 72
2
 73
126
 74
126
 0
VERTEX
 8
SUPPORTO_MANIGLIA
 10
0
 20
0
 30
0
 70
128
 71
1
 72
123
 73
127
 74
127
 0
VERTEX
 8
SUPPORTO_MANIGLIA
 10
0
 20
0
 30
0
 70
128
 71
124
 72
125
 73
129
 74
128
 0
VERTEX
 8
SUPPORTO_MANIGLIA
 10
0
 20
0
 30
0
 70
128
 71
126
 72
2
 73
130
 74
130
 0
VERTEX
 8
SUPPORTO_MANIGLIA
 10
0
 20
0
 30
0
 70
128
 71
1
 72
127
 73
131
 74
131
 0
VERTEX
 8
SUPPORTO_MANIGLIA
 10
0
 20
0
 30
0
 70
128
 71
128
 72
129
 73
133
 74
132
 0
VERTEX
 8
SUPPORTO_MANIGLIA
 10
0
 20
0
 30
0
 70
128
 71
130
 72
2
 73
134
 74
134
 0
VERTEX
 8
SUPPORTO_MANIGLIA
 10
0
 20
0
 30
0
 70
128
 71
1
 72
131
 73
135
 74
135
 0
VERTEX
 8
SUPPORTO_MANIGLIA
 10
0
 20
0
 30
0
 70
128
 71
132
 72
133
 73
137
 74
136
 0
VERTEX
 8
SUPPORTO_MANIGLIA
 10
0
 20
0
 30
0
 70
128
 71
134
 72
2
 73
138
 74
138
 0
VERTEX
 8
SUPPORTO_MANIGLIA
 10
0
 20
0
 30
0
 70
128
 71
1
 72
135
 73
139
 74
139
 0
VERTEX
 8
SUPPORTO_MANIGLIA
 10
0
 20
0
 30
0
 70
128
 71
136
 72
137
 73
141
 74
140
 0
VERTEX
 8
SUPPORTO_MANIGLIA
 10
0
 20
0
 30
0
 70
128
 71
138
 72
2
 73
142
 74
142
 0
VERTEX
 8
SUPPORTO_MANIGLIA
 10
0
 20
0
 30
0
 70
128
 71
1
 72
139
 73
143
 74
143
 0
VERTEX
 8
SUPPORTO_MANIGLIA
 10
0
 20
0
 30
0
 70
128
 71
140
 72
141
 73
145
 74
144
 0
VERTEX
 8
SUPPORTO_MANIGLIA
 10
0
 20
0
 30
0
 70
128
 71
142
 72
2
 73
146
 74
146
 0
VERTEX
 8
SUPPORTO_MANIGLIA
 10
0
 20
0
 30
0
 70
128
 71
1
 72
143
 73
147
 74
147
 0
VERTEX
 8
SUPPORTO_MANIGLIA
 10
0
 20
0
 30
0
 70
128
 71
144
 72
145
 73
149
 74
148
 0
VERTEX
 8
SUPPORTO_MANIGLIA
 10
0
 20
0
 30
0
 70
128
 71
146
 72
2
 73
150
 74
150
 0
VERTEX
 8
SUPPORTO_MANIGLIA
 10
0
 20
0
 30
0
 70
128
 71
167
 72
170
 73
169
 74
168
 0
VERTEX
 8
SUPPORTO_MANIGLIA
 10
0
 20
0
 30
0
 70
128
 71
171
 72
172
 73
173
 74
174
 0
VERTEX
 8
SUPPORTO_MANIGLIA
 10
0
 20
0
 30
0
 70
128
 71
151
 72
159
 73
160
 74
152
 0
VERTEX
 8
SUPPORTO_MANIGLIA
 10
0
 20
0
 30
0
 70
128
 71
152
 72
160
 73
161
 74
153
 0
VERTEX
 8
SUPPORTO_MANIGLIA
 10
0
 20
0
 30
0
 70
128
 71
153
 72
161
 73
162
 74
154
 0
VERTEX
 8
SUPPORTO_MANIGLIA
 10
0
 20
0
 30
0
 70
128
 71
154
 72
162
 73
159
 74
151
 0
VERTEX
 8
SUPPORTO_MANIGLIA
 10
0
 20
0
 30
0
 70
128
 71
155
 72
163
 73
166
 74
158
 0
VERTEX
 8
SUPPORTO_MANIGLIA
 10
0
 20
0
 30
0
 70
128
 71
158
 72
166
 73
165
 74
157
 0
VERTEX
 8
SUPPORTO_MANIGLIA
 10
0
 20
0
 30
0
 70
128
 71
157
 72
165
 73
164
 74
156
 0
VERTEX
 8
SUPPORTO_MANIGLIA
 10
0
 20
0
 30
0
 70
128
 71
156
 72
164
 73
163
 74
155
 0
VERTEX
 8
SUPPORTO_MANIGLIA
 10
0
 20
0
 30
0
 70
128
 71
159
 72
167
 73
168
 74
160
 0
VERTEX
 8
SUPPORTO_MANIGLIA
 10
0
 20
0
 30
0
 70
128
 71
160
 72
168
 73
169
 74
161
 0
VERTEX
 8
SUPPORTO_MANIGLIA
 10
0
 20
0
 30
0
 70
128
 71
161
 72
169
 73
170
 74
162
 0
VERTEX
 8
SUPPORTO_MANIGLIA
 10
0
 20
0
 30
0
 70
128
 71
162
 72
170
 73
167
 74
159
 0
VERTEX
 8
SUPPORTO_MANIGLIA
 10
0
 20
0
 30
0
 70
128
 71
163
 72
171
 73
174
 74
166
 0
VERTEX
 8
SUPPORTO_MANIGLIA
 10
0
 20
0
 30
0
 70
128
 71
164
 72
165
 73
173
 74
172
 0
SEQEND
 0
POLYLINE
 8
CILINDRO_DUPLICATORE
 66
1
 10
0.0
 20
0.0
 30
0.0
 70
64
 71
146
 72
108
 0
VERTEX
 8
CILINDRO_DUPLICATORE
 10
11.0383
 20
-3.9997
 30
145.3478
 70
192
 0
VERTEX
 8
CILINDRO_DUPLICATORE
 10
11.1984
 20
-3.9997
 30
145.3478
 70
192
 0
VERTEX
 8
CILINDRO_DUPLICATORE
 10
11.0383
 20
-3.9997
 30
144.3473
 70
192
 0
VERTEX
 8
CILINDRO_DUPLICATORE
 10
11.0383
 20
-3.9997
 30
144.3473
 70
192
 0
VERTEX
 8
CILINDRO_DUPLICATORE
 10
11.1984
 20
-3.9997
 30
144.3473
 70
192
 0
VERTEX
 8
CILINDRO_DUPLICATORE
 10
11.1984
 20
-3.9997
 30
144.3473
 70
192
 0
VERTEX
 8
CILINDRO_DUPLICATORE
 10
11.0383
 20
-3.826
 30
144.3625
 70
192
 0
VERTEX
 8
CILINDRO_DUPLICATORE
 10
11.0383
 20
-3.826
 30
144.3625
 70
192
 0
VERTEX
 8
CILINDRO_DUPLICATORE
 10
11.1984
 20
-3.826
 30
144.3625
 70
192
 0
VERTEX
 8
CILINDRO_DUPLICATORE
 10
11.1984
 20
-3.826
 30
144.3625
 70
192
 0
VERTEX
 8
CILINDRO_DUPLICATORE
 10
11.0383
 20
-3.6576
 30
144.4076
 70
192
 0
VERTEX
 8
CILINDRO_DUPLICATORE
 10
11.0383
 20
-3.6576
 30
144.4076
 70
192
 0
VERTEX
 8
CILINDRO_DUPLICATORE
 10
11.1984
 20
-3.6576
 30
144.4076
 70
192
 0
VERTEX
 8
CILINDRO_DUPLICATORE
 10
11.1984
 20
-3.6576
 30
144.4076
 70
192
 0
VERTEX
 8
CILINDRO_DUPLICATORE
 10
11.0383
 20
-3.4995
 30
144.4813
 70
192
 0
VERTEX
 8
CILINDRO_DUPLICATORE
 10
11.0383
 20
-3.4995
 30
144.4813
 70
192
 0
VERTEX
 8
CILINDRO_DUPLICATORE
 10
11.1984
 20
-3.4995
 30
144.4813
 70
192
 0
VERTEX
 8
CILINDRO_DUPLICATORE
 10
11.1984
 20
-3.4995
 30
144.4813
 70
192
 0
VERTEX
 8
CILINDRO_DUPLICATORE
 10
11.0383
 20
-3.3566
 30
144.5814
 70
192
 0
VERTEX
 8
CILINDRO_DUPLICATORE
 10
11.0383
 20
-3.3566
 30
144.5814
 70
192
 0
VERTEX
 8
CILINDRO_DUPLICATORE
 10
11.1984
 20
-3.3566
 30
144.5814
 70
192
 0
VERTEX
 8
CILINDRO_DUPLICATORE
 10
11.1984
 20
-3.3566
 30
144.5814
 70
192
 0
VERTEX
 8
CILINDRO_DUPLICATORE
 10
11.0383
 20
-3.2333
 30
144.7047
 70
192
 0
VERTEX
 8
CILINDRO_DUPLICATORE
 10
11.0383
 20
-3.2333
 30
144.7047
 70
192
 0
VERTEX
 8
CILINDRO_DUPLICATORE
 10
11.1984
 20
-3.2333
 30
144.7047
 70
192
 0
VERTEX
 8
CILINDRO_DUPLICATORE
 10
11.1984
 20
-3.2333
 30
144.7047
 70
192
 0
VERTEX
 8
CILINDRO_DUPLICATORE
 10
11.0383
 20
-3.1333
 30
144.8475
 70
192
 0
VERTEX
 8
CILINDRO_DUPLICATORE
 10
11.0383
 20
-3.1333
 30
144.8475
 70
192
 0
VERTEX
 8
CILINDRO_DUPLICATORE
 10
11.1984
 20
-3.1333
 30
144.8475
 70
192
 0
VERTEX
 8
CILINDRO_DUPLICATORE
 10
11.1984
 20
-3.1333
 30
144.8475
 70
192
 0
VERTEX
 8
CILINDRO_DUPLICATORE
 10
11.0383
 20
-3.0596
 30
145.0056
 70
192
 0
VERTEX
 8
CILINDRO_DUPLICATORE
 10
11.0383
 20
-3.0596
 30
145.0056
 70
192
 0
VERTEX
 8
CILINDRO_DUPLICATORE
 10
11.1984
 20
-3.0596
 30
145.0056
 70
192
 0
VERTEX
 8
CILINDRO_DUPLICATORE
 10
11.1984
 20
-3.0596
 30
145.0056
 70
192
 0
VERTEX
 8
CILINDRO_DUPLICATORE
 10
11.0383
 20
-3.0144
 30
145.1741
 70
192
 0
VERTEX
 8
CILINDRO_DUPLICATORE
 10
11.0383
 20
-3.0144
 30
145.1741
 70
192
 0
VERTEX
 8
CILINDRO_DUPLICATORE
 10
11.1984
 20
-3.0144
 30
145.1741
 70
192
 0
VERTEX
 8
CILINDRO_DUPLICATORE
 10
11.1984
 20
-3.0144
 30
145.1741
 70
192
 0
VERTEX
 8
CILINDRO_DUPLICATORE
 10
11.0383
 20
-2.9992
 30
145.3478
 70
192
 0
VERTEX
 8
CILINDRO_DUPLICATORE
 10
11.0383
 20
-2.9992
 30
145.3478
 70
192
 0
VERTEX
 8
CILINDRO_DUPLICATORE
 10
11.1984
 20
-2.9992
 30
145.3478
 70
192
 0
VERTEX
 8
CILINDRO_DUPLICATORE
 10
11.1984
 20
-2.9992
 30
145.3478
 70
192
 0
VERTEX
 8
CILINDRO_DUPLICATORE
 10
11.0383
 20
-3.0144
 30
145.5215
 70
192
 0
VERTEX
 8
CILINDRO_DUPLICATORE
 10
11.0383
 20
-3.0144
 30
145.5215
 70
192
 0
VERTEX
 8
CILINDRO_DUPLICATORE
 10
11.1984
 20
-3.0144
 30
145.5215
 70
192
 0
VERTEX
 8
CILINDRO_DUPLICATORE
 10
11.1984
 20
-3.0144
 30
145.5215
 70
192
 0
VERTEX
 8
CILINDRO_DUPLICATORE
 10
11.0383
 20
-3.0596
 30
145.69
 70
192
 0
VERTEX
 8
CILINDRO_DUPLICATORE
 10
11.0383
 20
-3.0596
 30
145.69
 70
192
 0
VERTEX
 8
CILINDRO_DUPLICATORE
 10
11.1984
 20
-3.0596
 30
145.69
 70
192
 0
VERTEX
 8
CILINDRO_DUPLICATORE
 10
11.1984
 20
-3.0596
 30
145.69
 70
192
 0
VERTEX
 8
CILINDRO_DUPLICATORE
 10
11.0383
 20
-3.1333
 30
145.848
 70
192
 0
VERTEX
 8
CILINDRO_DUPLICATORE
 10
11.0383
 20
-3.1333
 30
145.848
 70
192
 0
VERTEX
 8
CILINDRO_DUPLICATORE
 10
11.1984
 20
-3.1333
 30
145.848
 70
192
 0
VERTEX
 8
CILINDRO_DUPLICATORE
 10
11.1984
 20
-3.1333
 30
145.848
 70
192
 0
VERTEX
 8
CILINDRO_DUPLICATORE
 10
11.0383
 20
-3.2333
 30
145.9909
 70
192
 0
VERTEX
 8
CILINDRO_DUPLICATORE
 10
11.0383
 20
-3.2333
 30
145.9909
 70
192
 0
VERTEX
 8
CILINDRO_DUPLICATORE
 10
11.1984
 20
-3.2333
 30
145.9909
 70
192
 0
VERTEX
 8
CILINDRO_DUPLICATORE
 10
11.1984
 20
-3.2333
 30
145.9909
 70
192
 0
VERTEX
 8
CILINDRO_DUPLICATORE
 10
11.0383
 20
-3.3566
 30
146.1142
 70
192
 0
VERTEX
 8
CILINDRO_DUPLICATORE
 10
11.0383
 20
-3.3566
 30
146.1142
 70
192
 0
VERTEX
 8
CILINDRO_DUPLICATORE
 10
11.1984
 20
-3.3566
 30
146.1142
 70
192
 0
VERTEX
 8
CILINDRO_DUPLICATORE
 10
11.1984
 20
-3.3566
 30
146.1142
 70
192
 0
VERTEX
 8
CILINDRO_DUPLICATORE
 10
11.0383
 20
-3.4995
 30
146.2142
 70
192
 0
VERTEX
 8
CILINDRO_DUPLICATORE
 10
11.0383
 20
-3.4995
 30
146.2142
 70
192
 0
VERTEX
 8
CILINDRO_DUPLICATORE
 10
11.1984
 20
-3.4995
 30
146.2142
 70
192
 0
VERTEX
 8
CILINDRO_DUPLICATORE
 10
11.1984
 20
-3.4995
 30
146.2142
 70
192
 0
VERTEX
 8
CILINDRO_DUPLICATORE
 10
11.0383
 20
-3.6576
 30
146.2879
 70
192
 0
VERTEX
 8
CILINDRO_DUPLICATORE
 10
11.0383
 20
-3.6576
 30
146.2879
 70
192
 0
VERTEX
 8
CILINDRO_DUPLICATORE
 10
11.1984
 20
-3.6576
 30
146.2879
 70
192
 0
VERTEX
 8
CILINDRO_DUPLICATORE
 10
11.1984
 20
-3.6576
 30
146.2879
 70
192
 0
VERTEX
 8
CILINDRO_DUPLICATORE
 10
11.0383
 20
-3.826
 30
146.3331
 70
192
 0
VERTEX
 8
CILINDRO_DUPLICATORE
 10
11.0383
 20
-3.826
 30
146.3331
 70
192
 0
VERTEX
 8
CILINDRO_DUPLICATORE
 10
11.1984
 20
-3.826
 30
146.3331
 70
192
 0
VERTEX
 8
CILINDRO_DUPLICATORE
 10
11.1984
 20
-3.826
 30
146.3331
 70
192
 0
VERTEX
 8
CILINDRO_DUPLICATORE
 10
11.0383
 20
-3.9997
 30
146.3483
 70
192
 0
VERTEX
 8
CILINDRO_DUPLICATORE
 10
11.0383
 20
-3.9997
 30
146.3483
 70
192
 0
VERTEX
 8
CILINDRO_DUPLICATORE
 10
11.1984
 20
-3.9997
 30
146.3483
 70
192
 0
VERTEX
 8
CILINDRO_DUPLICATORE
 10
11.1984
 20
-3.9997
 30
146.3483
 70
192
 0
VERTEX
 8
CILINDRO_DUPLICATORE
 10
11.0383
 20
-4.1735
 30
146.3331
 70
192
 0
VERTEX
 8
CILINDRO_DUPLICATORE
 10
11.0383
 20
-4.1735
 30
146.3331
 70
192
 0
VERTEX
 8
CILINDRO_DUPLICATORE
 10
11.1984
 20
-4.1735
 30
146.3331
 70
192
 0
VERTEX
 8
CILINDRO_DUPLICATORE
 10
11.1984
 20
-4.1735
 30
146.3331
 70
192
 0
VERTEX
 8
CILINDRO_DUPLICATORE
 10
11.0383
 20
-4.3419
 30
146.2879
 70
192
 0
VERTEX
 8
CILINDRO_DUPLICATORE
 10
11.0383
 20
-4.3419
 30
146.2879
 70
192
 0
VERTEX
 8
CILINDRO_DUPLICATORE
 10
11.1984
 20
-4.3419
 30
146.2879
 70
192
 0
VERTEX
 8
CILINDRO_DUPLICATORE
 10
11.1984
 20
-4.3419
 30
146.2879
 70
192
 0
VERTEX
 8
CILINDRO_DUPLICATORE
 10
11.0383
 20
-4.5
 30
146.2142
 70
192
 0
VERTEX
 8
CILINDRO_DUPLICATORE
 10
11.0383
 20
-4.5
 30
146.2142
 70
192
 0
VERTEX
 8
CILINDRO_DUPLICATORE
 10
11.1984
 20
-4.5
 30
146.2142
 70
192
 0
VERTEX
 8
CILINDRO_DUPLICATORE
 10
11.1984
 20
-4.5
 30
146.2142
 70
192
 0
VERTEX
 8
CILINDRO_DUPLICATORE
 10
11.0383
 20
-4.6429
 30
146.1142
 70
192
 0
VERTEX
 8
CILINDRO_DUPLICATORE
 10
11.0383
 20
-4.6429
 30
146.1142
 70
192
 0
VERTEX
 8
CILINDRO_DUPLICATORE
 10
11.1984
 20
-4.6429
 30
146.1142
 70
192
 0
VERTEX
 8
CILINDRO_DUPLICATORE
 10
11.1984
 20
-4.6429
 30
146.1142
 70
192
 0
VERTEX
 8
CILINDRO_DUPLICATORE
 10
11.0383
 20
-4.7662
 30
145.9909
 70
192
 0
VERTEX
 8
CILINDRO_DUPLICATORE
 10
11.0383
 20
-4.7662
 30
145.9909
 70
192
 0
VERTEX
 8
CILINDRO_DUPLICATORE
 10
11.1984
 20
-4.7662
 30
145.9909
 70
192
 0
VERTEX
 8
CILINDRO_DUPLICATORE
 10
11.1984
 20
-4.7662
 30
145.9909
 70
192
 0
VERTEX
 8
CILINDRO_DUPLICATORE
 10
11.0383
 20
-4.8662
 30
145.848
 70
192
 0
VERTEX
 8
CILINDRO_DUPLICATORE
 10
11.0383
 20
-4.8662
 30
145.848
 70
192
 0
VERTEX
 8
CILINDRO_DUPLICATORE
 10
11.1984
 20
-4.8662
 30
145.848
 70
192
 0
VERTEX
 8
CILINDRO_DUPLICATORE
 10
11.1984
 20
-4.8662
 30
145.848
 70
192
 0
VERTEX
 8
CILINDRO_DUPLICATORE
 10
11.0383
 20
-4.9399
 30
145.69
 70
192
 0
VERTEX
 8
CILINDRO_DUPLICATORE
 10
11.0383
 20
-4.9399
 30
145.69
 70
192
 0
VERTEX
 8
CILINDRO_DUPLICATORE
 10
11.1984
 20
-4.9399
 30
145.69
 70
192
 0
VERTEX
 8
CILINDRO_DUPLICATORE
 10
11.1984
 20
-4.9399
 30
145.69
 70
192
 0
VERTEX
 8
CILINDRO_DUPLICATORE
 10
11.0383
 20
-4.985
 30
145.5215
 70
192
 0
VERTEX
 8
CILINDRO_DUPLICATORE
 10
11.0383
 20
-4.985
 30
145.5215
 70
192
 0
VERTEX
 8
CILINDRO_DUPLICATORE
 10
11.1984
 20
-4.985
 30
145.5215
 70
192
 0
VERTEX
 8
CILINDRO_DUPLICATORE
 10
11.1984
 20
-4.985
 30
145.5215
 70
192
 0
VERTEX
 8
CILINDRO_DUPLICATORE
 10
11.0383
 20
-5.0002
 30
145.3478
 70
192
 0
VERTEX
 8
CILINDRO_DUPLICATORE
 10
11.0383
 20
-5.0002
 30
145.3478
 70
192
 0
VERTEX
 8
CILINDRO_DUPLICATORE
 10
11.1984
 20
-5.0002
 30
145.3478
 70
192
 0
VERTEX
 8
CILINDRO_DUPLICATORE
 10
11.1984
 20
-5.0002
 30
145.3478
 70
192
 0
VERTEX
 8
CILINDRO_DUPLICATORE
 10
11.0383
 20
-4.985
 30
145.1741
 70
192
 0
VERTEX
 8
CILINDRO_DUPLICATORE
 10
11.0383
 20
-4.985
 30
145.1741
 70
192
 0
VERTEX
 8
CILINDRO_DUPLICATORE
 10
11.1984
 20
-4.985
 30
145.1741
 70
192
 0
VERTEX
 8
CILINDRO_DUPLICATORE
 10
11.1984
 20
-4.985
 30
145.1741
 70
192
 0
VERTEX
 8
CILINDRO_DUPLICATORE
 10
11.0383
 20
-4.9399
 30
145.0056
 70
192
 0
VERTEX
 8
CILINDRO_DUPLICATORE
 10
11.0383
 20
-4.9399
 30
145.0056
 70
192
 0
VERTEX
 8
CILINDRO_DUPLICATORE
 10
11.1984
 20
-4.9399
 30
145.0056
 70
192
 0
VERTEX
 8
CILINDRO_DUPLICATORE
 10
11.1984
 20
-4.9399
 30
145.0056
 70
192
 0
VERTEX
 8
CILINDRO_DUPLICATORE
 10
11.0383
 20
-4.8662
 30
144.8475
 70
192
 0
VERTEX
 8
CILINDRO_DUPLICATORE
 10
11.0383
 20
-4.8662
 30
144.8475
 70
192
 0
VERTEX
 8
CILINDRO_DUPLICATORE
 10
11.1984
 20
-4.8662
 30
144.8475
 70
192
 0
VERTEX
 8
CILINDRO_DUPLICATORE
 10
11.1984
 20
-4.8662
 30
144.8475
 70
192
 0
VERTEX
 8
CILINDRO_DUPLICATORE
 10
11.0383
 20
-4.7662
 30
144.7047
 70
192
 0
VERTEX
 8
CILINDRO_DUPLICATORE
 10
11.0383
 20
-4.7662
 30
144.7047
 70
192
 0
VERTEX
 8
CILINDRO_DUPLICATORE
 10
11.1984
 20
-4.7662
 30
144.7047
 70
192
 0
VERTEX
 8
CILINDRO_DUPLICATORE
 10
11.1984
 20
-4.7662
 30
144.7047
 70
192
 0
VERTEX
 8
CILINDRO_DUPLICATORE
 10
11.0383
 20
-4.6429
 30
144.5814
 70
192
 0
VERTEX
 8
CILINDRO_DUPLICATORE
 10
11.0383
 20
-4.6429
 30
144.5814
 70
192
 0
VERTEX
 8
CILINDRO_DUPLICATORE
 10
11.1984
 20
-4.6429
 30
144.5814
 70
192
 0
VERTEX
 8
CILINDRO_DUPLICATORE
 10
11.1984
 20
-4.6429
 30
144.5814
 70
192
 0
VERTEX
 8
CILINDRO_DUPLICATORE
 10
11.0383
 20
-4.5
 30
144.4813
 70
192
 0
VERTEX
 8
CILINDRO_DUPLICATORE
 10
11.0383
 20
-4.5
 30
144.4813
 70
192
 0
VERTEX
 8
CILINDRO_DUPLICATORE
 10
11.1984
 20
-4.5
 30
144.4813
 70
192
 0
VERTEX
 8
CILINDRO_DUPLICATORE
 10
11.1984
 20
-4.5
 30
144.4813
 70
192
 0
VERTEX
 8
CILINDRO_DUPLICATORE
 10
11.0383
 20
-4.3419
 30
144.4076
 70
192
 0
VERTEX
 8
CILINDRO_DUPLICATORE
 10
11.0383
 20
-4.3419
 30
144.4076
 70
192
 0
VERTEX
 8
CILINDRO_DUPLICATORE
 10
11.1984
 20
-4.3419
 30
144.4076
 70
192
 0
VERTEX
 8
CILINDRO_DUPLICATORE
 10
11.1984
 20
-4.3419
 30
144.4076
 70
192
 0
VERTEX
 8
CILINDRO_DUPLICATORE
 10
11.0383
 20
-4.1735
 30
144.3625
 70
192
 0
VERTEX
 8
CILINDRO_DUPLICATORE
 10
11.0383
 20
-4.1735
 30
144.3625
 70
192
 0
VERTEX
 8
CILINDRO_DUPLICATORE
 10
11.1984
 20
-4.1735
 30
144.3625
 70
192
 0
VERTEX
 8
CILINDRO_DUPLICATORE
 10
11.1984
 20
-4.1735
 30
144.3625
 70
192
 0
VERTEX
 8
CILINDRO_DUPLICATORE
 10
0
 20
0
 30
0
 70
128
 71
1
 72
3
 73
7
 74
7
 0
VERTEX
 8
CILINDRO_DUPLICATORE
 10
0
 20
0
 30
0
 70
128
 71
4
 72
5
 73
9
 74
8
 0
VERTEX
 8
CILINDRO_DUPLICATORE
 10
0
 20
0
 30
0
 70
128
 71
6
 72
2
 73
10
 74
10
 0
VERTEX
 8
CILINDRO_DUPLICATORE
 10
0
 20
0
 30
0
 70
128
 71
1
 72
7
 73
11
 74
11
 0
VERTEX
 8
CILINDRO_DUPLICATORE
 10
0
 20
0
 30
0
 70
128
 71
8
 72
9
 73
13
 74
12
 0
VERTEX
 8
CILINDRO_DUPLICATORE
 10
0
 20
0
 30
0
 70
128
 71
10
 72
2
 73
14
 74
14
 0
VERTEX
 8
CILINDRO_DUPLICATORE
 10
0
 20
0
 30
0
 70
128
 71
1
 72
11
 73
15
 74
15
 0
VERTEX
 8
CILINDRO_DUPLICATORE
 10
0
 20
0
 30
0
 70
128
 71
12
 72
13
 73
17
 74
16
 0
VERTEX
 8
CILINDRO_DUPLICATORE
 10
0
 20
0
 30
0
 70
128
 71
14
 72
2
 73
18
 74
18
 0
VERTEX
 8
CILINDRO_DUPLICATORE
 10
0
 20
0
 30
0
 70
128
 71
1
 72
15
 73
19
 74
19
 0
VERTEX
 8
CILINDRO_DUPLICATORE
 10
0
 20
0
 30
0
 70
128
 71
16
 72
17
 73
21
 74
20
 0
VERTEX
 8
CILINDRO_DUPLICATORE
 10
0
 20
0
 30
0
 70
128
 71
18
 72
2
 73
22
 74
22
 0
VERTEX
 8
CILINDRO_DUPLICATORE
 10
0
 20
0
 30
0
 70
128
 71
1
 72
19
 73
23
 74
23
 0
VERTEX
 8
CILINDRO_DUPLICATORE
 10
0
 20
0
 30
0
 70
128
 71
20
 72
21
 73
25
 74
24
 0
VERTEX
 8
CILINDRO_DUPLICATORE
 10
0
 20
0
 30
0
 70
128
 71
22
 72
2
 73
26
 74
26
 0
VERTEX
 8
CILINDRO_DUPLICATORE
 10
0
 20
0
 30
0
 70
128
 71
1
 72
23
 73
27
 74
27
 0
VERTEX
 8
CILINDRO_DUPLICATORE
 10
0
 20
0
 30
0
 70
128
 71
24
 72
25
 73
29
 74
28
 0
VERTEX
 8
CILINDRO_DUPLICATORE
 10
0
 20
0
 30
0
 70
128
 71
26
 72
2
 73
30
 74
30
 0
VERTEX
 8
CILINDRO_DUPLICATORE
 10
0
 20
0
 30
0
 70
128
 71
1
 72
27
 73
31
 74
31
 0
VERTEX
 8
CILINDRO_DUPLICATORE
 10
0
 20
0
 30
0
 70
128
 71
28
 72
29
 73
33
 74
32
 0
VERTEX
 8
CILINDRO_DUPLICATORE
 10
0
 20
0
 30
0
 70
128
 71
30
 72
2
 73
34
 74
34
 0
VERTEX
 8
CILINDRO_DUPLICATORE
 10
0
 20
0
 30
0
 70
128
 71
1
 72
31
 73
35
 74
35
 0
VERTEX
 8
CILINDRO_DUPLICATORE
 10
0
 20
0
 30
0
 70
128
 71
32
 72
33
 73
37
 74
36
 0
VERTEX
 8
CILINDRO_DUPLICATORE
 10
0
 20
0
 30
0
 70
128
 71
34
 72
2
 73
38
 74
38
 0
VERTEX
 8
CILINDRO_DUPLICATORE
 10
0
 20
0
 30
0
 70
128
 71
1
 72
35
 73
39
 74
39
 0
VERTEX
 8
CILINDRO_DUPLICATORE
 10
0
 20
0
 30
0
 70
128
 71
36
 72
37
 73
41
 74
40
 0
VERTEX
 8
CILINDRO_DUPLICATORE
 10
0
 20
0
 30
0
 70
128
 71
38
 72
2
 73
42
 74
42
 0
VERTEX
 8
CILINDRO_DUPLICATORE
 10
0
 20
0
 30
0
 70
128
 71
1
 72
39
 73
43
 74
43
 0
VERTEX
 8
CILINDRO_DUPLICATORE
 10
0
 20
0
 30
0
 70
128
 71
40
 72
41
 73
45
 74
44
 0
VERTEX
 8
CILINDRO_DUPLICATORE
 10
0
 20
0
 30
0
 70
128
 71
42
 72
2
 73
46
 74
46
 0
VERTEX
 8
CILINDRO_DUPLICATORE
 10
0
 20
0
 30
0
 70
128
 71
1
 72
43
 73
47
 74
47
 0
VERTEX
 8
CILINDRO_DUPLICATORE
 10
0
 20
0
 30
0
 70
128
 71
44
 72
45
 73
49
 74
48
 0
VERTEX
 8
CILINDRO_DUPLICATORE
 10
0
 20
0
 30
0
 70
128
 71
46
 72
2
 73
50
 74
50
 0
VERTEX
 8
CILINDRO_DUPLICATORE
 10
0
 20
0
 30
0
 70
128
 71
1
 72
47
 73
51
 74
51
 0
VERTEX
 8
CILINDRO_DUPLICATORE
 10
0
 20
0
 30
0
 70
128
 71
48
 72
49
 73
53
 74
52
 0
VERTEX
 8
CILINDRO_DUPLICATORE
 10
0
 20
0
 30
0
 70
128
 71
50
 72
2
 73
54
 74
54
 0
VERTEX
 8
CILINDRO_DUPLICATORE
 10
0
 20
0
 30
0
 70
128
 71
1
 72
51
 73
55
 74
55
 0
VERTEX
 8
CILINDRO_DUPLICATORE
 10
0
 20
0
 30
0
 70
128
 71
52
 72
53
 73
57
 74
56
 0
VERTEX
 8
CILINDRO_DUPLICATORE
 10
0
 20
0
 30
0
 70
128
 71
54
 72
2
 73
58
 74
58
 0
VERTEX
 8
CILINDRO_DUPLICATORE
 10
0
 20
0
 30
0
 70
128
 71
1
 72
55
 73
59
 74
59
 0
VERTEX
 8
CILINDRO_DUPLICATORE
 10
0
 20
0
 30
0
 70
128
 71
56
 72
57
 73
61
 74
60
 0
VERTEX
 8
CILINDRO_DUPLICATORE
 10
0
 20
0
 30
0
 70
128
 71
58
 72
2
 73
62
 74
62
 0
VERTEX
 8
CILINDRO_DUPLICATORE
 10
0
 20
0
 30
0
 70
128
 71
1
 72
59
 73
63
 74
63
 0
VERTEX
 8
CILINDRO_DUPLICATORE
 10
0
 20
0
 30
0
 70
128
 71
60
 72
61
 73
65
 74
64
 0
VERTEX
 8
CILINDRO_DUPLICATORE
 10
0
 20
0
 30
0
 70
128
 71
62
 72
2
 73
66
 74
66
 0
VERTEX
 8
CILINDRO_DUPLICATORE
 10
0
 20
0
 30
0
 70
128
 71
1
 72
63
 73
67
 74
67
 0
VERTEX
 8
CILINDRO_DUPLICATORE
 10
0
 20
0
 30
0
 70
128
 71
64
 72
65
 73
69
 74
68
 0
VERTEX
 8
CILINDRO_DUPLICATORE
 10
0
 20
0
 30
0
 70
128
 71
66
 72
2
 73
70
 74
70
 0
VERTEX
 8
CILINDRO_DUPLICATORE
 10
0
 20
0
 30
0
 70
128
 71
1
 72
67
 73
71
 74
71
 0
VERTEX
 8
CILINDRO_DUPLICATORE
 10
0
 20
0
 30
0
 70
128
 71
68
 72
69
 73
73
 74
72
 0
VERTEX
 8
CILINDRO_DUPLICATORE
 10
0
 20
0
 30
0
 70
128
 71
70
 72
2
 73
74
 74
74
 0
VERTEX
 8
CILINDRO_DUPLICATORE
 10
0
 20
0
 30
0
 70
128
 71
1
 72
71
 73
75
 74
75
 0
VERTEX
 8
CILINDRO_DUPLICATORE
 10
0
 20
0
 30
0
 70
128
 71
72
 72
73
 73
77
 74
76
 0
VERTEX
 8
CILINDRO_DUPLICATORE
 10
0
 20
0
 30
0
 70
128
 71
74
 72
2
 73
78
 74
78
 0
VERTEX
 8
CILINDRO_DUPLICATORE
 10
0
 20
0
 30
0
 70
128
 71
1
 72
75
 73
79
 74
79
 0
VERTEX
 8
CILINDRO_DUPLICATORE
 10
0
 20
0
 30
0
 70
128
 71
76
 72
77
 73
81
 74
80
 0
VERTEX
 8
CILINDRO_DUPLICATORE
 10
0
 20
0
 30
0
 70
128
 71
78
 72
2
 73
82
 74
82
 0
VERTEX
 8
CILINDRO_DUPLICATORE
 10
0
 20
0
 30
0
 70
128
 71
1
 72
79
 73
83
 74
83
 0
VERTEX
 8
CILINDRO_DUPLICATORE
 10
0
 20
0
 30
0
 70
128
 71
80
 72
81
 73
85
 74
84
 0
VERTEX
 8
CILINDRO_DUPLICATORE
 10
0
 20
0
 30
0
 70
128
 71
82
 72
2
 73
86
 74
86
 0
VERTEX
 8
CILINDRO_DUPLICATORE
 10
0
 20
0
 30
0
 70
128
 71
1
 72
83
 73
87
 74
87
 0
VERTEX
 8
CILINDRO_DUPLICATORE
 10
0
 20
0
 30
0
 70
128
 71
84
 72
85
 73
89
 74
88
 0
VERTEX
 8
CILINDRO_DUPLICATORE
 10
0
 20
0
 30
0
 70
128
 71
86
 72
2
 73
90
 74
90
 0
VERTEX
 8
CILINDRO_DUPLICATORE
 10
0
 20
0
 30
0
 70
128
 71
1
 72
87
 73
91
 74
91
 0
VERTEX
 8
CILINDRO_DUPLICATORE
 10
0
 20
0
 30
0
 70
128
 71
88
 72
89
 73
93
 74
92
 0
VERTEX
 8
CILINDRO_DUPLICATORE
 10
0
 20
0
 30
0
 70
128
 71
90
 72
2
 73
94
 74
94
 0
VERTEX
 8
CILINDRO_DUPLICATORE
 10
0
 20
0
 30
0
 70
128
 71
1
 72
91
 73
95
 74
95
 0
VERTEX
 8
CILINDRO_DUPLICATORE
 10
0
 20
0
 30
0
 70
128
 71
92
 72
93
 73
97
 74
96
 0
VERTEX
 8
CILINDRO_DUPLICATORE
 10
0
 20
0
 30
0
 70
128
 71
94
 72
2
 73
98
 74
98
 0
VERTEX
 8
CILINDRO_DUPLICATORE
 10
0
 20
0
 30
0
 70
128
 71
1
 72
95
 73
99
 74
99
 0
VERTEX
 8
CILINDRO_DUPLICATORE
 10
0
 20
0
 30
0
 70
128
 71
96
 72
97
 73
101
 74
100
 0
VERTEX
 8
CILINDRO_DUPLICATORE
 10
0
 20
0
 30
0
 70
128
 71
98
 72
2
 73
102
 74
102
 0
VERTEX
 8
CILINDRO_DUPLICATORE
 10
0
 20
0
 30
0
 70
128
 71
1
 72
99
 73
103
 74
103
 0
VERTEX
 8
CILINDRO_DUPLICATORE
 10
0
 20
0
 30
0
 70
128
 71
100
 72
101
 73
105
 74
104
 0
VERTEX
 8
CILINDRO_DUPLICATORE
 10
0
 20
0
 30
0
 70
128
 71
102
 72
2
 73
106
 74
106
 0
VERTEX
 8
CILINDRO_DUPLICATORE
 10
0
 20
0
 30
0
 70
128
 71
1
 72
103
 73
107
 74
107
 0
VERTEX
 8
CILINDRO_DUPLICATORE
 10
0
 20
0
 30
0
 70
128
 71
104
 72
105
 73
109
 74
108
 0
VERTEX
 8
CILINDRO_DUPLICATORE
 10
0
 20
0
 30
0
 70
128
 71
106
 72
2
 73
110
 74
110
 0
VERTEX
 8
CILINDRO_DUPLICATORE
 10
0
 20
0
 30
0
 70
128
 71
1
 72
107
 73
111
 74
111
 0
VERTEX
 8
CILINDRO_DUPLICATORE
 10
0
 20
0
 30
0
 70
128
 71
108
 72
109
 73
113
 74
112
 0
VERTEX
 8
CILINDRO_DUPLICATORE
 10
0
 20
0
 30
0
 70
128
 71
110
 72
2
 73
114
 74
114
 0
VERTEX
 8
CILINDRO_DUPLICATORE
 10
0
 20
0
 30
0
 70
128
 71
1
 72
111
 73
115
 74
115
 0
VERTEX
 8
CILINDRO_DUPLICATORE
 10
0
 20
0
 30
0
 70
128
 71
112
 72
113
 73
117
 74
116
 0
VERTEX
 8
CILINDRO_DUPLICATORE
 10
0
 20
0
 30
0
 70
128
 71
114
 72
2
 73
118
 74
118
 0
VERTEX
 8
CILINDRO_DUPLICATORE
 10
0
 20
0
 30
0
 70
128
 71
1
 72
115
 73
119
 74
119
 0
VERTEX
 8
CILINDRO_DUPLICATORE
 10
0
 20
0
 30
0
 70
128
 71
116
 72
117
 73
121
 74
120
 0
VERTEX
 8
CILINDRO_DUPLICATORE
 10
0
 20
0
 30
0
 70
128
 71
118
 72
2
 73
122
 74
122
 0
VERTEX
 8
CILINDRO_DUPLICATORE
 10
0
 20
0
 30
0
 70
128
 71
1
 72
119
 73
123
 74
123
 0
VERTEX
 8
CILINDRO_DUPLICATORE
 10
0
 20
0
 30
0
 70
128
 71
120
 72
121
 73
125
 74
124
 0
VERTEX
 8
CILINDRO_DUPLICATORE
 10
0
 20
0
 30
0
 70
128
 71
122
 72
2
 73
126
 74
126
 0
VERTEX
 8
CILINDRO_DUPLICATORE
 10
0
 20
0
 30
0
 70
128
 71
1
 72
123
 73
127
 74
127
 0
VERTEX
 8
CILINDRO_DUPLICATORE
 10
0
 20
0
 30
0
 70
128
 71
124
 72
125
 73
129
 74
128
 0
VERTEX
 8
CILINDRO_DUPLICATORE
 10
0
 20
0
 30
0
 70
128
 71
126
 72
2
 73
130
 74
130
 0
VERTEX
 8
CILINDRO_DUPLICATORE
 10
0
 20
0
 30
0
 70
128
 71
1
 72
127
 73
131
 74
131
 0
VERTEX
 8
CILINDRO_DUPLICATORE
 10
0
 20
0
 30
0
 70
128
 71
128
 72
129
 73
133
 74
132
 0
VERTEX
 8
CILINDRO_DUPLICATORE
 10
0
 20
0
 30
0
 70
128
 71
130
 72
2
 73
134
 74
134
 0
VERTEX
 8
CILINDRO_DUPLICATORE
 10
0
 20
0
 30
0
 70
128
 71
1
 72
131
 73
135
 74
135
 0
VERTEX
 8
CILINDRO_DUPLICATORE
 10
0
 20
0
 30
0
 70
128
 71
132
 72
133
 73
137
 74
136
 0
VERTEX
 8
CILINDRO_DUPLICATORE
 10
0
 20
0
 30
0
 70
128
 71
134
 72
2
 73
138
 74
138
 0
VERTEX
 8
CILINDRO_DUPLICATORE
 10
0
 20
0
 30
0
 70
128
 71
1
 72
135
 73
139
 74
139
 0
VERTEX
 8
CILINDRO_DUPLICATORE
 10
0
 20
0
 30
0
 70
128
 71
136
 72
137
 73
141
 74
140
 0
VERTEX
 8
CILINDRO_DUPLICATORE
 10
0
 20
0
 30
0
 70
128
 71
138
 72
2
 73
142
 74
142
 0
VERTEX
 8
CILINDRO_DUPLICATORE
 10
0
 20
0
 30
0
 70
128
 71
1
 72
139
 73
143
 74
143
 0
VERTEX
 8
CILINDRO_DUPLICATORE
 10
0
 20
0
 30
0
 70
128
 71
140
 72
141
 73
145
 74
144
 0
VERTEX
 8
CILINDRO_DUPLICATORE
 10
0
 20
0
 30
0
 70
128
 71
142
 72
2
 73
146
 74
146
 0
VERTEX
 8
CILINDRO_DUPLICATORE
 10
0
 20
0
 30
0
 70
128
 71
1
 72
143
 73
3
 74
3
 0
VERTEX
 8
CILINDRO_DUPLICATORE
 10
0
 20
0
 30
0
 70
128
 71
144
 72
145
 73
5
 74
4
 0
VERTEX
 8
CILINDRO_DUPLICATORE
 10
0
 20
0
 30
0
 70
128
 71
146
 72
2
 73
6
 74
6
 0
SEQEND
 0
POLYLINE
 8
CILINDRO
 66
1
 10
0.0
 20
0.0
 30
0.0
 70
64
 71
146
 72
108
 0
VERTEX
 8
CILINDRO
 10
-11.1967
 20
-3.9997
 30
145.3478
 70
192
 0
VERTEX
 8
CILINDRO
 10
-11.0366
 20
-3.9997
 30
145.3478
 70
192
 0
VERTEX
 8
CILINDRO
 10
-11.1967
 20
-3.9997
 30
144.3473
 70
192
 0
VERTEX
 8
CILINDRO
 10
-11.1967
 20
-3.9997
 30
144.3473
 70
192
 0
VERTEX
 8
CILINDRO
 10
-11.0366
 20
-3.9997
 30
144.3473
 70
192
 0
VERTEX
 8
CILINDRO
 10
-11.0366
 20
-3.9997
 30
144.3473
 70
192
 0
VERTEX
 8
CILINDRO
 10
-11.1967
 20
-3.826
 30
144.3625
 70
192
 0
VERTEX
 8
CILINDRO
 10
-11.1967
 20
-3.826
 30
144.3625
 70
192
 0
VERTEX
 8
CILINDRO
 10
-11.0366
 20
-3.826
 30
144.3625
 70
192
 0
VERTEX
 8
CILINDRO
 10
-11.0366
 20
-3.826
 30
144.3625
 70
192
 0
VERTEX
 8
CILINDRO
 10
-11.1967
 20
-3.6576
 30
144.4076
 70
192
 0
VERTEX
 8
CILINDRO
 10
-11.1967
 20
-3.6576
 30
144.4076
 70
192
 0
VERTEX
 8
CILINDRO
 10
-11.0366
 20
-3.6576
 30
144.4076
 70
192
 0
VERTEX
 8
CILINDRO
 10
-11.0366
 20
-3.6576
 30
144.4076
 70
192
 0
VERTEX
 8
CILINDRO
 10
-11.1967
 20
-3.4995
 30
144.4813
 70
192
 0
VERTEX
 8
CILINDRO
 10
-11.1967
 20
-3.4995
 30
144.4813
 70
192
 0
VERTEX
 8
CILINDRO
 10
-11.0366
 20
-3.4995
 30
144.4813
 70
192
 0
VERTEX
 8
CILINDRO
 10
-11.0366
 20
-3.4995
 30
144.4813
 70
192
 0
VERTEX
 8
CILINDRO
 10
-11.1967
 20
-3.3566
 30
144.5814
 70
192
 0
VERTEX
 8
CILINDRO
 10
-11.1967
 20
-3.3566
 30
144.5814
 70
192
 0
VERTEX
 8
CILINDRO
 10
-11.0366
 20
-3.3566
 30
144.5814
 70
192
 0
VERTEX
 8
CILINDRO
 10
-11.0366
 20
-3.3566
 30
144.5814
 70
192
 0
VERTEX
 8
CILINDRO
 10
-11.1967
 20
-3.2333
 30
144.7047
 70
192
 0
VERTEX
 8
CILINDRO
 10
-11.1967
 20
-3.2333
 30
144.7047
 70
192
 0
VERTEX
 8
CILINDRO
 10
-11.0366
 20
-3.2333
 30
144.7047
 70
192
 0
VERTEX
 8
CILINDRO
 10
-11.0366
 20
-3.2333
 30
144.7047
 70
192
 0
VERTEX
 8
CILINDRO
 10
-11.1967
 20
-3.1333
 30
144.8475
 70
192
 0
VERTEX
 8
CILINDRO
 10
-11.1967
 20
-3.1333
 30
144.8475
 70
192
 0
VERTEX
 8
CILINDRO
 10
-11.0366
 20
-3.1333
 30
144.8475
 70
192
 0
VERTEX
 8
CILINDRO
 10
-11.0366
 20
-3.1333
 30
144.8475
 70
192
 0
VERTEX
 8
CILINDRO
 10
-11.1967
 20
-3.0596
 30
145.0056
 70
192
 0
VERTEX
 8
CILINDRO
 10
-11.1967
 20
-3.0596
 30
145.0056
 70
192
 0
VERTEX
 8
CILINDRO
 10
-11.0366
 20
-3.0596
 30
145.0056
 70
192
 0
VERTEX
 8
CILINDRO
 10
-11.0366
 20
-3.0596
 30
145.0056
 70
192
 0
VERTEX
 8
CILINDRO
 10
-11.1967
 20
-3.0144
 30
145.1741
 70
192
 0
VERTEX
 8
CILINDRO
 10
-11.1967
 20
-3.0144
 30
145.1741
 70
192
 0
VERTEX
 8
CILINDRO
 10
-11.0366
 20
-3.0144
 30
145.1741
 70
192
 0
VERTEX
 8
CILINDRO
 10
-11.0366
 20
-3.0144
 30
145.1741
 70
192
 0
VERTEX
 8
CILINDRO
 10
-11.1967
 20
-2.9992
 30
145.3478
 70
192
 0
VERTEX
 8
CILINDRO
 10
-11.1967
 20
-2.9992
 30
145.3478
 70
192
 0
VERTEX
 8
CILINDRO
 10
-11.0366
 20
-2.9992
 30
145.3478
 70
192
 0
VERTEX
 8
CILINDRO
 10
-11.0366
 20
-2.9992
 30
145.3478
 70
192
 0
VERTEX
 8
CILINDRO
 10
-11.1967
 20
-3.0144
 30
145.5215
 70
192
 0
VERTEX
 8
CILINDRO
 10
-11.1967
 20
-3.0144
 30
145.5215
 70
192
 0
VERTEX
 8
CILINDRO
 10
-11.0366
 20
-3.0144
 30
145.5215
 70
192
 0
VERTEX
 8
CILINDRO
 10
-11.0366
 20
-3.0144
 30
145.5215
 70
192
 0
VERTEX
 8
CILINDRO
 10
-11.1967
 20
-3.0596
 30
145.69
 70
192
 0
VERTEX
 8
CILINDRO
 10
-11.1967
 20
-3.0596
 30
145.69
 70
192
 0
VERTEX
 8
CILINDRO
 10
-11.0366
 20
-3.0596
 30
145.69
 70
192
 0
VERTEX
 8
CILINDRO
 10
-11.0366
 20
-3.0596
 30
145.69
 70
192
 0
VERTEX
 8
CILINDRO
 10
-11.1967
 20
-3.1333
 30
145.848
 70
192
 0
VERTEX
 8
CILINDRO
 10
-11.1967
 20
-3.1333
 30
145.848
 70
192
 0
VERTEX
 8
CILINDRO
 10
-11.0366
 20
-3.1333
 30
145.848
 70
192
 0
VERTEX
 8
CILINDRO
 10
-11.0366
 20
-3.1333
 30
145.848
 70
192
 0
VERTEX
 8
CILINDRO
 10
-11.1967
 20
-3.2333
 30
145.9909
 70
192
 0
VERTEX
 8
CILINDRO
 10
-11.1967
 20
-3.2333
 30
145.9909
 70
192
 0
VERTEX
 8
CILINDRO
 10
-11.0366
 20
-3.2333
 30
145.9909
 70
192
 0
VERTEX
 8
CILINDRO
 10
-11.0366
 20
-3.2333
 30
145.9909
 70
192
 0
VERTEX
 8
CILINDRO
 10
-11.1967
 20
-3.3566
 30
146.1142
 70
192
 0
VERTEX
 8
CILINDRO
 10
-11.1967
 20
-3.3566
 30
146.1142
 70
192
 0
VERTEX
 8
CILINDRO
 10
-11.0366
 20
-3.3566
 30
146.1142
 70
192
 0
VERTEX
 8
CILINDRO
 10
-11.0366
 20
-3.3566
 30
146.1142
 70
192
 0
VERTEX
 8
CILINDRO
 10
-11.1967
 20
-3.4995
 30
146.2142
 70
192
 0
VERTEX
 8
CILINDRO
 10
-11.1967
 20
-3.4995
 30
146.2142
 70
192
 0
VERTEX
 8
CILINDRO
 10
-11.0366
 20
-3.4995
 30
146.2142
 70
192
 0
VERTEX
 8
CILINDRO
 10
-11.0366
 20
-3.4995
 30
146.2142
 70
192
 0
VERTEX
 8
CILINDRO
 10
-11.1967
 20
-3.6576
 30
146.2879
 70
192
 0
VERTEX
 8
CILINDRO
 10
-11.1967
 20
-3.6576
 30
146.2879
 70
192
 0
VERTEX
 8
CILINDRO
 10
-11.0366
 20
-3.6576
 30
146.2879
 70
192
 0
VERTEX
 8
CILINDRO
 10
-11.0366
 20
-3.6576
 30
146.2879
 70
192
 0
VERTEX
 8
CILINDRO
 10
-11.1967
 20
-3.826
 30
146.3331
 70
192
 0
VERTEX
 8
CILINDRO
 10
-11.1967
 20
-3.826
 30
146.3331
 70
192
 0
VERTEX
 8
CILINDRO
 10
-11.0366
 20
-3.826
 30
146.3331
 70
192
 0
VERTEX
 8
CILINDRO
 10
-11.0366
 20
-3.826
 30
146.3331
 70
192
 0
VERTEX
 8
CILINDRO
 10
-11.1967
 20
-3.9997
 30
146.3483
 70
192
 0
VERTEX
 8
CILINDRO
 10
-11.1967
 20
-3.9997
 30
146.3483
 70
192
 0
VERTEX
 8
CILINDRO
 10
-11.0366
 20
-3.9997
 30
146.3483
 70
192
 0
VERTEX
 8
CILINDRO
 10
-11.0366
 20
-3.9997
 30
146.3483
 70
192
 0
VERTEX
 8
CILINDRO
 10
-11.1967
 20
-4.1735
 30
146.3331
 70
192
 0
VERTEX
 8
CILINDRO
 10
-11.1967
 20
-4.1735
 30
146.3331
 70
192
 0
VERTEX
 8
CILINDRO
 10
-11.0366
 20
-4.1735
 30
146.3331
 70
192
 0
VERTEX
 8
CILINDRO
 10
-11.0366
 20
-4.1735
 30
146.3331
 70
192
 0
VERTEX
 8
CILINDRO
 10
-11.1967
 20
-4.3419
 30
146.2879
 70
192
 0
VERTEX
 8
CILINDRO
 10
-11.1967
 20
-4.3419
 30
146.2879
 70
192
 0
VERTEX
 8
CILINDRO
 10
-11.0366
 20
-4.3419
 30
146.2879
 70
192
 0
VERTEX
 8
CILINDRO
 10
-11.0366
 20
-4.3419
 30
146.2879
 70
192
 0
VERTEX
 8
CILINDRO
 10
-11.1967
 20
-4.5
 30
146.2142
 70
192
 0
VERTEX
 8
CILINDRO
 10
-11.1967
 20
-4.5
 30
146.2142
 70
192
 0
VERTEX
 8
CILINDRO
 10
-11.0366
 20
-4.5
 30
146.2142
 70
192
 0
VERTEX
 8
CILINDRO
 10
-11.0366
 20
-4.5
 30
146.2142
 70
192
 0
VERTEX
 8
CILINDRO
 10
-11.1967
 20
-4.6429
 30
146.1142
 70
192
 0
VERTEX
 8
CILINDRO
 10
-11.1967
 20
-4.6429
 30
146.1142
 70
192
 0
VERTEX
 8
CILINDRO
 10
-11.0366
 20
-4.6429
 30
146.1142
 70
192
 0
VERTEX
 8
CILINDRO
 10
-11.0366
 20
-4.6429
 30
146.1142
 70
192
 0
VERTEX
 8
CILINDRO
 10
-11.1967
 20
-4.7662
 30
145.9909
 70
192
 0
VERTEX
 8
CILINDRO
 10
-11.1967
 20
-4.7662
 30
145.9909
 70
192
 0
VERTEX
 8
CILINDRO
 10
-11.0366
 20
-4.7662
 30
145.9909
 70
192
 0
VERTEX
 8
CILINDRO
 10
-11.0366
 20
-4.7662
 30
145.9909
 70
192
 0
VERTEX
 8
CILINDRO
 10
-11.1967
 20
-4.8662
 30
145.848
 70
192
 0
VERTEX
 8
CILINDRO
 10
-11.1967
 20
-4.8662
 30
145.848
 70
192
 0
VERTEX
 8
CILINDRO
 10
-11.0366
 20
-4.8662
 30
145.848
 70
192
 0
VERTEX
 8
CILINDRO
 10
-11.0366
 20
-4.8662
 30
145.848
 70
192
 0
VERTEX
 8
CILINDRO
 10
-11.1967
 20
-4.9399
 30
145.69
 70
192
 0
VERTEX
 8
CILINDRO
 10
-11.1967
 20
-4.9399
 30
145.69
 70
192
 0
VERTEX
 8
CILINDRO
 10
-11.0366
 20
-4.9399
 30
145.69
 70
192
 0
VERTEX
 8
CILINDRO
 10
-11.0366
 20
-4.9399
 30
145.69
 70
192
 0
VERTEX
 8
CILINDRO
 10
-11.1967
 20
-4.985
 30
145.5215
 70
192
 0
VERTEX
 8
CILINDRO
 10
-11.1967
 20
-4.985
 30
145.5215
 70
192
 0
VERTEX
 8
CILINDRO
 10
-11.0366
 20
-4.985
 30
145.5215
 70
192
 0
VERTEX
 8
CILINDRO
 10
-11.0366
 20
-4.985
 30
145.5215
 70
192
 0
VERTEX
 8
CILINDRO
 10
-11.1967
 20
-5.0002
 30
145.3478
 70
192
 0
VERTEX
 8
CILINDRO
 10
-11.1967
 20
-5.0002
 30
145.3478
 70
192
 0
VERTEX
 8
CILINDRO
 10
-11.0366
 20
-5.0002
 30
145.3478
 70
192
 0
VERTEX
 8
CILINDRO
 10
-11.0366
 20
-5.0002
 30
145.3478
 70
192
 0
VERTEX
 8
CILINDRO
 10
-11.1967
 20
-4.985
 30
145.1741
 70
192
 0
VERTEX
 8
CILINDRO
 10
-11.1967
 20
-4.985
 30
145.1741
 70
192
 0
VERTEX
 8
CILINDRO
 10
-11.0366
 20
-4.985
 30
145.1741
 70
192
 0
VERTEX
 8
CILINDRO
 10
-11.0366
 20
-4.985
 30
145.1741
 70
192
 0
VERTEX
 8
CILINDRO
 10
-11.1967
 20
-4.9399
 30
145.0056
 70
192
 0
VERTEX
 8
CILINDRO
 10
-11.1967
 20
-4.9399
 30
145.0056
 70
192
 0
VERTEX
 8
CILINDRO
 10
-11.0366
 20
-4.9399
 30
145.0056
 70
192
 0
VERTEX
 8
CILINDRO
 10
-11.0366
 20
-4.9399
 30
145.0056
 70
192
 0
VERTEX
 8
CILINDRO
 10
-11.1967
 20
-4.8662
 30
144.8475
 70
192
 0
VERTEX
 8
CILINDRO
 10
-11.1967
 20
-4.8662
 30
144.8475
 70
192
 0
VERTEX
 8
CILINDRO
 10
-11.0366
 20
-4.8662
 30
144.8475
 70
192
 0
VERTEX
 8
CILINDRO
 10
-11.0366
 20
-4.8662
 30
144.8475
 70
192
 0
VERTEX
 8
CILINDRO
 10
-11.1967
 20
-4.7662
 30
144.7047
 70
192
 0
VERTEX
 8
CILINDRO
 10
-11.1967
 20
-4.7662
 30
144.7047
 70
192
 0
VERTEX
 8
CILINDRO
 10
-11.0366
 20
-4.7662
 30
144.7047
 70
192
 0
VERTEX
 8
CILINDRO
 10
-11.0366
 20
-4.7662
 30
144.7047
 70
192
 0
VERTEX
 8
CILINDRO
 10
-11.1967
 20
-4.6429
 30
144.5814
 70
192
 0
VERTEX
 8
CILINDRO
 10
-11.1967
 20
-4.6429
 30
144.5814
 70
192
 0
VERTEX
 8
CILINDRO
 10
-11.0366
 20
-4.6429
 30
144.5814
 70
192
 0
VERTEX
 8
CILINDRO
 10
-11.0366
 20
-4.6429
 30
144.5814
 70
192
 0
VERTEX
 8
CILINDRO
 10
-11.1967
 20
-4.5
 30
144.4813
 70
192
 0
VERTEX
 8
CILINDRO
 10
-11.1967
 20
-4.5
 30
144.4813
 70
192
 0
VERTEX
 8
CILINDRO
 10
-11.0366
 20
-4.5
 30
144.4813
 70
192
 0
VERTEX
 8
CILINDRO
 10
-11.0366
 20
-4.5
 30
144.4813
 70
192
 0
VERTEX
 8
CILINDRO
 10
-11.1967
 20
-4.3419
 30
144.4076
 70
192
 0
VERTEX
 8
CILINDRO
 10
-11.1967
 20
-4.3419
 30
144.4076
 70
192
 0
VERTEX
 8
CILINDRO
 10
-11.0366
 20
-4.3419
 30
144.4076
 70
192
 0
VERTEX
 8
CILINDRO
 10
-11.0366
 20
-4.3419
 30
144.4076
 70
192
 0
VERTEX
 8
CILINDRO
 10
-11.1967
 20
-4.1735
 30
144.3625
 70
192
 0
VERTEX
 8
CILINDRO
 10
-11.1967
 20
-4.1735
 30
144.3625
 70
192
 0
VERTEX
 8
CILINDRO
 10
-11.0366
 20
-4.1735
 30
144.3625
 70
192
 0
VERTEX
 8
CILINDRO
 10
-11.0366
 20
-4.1735
 30
144.3625
 70
192
 0
VERTEX
 8
CILINDRO
 10
0
 20
0
 30
0
 70
128
 71
1
 72
3
 73
7
 74
7
 0
VERTEX
 8
CILINDRO
 10
0
 20
0
 30
0
 70
128
 71
4
 72
5
 73
9
 74
8
 0
VERTEX
 8
CILINDRO
 10
0
 20
0
 30
0
 70
128
 71
6
 72
2
 73
10
 74
10
 0
VERTEX
 8
CILINDRO
 10
0
 20
0
 30
0
 70
128
 71
1
 72
7
 73
11
 74
11
 0
VERTEX
 8
CILINDRO
 10
0
 20
0
 30
0
 70
128
 71
8
 72
9
 73
13
 74
12
 0
VERTEX
 8
CILINDRO
 10
0
 20
0
 30
0
 70
128
 71
10
 72
2
 73
14
 74
14
 0
VERTEX
 8
CILINDRO
 10
0
 20
0
 30
0
 70
128
 71
1
 72
11
 73
15
 74
15
 0
VERTEX
 8
CILINDRO
 10
0
 20
0
 30
0
 70
128
 71
12
 72
13
 73
17
 74
16
 0
VERTEX
 8
CILINDRO
 10
0
 20
0
 30
0
 70
128
 71
14
 72
2
 73
18
 74
18
 0
VERTEX
 8
CILINDRO
 10
0
 20
0
 30
0
 70
128
 71
1
 72
15
 73
19
 74
19
 0
VERTEX
 8
CILINDRO
 10
0
 20
0
 30
0
 70
128
 71
16
 72
17
 73
21
 74
20
 0
VERTEX
 8
CILINDRO
 10
0
 20
0
 30
0
 70
128
 71
18
 72
2
 73
22
 74
22
 0
VERTEX
 8
CILINDRO
 10
0
 20
0
 30
0
 70
128
 71
1
 72
19
 73
23
 74
23
 0
VERTEX
 8
CILINDRO
 10
0
 20
0
 30
0
 70
128
 71
20
 72
21
 73
25
 74
24
 0
VERTEX
 8
CILINDRO
 10
0
 20
0
 30
0
 70
128
 71
22
 72
2
 73
26
 74
26
 0
VERTEX
 8
CILINDRO
 10
0
 20
0
 30
0
 70
128
 71
1
 72
23
 73
27
 74
27
 0
VERTEX
 8
CILINDRO
 10
0
 20
0
 30
0
 70
128
 71
24
 72
25
 73
29
 74
28
 0
VERTEX
 8
CILINDRO
 10
0
 20
0
 30
0
 70
128
 71
26
 72
2
 73
30
 74
30
 0
VERTEX
 8
CILINDRO
 10
0
 20
0
 30
0
 70
128
 71
1
 72
27
 73
31
 74
31
 0
VERTEX
 8
CILINDRO
 10
0
 20
0
 30
0
 70
128
 71
28
 72
29
 73
33
 74
32
 0
VERTEX
 8
CILINDRO
 10
0
 20
0
 30
0
 70
128
 71
30
 72
2
 73
34
 74
34
 0
VERTEX
 8
CILINDRO
 10
0
 20
0
 30
0
 70
128
 71
1
 72
31
 73
35
 74
35
 0
VERTEX
 8
CILINDRO
 10
0
 20
0
 30
0
 70
128
 71
32
 72
33
 73
37
 74
36
 0
VERTEX
 8
CILINDRO
 10
0
 20
0
 30
0
 70
128
 71
34
 72
2
 73
38
 74
38
 0
VERTEX
 8
CILINDRO
 10
0
 20
0
 30
0
 70
128
 71
1
 72
35
 73
39
 74
39
 0
VERTEX
 8
CILINDRO
 10
0
 20
0
 30
0
 70
128
 71
36
 72
37
 73
41
 74
40
 0
VERTEX
 8
CILINDRO
 10
0
 20
0
 30
0
 70
128
 71
38
 72
2
 73
42
 74
42
 0
VERTEX
 8
CILINDRO
 10
0
 20
0
 30
0
 70
128
 71
1
 72
39
 73
43
 74
43
 0
VERTEX
 8
CILINDRO
 10
0
 20
0
 30
0
 70
128
 71
40
 72
41
 73
45
 74
44
 0
VERTEX
 8
CILINDRO
 10
0
 20
0
 30
0
 70
128
 71
42
 72
2
 73
46
 74
46
 0
VERTEX
 8
CILINDRO
 10
0
 20
0
 30
0
 70
128
 71
1
 72
43
 73
47
 74
47
 0
VERTEX
 8
CILINDRO
 10
0
 20
0
 30
0
 70
128
 71
44
 72
45
 73
49
 74
48
 0
VERTEX
 8
CILINDRO
 10
0
 20
0
 30
0
 70
128
 71
46
 72
2
 73
50
 74
50
 0
VERTEX
 8
CILINDRO
 10
0
 20
0
 30
0
 70
128
 71
1
 72
47
 73
51
 74
51
 0
VERTEX
 8
CILINDRO
 10
0
 20
0
 30
0
 70
128
 71
48
 72
49
 73
53
 74
52
 0
VERTEX
 8
CILINDRO
 10
0
 20
0
 30
0
 70
128
 71
50
 72
2
 73
54
 74
54
 0
VERTEX
 8
CILINDRO
 10
0
 20
0
 30
0
 70
128
 71
1
 72
51
 73
55
 74
55
 0
VERTEX
 8
CILINDRO
 10
0
 20
0
 30
0
 70
128
 71
52
 72
53
 73
57
 74
56
 0
VERTEX
 8
CILINDRO
 10
0
 20
0
 30
0
 70
128
 71
54
 72
2
 73
58
 74
58
 0
VERTEX
 8
CILINDRO
 10
0
 20
0
 30
0
 70
128
 71
1
 72
55
 73
59
 74
59
 0
VERTEX
 8
CILINDRO
 10
0
 20
0
 30
0
 70
128
 71
56
 72
57
 73
61
 74
60
 0
VERTEX
 8
CILINDRO
 10
0
 20
0
 30
0
 70
128
 71
58
 72
2
 73
62
 74
62
 0
VERTEX
 8
CILINDRO
 10
0
 20
0
 30
0
 70
128
 71
1
 72
59
 73
63
 74
63
 0
VERTEX
 8
CILINDRO
 10
0
 20
0
 30
0
 70
128
 71
60
 72
61
 73
65
 74
64
 0
VERTEX
 8
CILINDRO
 10
0
 20
0
 30
0
 70
128
 71
62
 72
2
 73
66
 74
66
 0
VERTEX
 8
CILINDRO
 10
0
 20
0
 30
0
 70
128
 71
1
 72
63
 73
67
 74
67
 0
VERTEX
 8
CILINDRO
 10
0
 20
0
 30
0
 70
128
 71
64
 72
65
 73
69
 74
68
 0
VERTEX
 8
CILINDRO
 10
0
 20
0
 30
0
 70
128
 71
66
 72
2
 73
70
 74
70
 0
VERTEX
 8
CILINDRO
 10
0
 20
0
 30
0
 70
128
 71
1
 72
67
 73
71
 74
71
 0
VERTEX
 8
CILINDRO
 10
0
 20
0
 30
0
 70
128
 71
68
 72
69
 73
73
 74
72
 0
VERTEX
 8
CILINDRO
 10
0
 20
0
 30
0
 70
128
 71
70
 72
2
 73
74
 74
74
 0
VERTEX
 8
CILINDRO
 10
0
 20
0
 30
0
 70
128
 71
1
 72
71
 73
75
 74
75
 0
VERTEX
 8
CILINDRO
 10
0
 20
0
 30
0
 70
128
 71
72
 72
73
 73
77
 74
76
 0
VERTEX
 8
CILINDRO
 10
0
 20
0
 30
0
 70
128
 71
74
 72
2
 73
78
 74
78
 0
VERTEX
 8
CILINDRO
 10
0
 20
0
 30
0
 70
128
 71
1
 72
75
 73
79
 74
79
 0
VERTEX
 8
CILINDRO
 10
0
 20
0
 30
0
 70
128
 71
76
 72
77
 73
81
 74
80
 0
VERTEX
 8
CILINDRO
 10
0
 20
0
 30
0
 70
128
 71
78
 72
2
 73
82
 74
82
 0
VERTEX
 8
CILINDRO
 10
0
 20
0
 30
0
 70
128
 71
1
 72
79
 73
83
 74
83
 0
VERTEX
 8
CILINDRO
 10
0
 20
0
 30
0
 70
128
 71
80
 72
81
 73
85
 74
84
 0
VERTEX
 8
CILINDRO
 10
0
 20
0
 30
0
 70
128
 71
82
 72
2
 73
86
 74
86
 0
VERTEX
 8
CILINDRO
 10
0
 20
0
 30
0
 70
128
 71
1
 72
83
 73
87
 74
87
 0
VERTEX
 8
CILINDRO
 10
0
 20
0
 30
0
 70
128
 71
84
 72
85
 73
89
 74
88
 0
VERTEX
 8
CILINDRO
 10
0
 20
0
 30
0
 70
128
 71
86
 72
2
 73
90
 74
90
 0
VERTEX
 8
CILINDRO
 10
0
 20
0
 30
0
 70
128
 71
1
 72
87
 73
91
 74
91
 0
VERTEX
 8
CILINDRO
 10
0
 20
0
 30
0
 70
128
 71
88
 72
89
 73
93
 74
92
 0
VERTEX
 8
CILINDRO
 10
0
 20
0
 30
0
 70
128
 71
90
 72
2
 73
94
 74
94
 0
VERTEX
 8
CILINDRO
 10
0
 20
0
 30
0
 70
128
 71
1
 72
91
 73
95
 74
95
 0
VERTEX
 8
CILINDRO
 10
0
 20
0
 30
0
 70
128
 71
92
 72
93
 73
97
 74
96
 0
VERTEX
 8
CILINDRO
 10
0
 20
0
 30
0
 70
128
 71
94
 72
2
 73
98
 74
98
 0
VERTEX
 8
CILINDRO
 10
0
 20
0
 30
0
 70
128
 71
1
 72
95
 73
99
 74
99
 0
VERTEX
 8
CILINDRO
 10
0
 20
0
 30
0
 70
128
 71
96
 72
97
 73
101
 74
100
 0
VERTEX
 8
CILINDRO
 10
0
 20
0
 30
0
 70
128
 71
98
 72
2
 73
102
 74
102
 0
VERTEX
 8
CILINDRO
 10
0
 20
0
 30
0
 70
128
 71
1
 72
99
 73
103
 74
103
 0
VERTEX
 8
CILINDRO
 10
0
 20
0
 30
0
 70
128
 71
100
 72
101
 73
105
 74
104
 0
VERTEX
 8
CILINDRO
 10
0
 20
0
 30
0
 70
128
 71
102
 72
2
 73
106
 74
106
 0
VERTEX
 8
CILINDRO
 10
0
 20
0
 30
0
 70
128
 71
1
 72
103
 73
107
 74
107
 0
VERTEX
 8
CILINDRO
 10
0
 20
0
 30
0
 70
128
 71
104
 72
105
 73
109
 74
108
 0
VERTEX
 8
CILINDRO
 10
0
 20
0
 30
0
 70
128
 71
106
 72
2
 73
110
 74
110
 0
VERTEX
 8
CILINDRO
 10
0
 20
0
 30
0
 70
128
 71
1
 72
107
 73
111
 74
111
 0
VERTEX
 8
CILINDRO
 10
0
 20
0
 30
0
 70
128
 71
108
 72
109
 73
113
 74
112
 0
VERTEX
 8
CILINDRO
 10
0
 20
0
 30
0
 70
128
 71
110
 72
2
 73
114
 74
114
 0
VERTEX
 8
CILINDRO
 10
0
 20
0
 30
0
 70
128
 71
1
 72
111
 73
115
 74
115
 0
VERTEX
 8
CILINDRO
 10
0
 20
0
 30
0
 70
128
 71
112
 72
113
 73
117
 74
116
 0
VERTEX
 8
CILINDRO
 10
0
 20
0
 30
0
 70
128
 71
114
 72
2
 73
118
 74
118
 0
VERTEX
 8
CILINDRO
 10
0
 20
0
 30
0
 70
128
 71
1
 72
115
 73
119
 74
119
 0
VERTEX
 8
CILINDRO
 10
0
 20
0
 30
0
 70
128
 71
116
 72
117
 73
121
 74
120
 0
VERTEX
 8
CILINDRO
 10
0
 20
0
 30
0
 70
128
 71
118
 72
2
 73
122
 74
122
 0
VERTEX
 8
CILINDRO
 10
0
 20
0
 30
0
 70
128
 71
1
 72
119
 73
123
 74
123
 0
VERTEX
 8
CILINDRO
 10
0
 20
0
 30
0
 70
128
 71
120
 72
121
 73
125
 74
124
 0
VERTEX
 8
CILINDRO
 10
0
 20
0
 30
0
 70
128
 71
122
 72
2
 73
126
 74
126
 0
VERTEX
 8
CILINDRO
 10
0
 20
0
 30
0
 70
128
 71
1
 72
123
 73
127
 74
127
 0
VERTEX
 8
CILINDRO
 10
0
 20
0
 30
0
 70
128
 71
124
 72
125
 73
129
 74
128
 0
VERTEX
 8
CILINDRO
 10
0
 20
0
 30
0
 70
128
 71
126
 72
2
 73
130
 74
130
 0
VERTEX
 8
CILINDRO
 10
0
 20
0
 30
0
 70
128
 71
1
 72
127
 73
131
 74
131
 0
VERTEX
 8
CILINDRO
 10
0
 20
0
 30
0
 70
128
 71
128
 72
129
 73
133
 74
132
 0
VERTEX
 8
CILINDRO
 10
0
 20
0
 30
0
 70
128
 71
130
 72
2
 73
134
 74
134
 0
VERTEX
 8
CILINDRO
 10
0
 20
0
 30
0
 70
128
 71
1
 72
131
 73
135
 74
135
 0
VERTEX
 8
CILINDRO
 10
0
 20
0
 30
0
 70
128
 71
132
 72
133
 73
137
 74
136
 0
VERTEX
 8
CILINDRO
 10
0
 20
0
 30
0
 70
128
 71
134
 72
2
 73
138
 74
138
 0
VERTEX
 8
CILINDRO
 10
0
 20
0
 30
0
 70
128
 71
1
 72
135
 73
139
 74
139
 0
VERTEX
 8
CILINDRO
 10
0
 20
0
 30
0
 70
128
 71
136
 72
137
 73
141
 74
140
 0
VERTEX
 8
CILINDRO
 10
0
 20
0
 30
0
 70
128
 71
138
 72
2
 73
142
 74
142
 0
VERTEX
 8
CILINDRO
 10
0
 20
0
 30
0
 70
128
 71
1
 72
139
 73
143
 74
143
 0
VERTEX
 8
CILINDRO
 10
0
 20
0
 30
0
 70
128
 71
140
 72
141
 73
145
 74
144
 0
VERTEX
 8
CILINDRO
 10
0
 20
0
 30
0
 70
128
 71
142
 72
2
 73
146
 74
146
 0
VERTEX
 8
CILINDRO
 10
0
 20
0
 30
0
 70
128
 71
1
 72
143
 73
3
 74
3
 0
VERTEX
 8
CILINDRO
 10
0
 20
0
 30
0
 70
128
 71
144
 72
145
 73
5
 74
4
 0
VERTEX
 8
CILINDRO
 10
0
 20
0
 30
0
 70
128
 71
146
 72
2
 73
6
 74
6
 0
SEQEND
 0
POLYLINE
 8
CILINDRO_1
 66
1
 10
0.0
 20
0.0
 30
0.0
 70
64
 71
146
 72
108
 0
VERTEX
 8
CILINDRO_1
 10
-11.037
 20
-3.9997
 30
145.3478
 70
192
 0
VERTEX
 8
CILINDRO_1
 10
11.0355
 20
-3.9997
 30
145.3478
 70
192
 0
VERTEX
 8
CILINDRO_1
 10
-11.037
 20
-3.9997
 30
144.3473
 70
192
 0
VERTEX
 8
CILINDRO_1
 10
-11.037
 20
-3.9997
 30
144.3473
 70
192
 0
VERTEX
 8
CILINDRO_1
 10
11.0355
 20
-3.9997
 30
144.3473
 70
192
 0
VERTEX
 8
CILINDRO_1
 10
11.0355
 20
-3.9997
 30
144.3473
 70
192
 0
VERTEX
 8
CILINDRO_1
 10
-11.037
 20
-3.826
 30
144.3625
 70
192
 0
VERTEX
 8
CILINDRO_1
 10
-11.037
 20
-3.826
 30
144.3625
 70
192
 0
VERTEX
 8
CILINDRO_1
 10
11.0355
 20
-3.826
 30
144.3625
 70
192
 0
VERTEX
 8
CILINDRO_1
 10
11.0355
 20
-3.826
 30
144.3625
 70
192
 0
VERTEX
 8
CILINDRO_1
 10
-11.037
 20
-3.6576
 30
144.4076
 70
192
 0
VERTEX
 8
CILINDRO_1
 10
-11.037
 20
-3.6576
 30
144.4076
 70
192
 0
VERTEX
 8
CILINDRO_1
 10
11.0355
 20
-3.6576
 30
144.4076
 70
192
 0
VERTEX
 8
CILINDRO_1
 10
11.0355
 20
-3.6576
 30
144.4076
 70
192
 0
VERTEX
 8
CILINDRO_1
 10
-11.037
 20
-3.4995
 30
144.4813
 70
192
 0
VERTEX
 8
CILINDRO_1
 10
-11.037
 20
-3.4995
 30
144.4813
 70
192
 0
VERTEX
 8
CILINDRO_1
 10
11.0355
 20
-3.4995
 30
144.4813
 70
192
 0
VERTEX
 8
CILINDRO_1
 10
11.0355
 20
-3.4995
 30
144.4813
 70
192
 0
VERTEX
 8
CILINDRO_1
 10
-11.037
 20
-3.3566
 30
144.5814
 70
192
 0
VERTEX
 8
CILINDRO_1
 10
-11.037
 20
-3.3566
 30
144.5814
 70
192
 0
VERTEX
 8
CILINDRO_1
 10
11.0355
 20
-3.3566
 30
144.5814
 70
192
 0
VERTEX
 8
CILINDRO_1
 10
11.0355
 20
-3.3566
 30
144.5814
 70
192
 0
VERTEX
 8
CILINDRO_1
 10
-11.037
 20
-3.2333
 30
144.7047
 70
192
 0
VERTEX
 8
CILINDRO_1
 10
-11.037
 20
-3.2333
 30
144.7047
 70
192
 0
VERTEX
 8
CILINDRO_1
 10
11.0355
 20
-3.2333
 30
144.7047
 70
192
 0
VERTEX
 8
CILINDRO_1
 10
11.0355
 20
-3.2333
 30
144.7047
 70
192
 0
VERTEX
 8
CILINDRO_1
 10
-11.037
 20
-3.1333
 30
144.8475
 70
192
 0
VERTEX
 8
CILINDRO_1
 10
-11.037
 20
-3.1333
 30
144.8475
 70
192
 0
VERTEX
 8
CILINDRO_1
 10
11.0355
 20
-3.1333
 30
144.8475
 70
192
 0
VERTEX
 8
CILINDRO_1
 10
11.0355
 20
-3.1333
 30
144.8475
 70
192
 0
VERTEX
 8
CILINDRO_1
 10
-11.037
 20
-3.0596
 30
145.0056
 70
192
 0
VERTEX
 8
CILINDRO_1
 10
-11.037
 20
-3.0596
 30
145.0056
 70
192
 0
VERTEX
 8
CILINDRO_1
 10
11.0355
 20
-3.0596
 30
145.0056
 70
192
 0
VERTEX
 8
CILINDRO_1
 10
11.0355
 20
-3.0596
 30
145.0056
 70
192
 0
VERTEX
 8
CILINDRO_1
 10
-11.037
 20
-3.0144
 30
145.1741
 70
192
 0
VERTEX
 8
CILINDRO_1
 10
-11.037
 20
-3.0144
 30
145.1741
 70
192
 0
VERTEX
 8
CILINDRO_1
 10
11.0355
 20
-3.0144
 30
145.1741
 70
192
 0
VERTEX
 8
CILINDRO_1
 10
11.0355
 20
-3.0144
 30
145.1741
 70
192
 0
VERTEX
 8
CILINDRO_1
 10
-11.037
 20
-2.9992
 30
145.3478
 70
192
 0
VERTEX
 8
CILINDRO_1
 10
-11.037
 20
-2.9992
 30
145.3478
 70
192
 0
VERTEX
 8
CILINDRO_1
 10
11.0355
 20
-2.9992
 30
145.3478
 70
192
 0
VERTEX
 8
CILINDRO_1
 10
11.0355
 20
-2.9992
 30
145.3478
 70
192
 0
VERTEX
 8
CILINDRO_1
 10
-11.037
 20
-3.0144
 30
145.5215
 70
192
 0
VERTEX
 8
CILINDRO_1
 10
-11.037
 20
-3.0144
 30
145.5215
 70
192
 0
VERTEX
 8
CILINDRO_1
 10
11.0355
 20
-3.0144
 30
145.5215
 70
192
 0
VERTEX
 8
CILINDRO_1
 10
11.0355
 20
-3.0144
 30
145.5215
 70
192
 0
VERTEX
 8
CILINDRO_1
 10
-11.037
 20
-3.0596
 30
145.69
 70
192
 0
VERTEX
 8
CILINDRO_1
 10
-11.037
 20
-3.0596
 30
145.69
 70
192
 0
VERTEX
 8
CILINDRO_1
 10
11.0355
 20
-3.0596
 30
145.69
 70
192
 0
VERTEX
 8
CILINDRO_1
 10
11.0355
 20
-3.0596
 30
145.69
 70
192
 0
VERTEX
 8
CILINDRO_1
 10
-11.037
 20
-3.1333
 30
145.848
 70
192
 0
VERTEX
 8
CILINDRO_1
 10
-11.037
 20
-3.1333
 30
145.848
 70
192
 0
VERTEX
 8
CILINDRO_1
 10
11.0355
 20
-3.1333
 30
145.848
 70
192
 0
VERTEX
 8
CILINDRO_1
 10
11.0355
 20
-3.1333
 30
145.848
 70
192
 0
VERTEX
 8
CILINDRO_1
 10
-11.037
 20
-3.2333
 30
145.9909
 70
192
 0
VERTEX
 8
CILINDRO_1
 10
-11.037
 20
-3.2333
 30
145.9909
 70
192
 0
VERTEX
 8
CILINDRO_1
 10
11.0355
 20
-3.2333
 30
145.9909
 70
192
 0
VERTEX
 8
CILINDRO_1
 10
11.0355
 20
-3.2333
 30
145.9909
 70
192
 0
VERTEX
 8
CILINDRO_1
 10
-11.037
 20
-3.3566
 30
146.1142
 70
192
 0
VERTEX
 8
CILINDRO_1
 10
-11.037
 20
-3.3566
 30
146.1142
 70
192
 0
VERTEX
 8
CILINDRO_1
 10
11.0355
 20
-3.3566
 30
146.1142
 70
192
 0
VERTEX
 8
CILINDRO_1
 10
11.0355
 20
-3.3566
 30
146.1142
 70
192
 0
VERTEX
 8
CILINDRO_1
 10
-11.037
 20
-3.4995
 30
146.2142
 70
192
 0
VERTEX
 8
CILINDRO_1
 10
-11.037
 20
-3.4995
 30
146.2142
 70
192
 0
VERTEX
 8
CILINDRO_1
 10
11.0355
 20
-3.4995
 30
146.2142
 70
192
 0
VERTEX
 8
CILINDRO_1
 10
11.0355
 20
-3.4995
 30
146.2142
 70
192
 0
VERTEX
 8
CILINDRO_1
 10
-11.037
 20
-3.6576
 30
146.2879
 70
192
 0
VERTEX
 8
CILINDRO_1
 10
-11.037
 20
-3.6576
 30
146.2879
 70
192
 0
VERTEX
 8
CILINDRO_1
 10
11.0355
 20
-3.6576
 30
146.2879
 70
192
 0
VERTEX
 8
CILINDRO_1
 10
11.0355
 20
-3.6576
 30
146.2879
 70
192
 0
VERTEX
 8
CILINDRO_1
 10
-11.037
 20
-3.826
 30
146.3331
 70
192
 0
VERTEX
 8
CILINDRO_1
 10
-11.037
 20
-3.826
 30
146.3331
 70
192
 0
VERTEX
 8
CILINDRO_1
 10
11.0355
 20
-3.826
 30
146.3331
 70
192
 0
VERTEX
 8
CILINDRO_1
 10
11.0355
 20
-3.826
 30
146.3331
 70
192
 0
VERTEX
 8
CILINDRO_1
 10
-11.037
 20
-3.9997
 30
146.3483
 70
192
 0
VERTEX
 8
CILINDRO_1
 10
-11.037
 20
-3.9997
 30
146.3483
 70
192
 0
VERTEX
 8
CILINDRO_1
 10
11.0355
 20
-3.9997
 30
146.3483
 70
192
 0
VERTEX
 8
CILINDRO_1
 10
11.0355
 20
-3.9997
 30
146.3483
 70
192
 0
VERTEX
 8
CILINDRO_1
 10
-11.037
 20
-4.1735
 30
146.3331
 70
192
 0
VERTEX
 8
CILINDRO_1
 10
-11.037
 20
-4.1735
 30
146.3331
 70
192
 0
VERTEX
 8
CILINDRO_1
 10
11.0355
 20
-4.1735
 30
146.3331
 70
192
 0
VERTEX
 8
CILINDRO_1
 10
11.0355
 20
-4.1735
 30
146.3331
 70
192
 0
VERTEX
 8
CILINDRO_1
 10
-11.037
 20
-4.3419
 30
146.2879
 70
192
 0
VERTEX
 8
CILINDRO_1
 10
-11.037
 20
-4.3419
 30
146.2879
 70
192
 0
VERTEX
 8
CILINDRO_1
 10
11.0355
 20
-4.3419
 30
146.2879
 70
192
 0
VERTEX
 8
CILINDRO_1
 10
11.0355
 20
-4.3419
 30
146.2879
 70
192
 0
VERTEX
 8
CILINDRO_1
 10
-11.037
 20
-4.5
 30
146.2142
 70
192
 0
VERTEX
 8
CILINDRO_1
 10
-11.037
 20
-4.5
 30
146.2142
 70
192
 0
VERTEX
 8
CILINDRO_1
 10
11.0355
 20
-4.5
 30
146.2142
 70
192
 0
VERTEX
 8
CILINDRO_1
 10
11.0355
 20
-4.5
 30
146.2142
 70
192
 0
VERTEX
 8
CILINDRO_1
 10
-11.037
 20
-4.6429
 30
146.1142
 70
192
 0
VERTEX
 8
CILINDRO_1
 10
-11.037
 20
-4.6429
 30
146.1142
 70
192
 0
VERTEX
 8
CILINDRO_1
 10
11.0355
 20
-4.6429
 30
146.1142
 70
192
 0
VERTEX
 8
CILINDRO_1
 10
11.0355
 20
-4.6429
 30
146.1142
 70
192
 0
VERTEX
 8
CILINDRO_1
 10
-11.037
 20
-4.7662
 30
145.9909
 70
192
 0
VERTEX
 8
CILINDRO_1
 10
-11.037
 20
-4.7662
 30
145.9909
 70
192
 0
VERTEX
 8
CILINDRO_1
 10
11.0355
 20
-4.7662
 30
145.9909
 70
192
 0
VERTEX
 8
CILINDRO_1
 10
11.0355
 20
-4.7662
 30
145.9909
 70
192
 0
VERTEX
 8
CILINDRO_1
 10
-11.037
 20
-4.8662
 30
145.848
 70
192
 0
VERTEX
 8
CILINDRO_1
 10
-11.037
 20
-4.8662
 30
145.848
 70
192
 0
VERTEX
 8
CILINDRO_1
 10
11.0355
 20
-4.8662
 30
145.848
 70
192
 0
VERTEX
 8
CILINDRO_1
 10
11.0355
 20
-4.8662
 30
145.848
 70
192
 0
VERTEX
 8
CILINDRO_1
 10
-11.037
 20
-4.9399
 30
145.69
 70
192
 0
VERTEX
 8
CILINDRO_1
 10
-11.037
 20
-4.9399
 30
145.69
 70
192
 0
VERTEX
 8
CILINDRO_1
 10
11.0355
 20
-4.9399
 30
145.69
 70
192
 0
VERTEX
 8
CILINDRO_1
 10
11.0355
 20
-4.9399
 30
145.69
 70
192
 0
VERTEX
 8
CILINDRO_1
 10
-11.037
 20
-4.985
 30
145.5215
 70
192
 0
VERTEX
 8
CILINDRO_1
 10
-11.037
 20
-4.985
 30
145.5215
 70
192
 0
VERTEX
 8
CILINDRO_1
 10
11.0355
 20
-4.985
 30
145.5215
 70
192
 0
VERTEX
 8
CILINDRO_1
 10
11.0355
 20
-4.985
 30
145.5215
 70
192
 0
VERTEX
 8
CILINDRO_1
 10
-11.037
 20
-5.0002
 30
145.3478
 70
192
 0
VERTEX
 8
CILINDRO_1
 10
-11.037
 20
-5.0002
 30
145.3478
 70
192
 0
VERTEX
 8
CILINDRO_1
 10
11.0355
 20
-5.0002
 30
145.3478
 70
192
 0
VERTEX
 8
CILINDRO_1
 10
11.0355
 20
-5.0002
 30
145.3478
 70
192
 0
VERTEX
 8
CILINDRO_1
 10
-11.037
 20
-4.985
 30
145.1741
 70
192
 0
VERTEX
 8
CILINDRO_1
 10
-11.037
 20
-4.985
 30
145.1741
 70
192
 0
VERTEX
 8
CILINDRO_1
 10
11.0355
 20
-4.985
 30
145.1741
 70
192
 0
VERTEX
 8
CILINDRO_1
 10
11.0355
 20
-4.985
 30
145.1741
 70
192
 0
VERTEX
 8
CILINDRO_1
 10
-11.037
 20
-4.9399
 30
145.0056
 70
192
 0
VERTEX
 8
CILINDRO_1
 10
-11.037
 20
-4.9399
 30
145.0056
 70
192
 0
VERTEX
 8
CILINDRO_1
 10
11.0355
 20
-4.9399
 30
145.0056
 70
192
 0
VERTEX
 8
CILINDRO_1
 10
11.0355
 20
-4.9399
 30
145.0056
 70
192
 0
VERTEX
 8
CILINDRO_1
 10
-11.037
 20
-4.8662
 30
144.8475
 70
192
 0
VERTEX
 8
CILINDRO_1
 10
-11.037
 20
-4.8662
 30
144.8475
 70
192
 0
VERTEX
 8
CILINDRO_1
 10
11.0355
 20
-4.8662
 30
144.8475
 70
192
 0
VERTEX
 8
CILINDRO_1
 10
11.0355
 20
-4.8662
 30
144.8475
 70
192
 0
VERTEX
 8
CILINDRO_1
 10
-11.037
 20
-4.7662
 30
144.7047
 70
192
 0
VERTEX
 8
CILINDRO_1
 10
-11.037
 20
-4.7662
 30
144.7047
 70
192
 0
VERTEX
 8
CILINDRO_1
 10
11.0355
 20
-4.7662
 30
144.7047
 70
192
 0
VERTEX
 8
CILINDRO_1
 10
11.0355
 20
-4.7662
 30
144.7047
 70
192
 0
VERTEX
 8
CILINDRO_1
 10
-11.037
 20
-4.6429
 30
144.5814
 70
192
 0
VERTEX
 8
CILINDRO_1
 10
-11.037
 20
-4.6429
 30
144.5814
 70
192
 0
VERTEX
 8
CILINDRO_1
 10
11.0355
 20
-4.6429
 30
144.5814
 70
192
 0
VERTEX
 8
CILINDRO_1
 10
11.0355
 20
-4.6429
 30
144.5814
 70
192
 0
VERTEX
 8
CILINDRO_1
 10
-11.037
 20
-4.5
 30
144.4813
 70
192
 0
VERTEX
 8
CILINDRO_1
 10
-11.037
 20
-4.5
 30
144.4813
 70
192
 0
VERTEX
 8
CILINDRO_1
 10
11.0355
 20
-4.5
 30
144.4813
 70
192
 0
VERTEX
 8
CILINDRO_1
 10
11.0355
 20
-4.5
 30
144.4813
 70
192
 0
VERTEX
 8
CILINDRO_1
 10
-11.037
 20
-4.3419
 30
144.4076
 70
192
 0
VERTEX
 8
CILINDRO_1
 10
-11.037
 20
-4.3419
 30
144.4076
 70
192
 0
VERTEX
 8
CILINDRO_1
 10
11.0355
 20
-4.3419
 30
144.4076
 70
192
 0
VERTEX
 8
CILINDRO_1
 10
11.0355
 20
-4.3419
 30
144.4076
 70
192
 0
VERTEX
 8
CILINDRO_1
 10
-11.037
 20
-4.1735
 30
144.3625
 70
192
 0
VERTEX
 8
CILINDRO_1
 10
-11.037
 20
-4.1735
 30
144.3625
 70
192
 0
VERTEX
 8
CILINDRO_1
 10
11.0355
 20
-4.1735
 30
144.3625
 70
192
 0
VERTEX
 8
CILINDRO_1
 10
11.0355
 20
-4.1735
 30
144.3625
 70
192
 0
VERTEX
 8
CILINDRO_1
 10
0
 20
0
 30
0
 70
128
 71
1
 72
3
 73
7
 74
7
 0
VERTEX
 8
CILINDRO_1
 10
0
 20
0
 30
0
 70
128
 71
4
 72
5
 73
9
 74
8
 0
VERTEX
 8
CILINDRO_1
 10
0
 20
0
 30
0
 70
128
 71
6
 72
2
 73
10
 74
10
 0
VERTEX
 8
CILINDRO_1
 10
0
 20
0
 30
0
 70
128
 71
1
 72
7
 73
11
 74
11
 0
VERTEX
 8
CILINDRO_1
 10
0
 20
0
 30
0
 70
128
 71
8
 72
9
 73
13
 74
12
 0
VERTEX
 8
CILINDRO_1
 10
0
 20
0
 30
0
 70
128
 71
10
 72
2
 73
14
 74
14
 0
VERTEX
 8
CILINDRO_1
 10
0
 20
0
 30
0
 70
128
 71
1
 72
11
 73
15
 74
15
 0
VERTEX
 8
CILINDRO_1
 10
0
 20
0
 30
0
 70
128
 71
12
 72
13
 73
17
 74
16
 0
VERTEX
 8
CILINDRO_1
 10
0
 20
0
 30
0
 70
128
 71
14
 72
2
 73
18
 74
18
 0
VERTEX
 8
CILINDRO_1
 10
0
 20
0
 30
0
 70
128
 71
1
 72
15
 73
19
 74
19
 0
VERTEX
 8
CILINDRO_1
 10
0
 20
0
 30
0
 70
128
 71
16
 72
17
 73
21
 74
20
 0
VERTEX
 8
CILINDRO_1
 10
0
 20
0
 30
0
 70
128
 71
18
 72
2
 73
22
 74
22
 0
VERTEX
 8
CILINDRO_1
 10
0
 20
0
 30
0
 70
128
 71
1
 72
19
 73
23
 74
23
 0
VERTEX
 8
CILINDRO_1
 10
0
 20
0
 30
0
 70
128
 71
20
 72
21
 73
25
 74
24
 0
VERTEX
 8
CILINDRO_1
 10
0
 20
0
 30
0
 70
128
 71
22
 72
2
 73
26
 74
26
 0
VERTEX
 8
CILINDRO_1
 10
0
 20
0
 30
0
 70
128
 71
1
 72
23
 73
27
 74
27
 0
VERTEX
 8
CILINDRO_1
 10
0
 20
0
 30
0
 70
128
 71
24
 72
25
 73
29
 74
28
 0
VERTEX
 8
CILINDRO_1
 10
0
 20
0
 30
0
 70
128
 71
26
 72
2
 73
30
 74
30
 0
VERTEX
 8
CILINDRO_1
 10
0
 20
0
 30
0
 70
128
 71
1
 72
27
 73
31
 74
31
 0
VERTEX
 8
CILINDRO_1
 10
0
 20
0
 30
0
 70
128
 71
28
 72
29
 73
33
 74
32
 0
VERTEX
 8
CILINDRO_1
 10
0
 20
0
 30
0
 70
128
 71
30
 72
2
 73
34
 74
34
 0
VERTEX
 8
CILINDRO_1
 10
0
 20
0
 30
0
 70
128
 71
1
 72
31
 73
35
 74
35
 0
VERTEX
 8
CILINDRO_1
 10
0
 20
0
 30
0
 70
128
 71
32
 72
33
 73
37
 74
36
 0
VERTEX
 8
CILINDRO_1
 10
0
 20
0
 30
0
 70
128
 71
34
 72
2
 73
38
 74
38
 0
VERTEX
 8
CILINDRO_1
 10
0
 20
0
 30
0
 70
128
 71
1
 72
35
 73
39
 74
39
 0
VERTEX
 8
CILINDRO_1
 10
0
 20
0
 30
0
 70
128
 71
36
 72
37
 73
41
 74
40
 0
VERTEX
 8
CILINDRO_1
 10
0
 20
0
 30
0
 70
128
 71
38
 72
2
 73
42
 74
42
 0
VERTEX
 8
CILINDRO_1
 10
0
 20
0
 30
0
 70
128
 71
1
 72
39
 73
43
 74
43
 0
VERTEX
 8
CILINDRO_1
 10
0
 20
0
 30
0
 70
128
 71
40
 72
41
 73
45
 74
44
 0
VERTEX
 8
CILINDRO_1
 10
0
 20
0
 30
0
 70
128
 71
42
 72
2
 73
46
 74
46
 0
VERTEX
 8
CILINDRO_1
 10
0
 20
0
 30
0
 70
128
 71
1
 72
43
 73
47
 74
47
 0
VERTEX
 8
CILINDRO_1
 10
0
 20
0
 30
0
 70
128
 71
44
 72
45
 73
49
 74
48
 0
VERTEX
 8
CILINDRO_1
 10
0
 20
0
 30
0
 70
128
 71
46
 72
2
 73
50
 74
50
 0
VERTEX
 8
CILINDRO_1
 10
0
 20
0
 30
0
 70
128
 71
1
 72
47
 73
51
 74
51
 0
VERTEX
 8
CILINDRO_1
 10
0
 20
0
 30
0
 70
128
 71
48
 72
49
 73
53
 74
52
 0
VERTEX
 8
CILINDRO_1
 10
0
 20
0
 30
0
 70
128
 71
50
 72
2
 73
54
 74
54
 0
VERTEX
 8
CILINDRO_1
 10
0
 20
0
 30
0
 70
128
 71
1
 72
51
 73
55
 74
55
 0
VERTEX
 8
CILINDRO_1
 10
0
 20
0
 30
0
 70
128
 71
52
 72
53
 73
57
 74
56
 0
VERTEX
 8
CILINDRO_1
 10
0
 20
0
 30
0
 70
128
 71
54
 72
2
 73
58
 74
58
 0
VERTEX
 8
CILINDRO_1
 10
0
 20
0
 30
0
 70
128
 71
1
 72
55
 73
59
 74
59
 0
VERTEX
 8
CILINDRO_1
 10
0
 20
0
 30
0
 70
128
 71
56
 72
57
 73
61
 74
60
 0
VERTEX
 8
CILINDRO_1
 10
0
 20
0
 30
0
 70
128
 71
58
 72
2
 73
62
 74
62
 0
VERTEX
 8
CILINDRO_1
 10
0
 20
0
 30
0
 70
128
 71
1
 72
59
 73
63
 74
63
 0
VERTEX
 8
CILINDRO_1
 10
0
 20
0
 30
0
 70
128
 71
60
 72
61
 73
65
 74
64
 0
VERTEX
 8
CILINDRO_1
 10
0
 20
0
 30
0
 70
128
 71
62
 72
2
 73
66
 74
66
 0
VERTEX
 8
CILINDRO_1
 10
0
 20
0
 30
0
 70
128
 71
1
 72
63
 73
67
 74
67
 0
VERTEX
 8
CILINDRO_1
 10
0
 20
0
 30
0
 70
128
 71
64
 72
65
 73
69
 74
68
 0
VERTEX
 8
CILINDRO_1
 10
0
 20
0
 30
0
 70
128
 71
66
 72
2
 73
70
 74
70
 0
VERTEX
 8
CILINDRO_1
 10
0
 20
0
 30
0
 70
128
 71
1
 72
67
 73
71
 74
71
 0
VERTEX
 8
CILINDRO_1
 10
0
 20
0
 30
0
 70
128
 71
68
 72
69
 73
73
 74
72
 0
VERTEX
 8
CILINDRO_1
 10
0
 20
0
 30
0
 70
128
 71
70
 72
2
 73
74
 74
74
 0
VERTEX
 8
CILINDRO_1
 10
0
 20
0
 30
0
 70
128
 71
1
 72
71
 73
75
 74
75
 0
VERTEX
 8
CILINDRO_1
 10
0
 20
0
 30
0
 70
128
 71
72
 72
73
 73
77
 74
76
 0
VERTEX
 8
CILINDRO_1
 10
0
 20
0
 30
0
 70
128
 71
74
 72
2
 73
78
 74
78
 0
VERTEX
 8
CILINDRO_1
 10
0
 20
0
 30
0
 70
128
 71
1
 72
75
 73
79
 74
79
 0
VERTEX
 8
CILINDRO_1
 10
0
 20
0
 30
0
 70
128
 71
76
 72
77
 73
81
 74
80
 0
VERTEX
 8
CILINDRO_1
 10
0
 20
0
 30
0
 70
128
 71
78
 72
2
 73
82
 74
82
 0
VERTEX
 8
CILINDRO_1
 10
0
 20
0
 30
0
 70
128
 71
1
 72
79
 73
83
 74
83
 0
VERTEX
 8
CILINDRO_1
 10
0
 20
0
 30
0
 70
128
 71
80
 72
81
 73
85
 74
84
 0
VERTEX
 8
CILINDRO_1
 10
0
 20
0
 30
0
 70
128
 71
82
 72
2
 73
86
 74
86
 0
VERTEX
 8
CILINDRO_1
 10
0
 20
0
 30
0
 70
128
 71
1
 72
83
 73
87
 74
87
 0
VERTEX
 8
CILINDRO_1
 10
0
 20
0
 30
0
 70
128
 71
84
 72
85
 73
89
 74
88
 0
VERTEX
 8
CILINDRO_1
 10
0
 20
0
 30
0
 70
128
 71
86
 72
2
 73
90
 74
90
 0
VERTEX
 8
CILINDRO_1
 10
0
 20
0
 30
0
 70
128
 71
1
 72
87
 73
91
 74
91
 0
VERTEX
 8
CILINDRO_1
 10
0
 20
0
 30
0
 70
128
 71
88
 72
89
 73
93
 74
92
 0
VERTEX
 8
CILINDRO_1
 10
0
 20
0
 30
0
 70
128
 71
90
 72
2
 73
94
 74
94
 0
VERTEX
 8
CILINDRO_1
 10
0
 20
0
 30
0
 70
128
 71
1
 72
91
 73
95
 74
95
 0
VERTEX
 8
CILINDRO_1
 10
0
 20
0
 30
0
 70
128
 71
92
 72
93
 73
97
 74
96
 0
VERTEX
 8
CILINDRO_1
 10
0
 20
0
 30
0
 70
128
 71
94
 72
2
 73
98
 74
98
 0
VERTEX
 8
CILINDRO_1
 10
0
 20
0
 30
0
 70
128
 71
1
 72
95
 73
99
 74
99
 0
VERTEX
 8
CILINDRO_1
 10
0
 20
0
 30
0
 70
128
 71
96
 72
97
 73
101
 74
100
 0
VERTEX
 8
CILINDRO_1
 10
0
 20
0
 30
0
 70
128
 71
98
 72
2
 73
102
 74
102
 0
VERTEX
 8
CILINDRO_1
 10
0
 20
0
 30
0
 70
128
 71
1
 72
99
 73
103
 74
103
 0
VERTEX
 8
CILINDRO_1
 10
0
 20
0
 30
0
 70
128
 71
100
 72
101
 73
105
 74
104
 0
VERTEX
 8
CILINDRO_1
 10
0
 20
0
 30
0
 70
128
 71
102
 72
2
 73
106
 74
106
 0
VERTEX
 8
CILINDRO_1
 10
0
 20
0
 30
0
 70
128
 71
1
 72
103
 73
107
 74
107
 0
VERTEX
 8
CILINDRO_1
 10
0
 20
0
 30
0
 70
128
 71
104
 72
105
 73
109
 74
108
 0
VERTEX
 8
CILINDRO_1
 10
0
 20
0
 30
0
 70
128
 71
106
 72
2
 73
110
 74
110
 0
VERTEX
 8
CILINDRO_1
 10
0
 20
0
 30
0
 70
128
 71
1
 72
107
 73
111
 74
111
 0
VERTEX
 8
CILINDRO_1
 10
0
 20
0
 30
0
 70
128
 71
108
 72
109
 73
113
 74
112
 0
VERTEX
 8
CILINDRO_1
 10
0
 20
0
 30
0
 70
128
 71
110
 72
2
 73
114
 74
114
 0
VERTEX
 8
CILINDRO_1
 10
0
 20
0
 30
0
 70
128
 71
1
 72
111
 73
115
 74
115
 0
VERTEX
 8
CILINDRO_1
 10
0
 20
0
 30
0
 70
128
 71
112
 72
113
 73
117
 74
116
 0
VERTEX
 8
CILINDRO_1
 10
0
 20
0
 30
0
 70
128
 71
114
 72
2
 73
118
 74
118
 0
VERTEX
 8
CILINDRO_1
 10
0
 20
0
 30
0
 70
128
 71
1
 72
115
 73
119
 74
119
 0
VERTEX
 8
CILINDRO_1
 10
0
 20
0
 30
0
 70
128
 71
116
 72
117
 73
121
 74
120
 0
VERTEX
 8
CILINDRO_1
 10
0
 20
0
 30
0
 70
128
 71
118
 72
2
 73
122
 74
122
 0
VERTEX
 8
CILINDRO_1
 10
0
 20
0
 30
0
 70
128
 71
1
 72
119
 73
123
 74
123
 0
VERTEX
 8
CILINDRO_1
 10
0
 20
0
 30
0
 70
128
 71
120
 72
121
 73
125
 74
124
 0
VERTEX
 8
CILINDRO_1
 10
0
 20
0
 30
0
 70
128
 71
122
 72
2
 73
126
 74
126
 0
VERTEX
 8
CILINDRO_1
 10
0
 20
0
 30
0
 70
128
 71
1
 72
123
 73
127
 74
127
 0
VERTEX
 8
CILINDRO_1
 10
0
 20
0
 30
0
 70
128
 71
124
 72
125
 73
129
 74
128
 0
VERTEX
 8
CILINDRO_1
 10
0
 20
0
 30
0
 70
128
 71
126
 72
2
 73
130
 74
130
 0
VERTEX
 8
CILINDRO_1
 10
0
 20
0
 30
0
 70
128
 71
1
 72
127
 73
131
 74
131
 0
VERTEX
 8
CILINDRO_1
 10
0
 20
0
 30
0
 70
128
 71
128
 72
129
 73
133
 74
132
 0
VERTEX
 8
CILINDRO_1
 10
0
 20
0
 30
0
 70
128
 71
130
 72
2
 73
134
 74
134
 0
VERTEX
 8
CILINDRO_1
 10
0
 20
0
 30
0
 70
128
 71
1
 72
131
 73
135
 74
135
 0
VERTEX
 8
CILINDRO_1
 10
0
 20
0
 30
0
 70
128
 71
132
 72
133
 73
137
 74
136
 0
VERTEX
 8
CILINDRO_1
 10
0
 20
0
 30
0
 70
128
 71
134
 72
2
 73
138
 74
138
 0
VERTEX
 8
CILINDRO_1
 10
0
 20
0
 30
0
 70
128
 71
1
 72
135
 73
139
 74
139
 0
VERTEX
 8
CILINDRO_1
 10
0
 20
0
 30
0
 70
128
 71
136
 72
137
 73
141
 74
140
 0
VERTEX
 8
CILINDRO_1
 10
0
 20
0
 30
0
 70
128
 71
138
 72
2
 73
142
 74
142
 0
VERTEX
 8
CILINDRO_1
 10
0
 20
0
 30
0
 70
128
 71
1
 72
139
 73
143
 74
143
 0
VERTEX
 8
CILINDRO_1
 10
0
 20
0
 30
0
 70
128
 71
140
 72
141
 73
145
 74
144
 0
VERTEX
 8
CILINDRO_1
 10
0
 20
0
 30
0
 70
128
 71
142
 72
2
 73
146
 74
146
 0
VERTEX
 8
CILINDRO_1
 10
0
 20
0
 30
0
 70
128
 71
1
 72
143
 73
3
 74
3
 0
VERTEX
 8
CILINDRO_1
 10
0
 20
0
 30
0
 70
128
 71
144
 72
145
 73
5
 74
4
 0
VERTEX
 8
CILINDRO_1
 10
0
 20
0
 30
0
 70
128
 71
146
 72
2
 73
6
 74
6
 0
SEQEND
 0
POLYLINE
 8
CORNICE_DISPLAY
 66
1
 10
0.0
 20
0.0
 30
0.0
 70
64
 71
16
 72
17
 0
VERTEX
 8
CORNICE_DISPLAY
 10
-15.0001
 20
-0.3999
 30
159.7981
 70
192
 0
VERTEX
 8
CORNICE_DISPLAY
 10
-15.0001
 20
0.0001
 30
159.7981
 70
192
 0
VERTEX
 8
CORNICE_DISPLAY
 10
14.9999
 20
-0.3999
 30
159.7981
 70
192
 0
VERTEX
 8
CORNICE_DISPLAY
 10
14.9999
 20
0.0001
 30
159.7981
 70
192
 0
VERTEX
 8
CORNICE_DISPLAY
 10
14.9999
 20
-0.3999
 30
149.181
 70
192
 0
VERTEX
 8
CORNICE_DISPLAY
 10
14.9999
 20
0.0001
 30
149.181
 70
192
 0
VERTEX
 8
CORNICE_DISPLAY
 10
-15.0001
 20
-0.3999
 30
149.181
 70
192
 0
VERTEX
 8
CORNICE_DISPLAY
 10
-15.0001
 20
0.0001
 30
149.181
 70
192
 0
VERTEX
 8
CORNICE_DISPLAY
 10
-12.9001
 20
0.0001
 30
158.1983
 70
192
 0
VERTEX
 8
CORNICE_DISPLAY
 10
12.8999
 20
0.0001
 30
158.1983
 70
192
 0
VERTEX
 8
CORNICE_DISPLAY
 10
12.8999
 20
0.0001
 30
151.3982
 70
192
 0
VERTEX
 8
CORNICE_DISPLAY
 10
-12.9001
 20
0.0001
 30
151.3982
 70
192
 0
VERTEX
 8
CORNICE_DISPLAY
 10
-12.9001
 20
-0.3999
 30
158.1983
 70
192
 0
VERTEX
 8
CORNICE_DISPLAY
 10
12.8999
 20
-0.3999
 30
158.1983
 70
192
 0
VERTEX
 8
CORNICE_DISPLAY
 10
12.8999
 20
-0.3999
 30
151.3982
 70
192
 0
VERTEX
 8
CORNICE_DISPLAY
 10
-12.9001
 20
-0.3999
 30
151.3982
 70
192
 0
VERTEX
 8
CORNICE_DISPLAY
 10
0
 20
0
 30
0
 70
128
 71
1
 72
2
 73
4
 74
3
 0
VERTEX
 8
CORNICE_DISPLAY
 10
0
 20
0
 30
0
 70
128
 71
3
 72
4
 73
6
 74
5
 0
VERTEX
 8
CORNICE_DISPLAY
 10
0
 20
0
 30
0
 70
128
 71
5
 72
6
 73
8
 74
7
 0
VERTEX
 8
CORNICE_DISPLAY
 10
0
 20
0
 30
0
 70
128
 71
7
 72
8
 73
2
 74
1
 0
VERTEX
 8
CORNICE_DISPLAY
 10
0
 20
0
 30
0
 70
128
 71
15
 72
5
 73
7
 74
16
 0
VERTEX
 8
CORNICE_DISPLAY
 10
0
 20
0
 30
0
 70
128
 71
14
 72
3
 73
5
 74
15
 0
VERTEX
 8
CORNICE_DISPLAY
 10
0
 20
0
 30
0
 70
128
 71
9
 72
2
 73
8
 74
12
 0
VERTEX
 8
CORNICE_DISPLAY
 10
0
 20
0
 30
0
 70
128
 71
12
 72
8
 73
6
 74
11
 0
VERTEX
 8
CORNICE_DISPLAY
 10
0
 20
0
 30
0
 70
128
 71
11
 72
6
 73
4
 74
10
 0
VERTEX
 8
CORNICE_DISPLAY
 10
0
 20
0
 30
0
 70
128
 71
10
 72
4
 73
2
 74
9
 0
VERTEX
 8
CORNICE_DISPLAY
 10
0
 20
0
 30
0
 70
128
 71
16
 72
7
 73
1
 74
13
 0
VERTEX
 8
CORNICE_DISPLAY
 10
0
 20
0
 30
0
 70
128
 71
13
 72
1
 73
3
 74
14
 0
VERTEX
 8
CORNICE_DISPLAY
 10
0
 20
0
 30
0
 70
128
 71
14
 72
15
 73
11
 74
10
 0
VERTEX
 8
CORNICE_DISPLAY
 10
0
 20
0
 30
0
 70
128
 71
15
 72
16
 73
12
 74
11
 0
VERTEX
 8
CORNICE_DISPLAY
 10
0
 20
0
 30
0
 70
128
 71
13
 72
14
 73
10
 74
9
 0
VERTEX
 8
CORNICE_DISPLAY
 10
0
 20
0
 30
0
 70
128
 71
9
 72
12
 73
8
 74
2
 0
VERTEX
 8
CORNICE_DISPLAY
 10
0
 20
0
 30
0
 70
128
 71
13
 72
9
 73
12
 74
16
 0
SEQEND
 0
POLYLINE
 8
VETRO_DISPLAY
 66
1
 10
0.0
 20
0.0
 30
0.0
 70
64
 71
8
 72
6
 0
VERTEX
 8
VETRO_DISPLAY
 10
-29.6
 20
0.0001
 30
160.4401
 70
192
 0
VERTEX
 8
VETRO_DISPLAY
 10
-29.6
 20
0.4001
 30
160.4401
 70
192
 0
VERTEX
 8
VETRO_DISPLAY
 10
29.6
 20
0.0001
 30
160.4401
 70
192
 0
VERTEX
 8
VETRO_DISPLAY
 10
29.6
 20
0.4001
 30
160.4401
 70
192
 0
VERTEX
 8
VETRO_DISPLAY
 10
29.6
 20
0.0001
 30
149.181
 70
192
 0
VERTEX
 8
VETRO_DISPLAY
 10
29.6
 20
0.4001
 30
149.181
 70
192
 0
VERTEX
 8
VETRO_DISPLAY
 10
-29.6
 20
0.0001
 30
149.181
 70
192
 0
VERTEX
 8
VETRO_DISPLAY
 10
-29.6
 20
0.4001
 30
149.181
 70
192
 0
VERTEX
 8
VETRO_DISPLAY
 10
0
 20
0
 30
0
 70
128
 71
1
 72
2
 73
4
 74
3
 0
VERTEX
 8
VETRO_DISPLAY
 10
0
 20
0
 30
0
 70
128
 71
3
 72
4
 73
6
 74
5
 0
VERTEX
 8
VETRO_DISPLAY
 10
0
 20
0
 30
0
 70
128
 71
5
 72
6
 73
8
 74
7
 0
VERTEX
 8
VETRO_DISPLAY
 10
0
 20
0
 30
0
 70
128
 71
7
 72
8
 73
2
 74
1
 0
VERTEX
 8
VETRO_DISPLAY
 10
0
 20
0
 30
0
 70
128
 71
2
 72
8
 73
6
 74
4
 0
VERTEX
 8
VETRO_DISPLAY
 10
0
 20
0
 30
0
 70
128
 71
7
 72
1
 73
3
 74
5
 0
SEQEND
 0
POLYLINE
 8
CUBO_1
 66
1
 10
0.0
 20
0.0
 30
0.0
 70
64
 71
58
 72
54
 0
VERTEX
 8
CUBO_1
 10
-29.5999
 20
0.4008
 30
149.1809
 70
192
 0
VERTEX
 8
CUBO_1
 10
-29.5999
 20
0.4008
 30
160.3403
 70
192
 0
VERTEX
 8
CUBO_1
 10
29.5999
 20
0.4008
 30
149.1809
 70
192
 0
VERTEX
 8
CUBO_1
 10
29.5999
 20
0.4008
 30
160.3403
 70
192
 0
VERTEX
 8
CUBO_1
 10
29.5999
 20
2.2402
 30
149.1809
 70
192
 0
VERTEX
 8
CUBO_1
 10
29.5999
 20
2.2402
 30
160.3403
 70
192
 0
VERTEX
 8
CUBO_1
 10
-29.5999
 20
2.2402
 30
149.1809
 70
192
 0
VERTEX
 8
CUBO_1
 10
-29.5999
 20
2.2402
 30
160.3403
 70
192
 0
VERTEX
 8
CUBO_1
 10
-29.5999
 20
1.14
 30
149.1809
 70
192
 0
VERTEX
 8
CUBO_1
 10
29.5999
 20
1.14
 30
149.1809
 70
192
 0
VERTEX
 8
CUBO_1
 10
29.5999
 20
2.2402
 30
102.1982
 70
192
 0
VERTEX
 8
CUBO_1
 10
-29.5999
 20
2.2402
 30
102.1982
 70
192
 0
VERTEX
 8
CUBO_1
 10
-29.5999
 20
1.14
 30
102.1982
 70
192
 0
VERTEX
 8
CUBO_1
 10
29.5999
 20
1.14
 30
102.1982
 70
192
 0
VERTEX
 8
CUBO_1
 10
29.5999
 20
3.784
 30
149.1809
 70
192
 0
VERTEX
 8
CUBO_1
 10
-29.5999
 20
3.784
 30
149.1809
 70
192
 0
VERTEX
 8
CUBO_1
 10
29.5999
 20
3.784
 30
102.1982
 70
192
 0
VERTEX
 8
CUBO_1
 10
-29.5999
 20
3.784
 30
102.1982
 70
192
 0
VERTEX
 8
CUBO_1
 10
27.6578
 20
1.14
 30
149.1809
 70
192
 0
VERTEX
 8
CUBO_1
 10
27.6578
 20
1.14
 30
102.1982
 70
192
 0
VERTEX
 8
CUBO_1
 10
-29.5999
 20
1.14
 30
147.9782
 70
192
 0
VERTEX
 8
CUBO_1
 10
27.6578
 20
1.14
 30
147.9782
 70
192
 0
VERTEX
 8
CUBO_1
 10
29.5999
 20
1.14
 30
147.9782
 70
192
 0
VERTEX
 8
CUBO_1
 10
-27.6531
 20
1.14
 30
147.9782
 70
192
 0
VERTEX
 8
CUBO_1
 10
-27.6531
 20
1.14
 30
102.1982
 70
192
 0
VERTEX
 8
CUBO_1
 10
-27.6531
 20
1.14
 30
149.1809
 70
192
 0
VERTEX
 8
CUBO_1
 10
27.6578
 20
0.3988
 30
102.1982
 70
192
 0
VERTEX
 8
CUBO_1
 10
27.6578
 20
0.3988
 30
147.9782
 70
192
 0
VERTEX
 8
CUBO_1
 10
-27.6531
 20
0.3988
 30
147.9782
 70
192
 0
VERTEX
 8
CUBO_1
 10
-27.6531
 20
0.3988
 30
102.1982
 70
192
 0
VERTEX
 8
CUBO_1
 10
-27.6531
 20
3.784
 30
149.221
 70
192
 0
VERTEX
 8
CUBO_1
 10
27.6578
 20
2.24
 30
102.1982
 70
192
 0
VERTEX
 8
CUBO_1
 10
29.5999
 20
2.2402
 30
102.1982
 70
192
 0
VERTEX
 8
CUBO_1
 10
-27.6531
 20
3.784
 30
102.1982
 70
192
 0
VERTEX
 8
CUBO_1
 10
-27.6531
 20
2.2402
 30
149.221
 70
192
 0
VERTEX
 8
CUBO_1
 10
27.6578
 20
2.2402
 30
100.8619
 70
192
 0
VERTEX
 8
CUBO_1
 10
27.6578
 20
1.14
 30
100.8619
 70
192
 0
VERTEX
 8
CUBO_1
 10
-27.6531
 20
1.14
 30
100.8619
 70
192
 0
VERTEX
 8
CUBO_1
 10
27.6578
 20
3.6669
 30
149.1809
 70
192
 0
VERTEX
 8
CUBO_1
 10
27.6578
 20
3.6669
 30
147.9782
 70
192
 0
VERTEX
 8
CUBO_1
 10
-27.6531
 20
3.6669
 30
147.9782
 70
192
 0
VERTEX
 8
CUBO_1
 10
-27.6531
 20
3.6669
 30
149.1809
 70
192
 0
VERTEX
 8
CUBO_1
 10
27.6578
 20
2.2402
 30
100.8619
 70
192
 0
VERTEX
 8
CUBO_1
 10
27.6578
 20
0.4008
 30
149.1809
 70
192
 0
VERTEX
 8
CUBO_1
 10
27.6578
 20
0.4008
 30
160.3403
 70
192
 0
VERTEX
 8
CUBO_1
 10
27.6578
 20
2.2402
 30
160.3403
 70
192
 0
VERTEX
 8
CUBO_1
 10
27.6578
 20
2.2402
 30
149.221
 70
192
 0
VERTEX
 8
CUBO_1
 10
27.6578
 20
3.784
 30
149.221
 70
192
 0
VERTEX
 8
CUBO_1
 10
27.6578
 20
3.784
 30
102.1982
 70
192
 0
VERTEX
 8
CUBO_1
 10
27.6578
 20
3.784
 30
100.8619
 70
192
 0
VERTEX
 8
CUBO_1
 10
-27.6531
 20
2.2402
 30
100.8619
 70
192
 0
VERTEX
 8
CUBO_1
 10
-27.6531
 20
0.4008
 30
149.1809
 70
192
 0
VERTEX
 8
CUBO_1
 10
-27.6531
 20
0.4008
 30
160.3403
 70
192
 0
VERTEX
 8
CUBO_1
 10
-27.6531
 20
2.2402
 30
160.3403
 70
192
 0
VERTEX
 8
CUBO_1
 10
-27.6531
 20
3.784
 30
100.8619
 70
192
 0
VERTEX
 8
CUBO_1
 10
-27.6531
 20
2.24
 30
102.1982
 70
192
 0
VERTEX
 8
CUBO_1
 10
-29.5999
 20
2.2402
 30
102.1982
 70
192
 0
VERTEX
 8
CUBO_1
 10
-27.6531
 20
2.2402
 30
100.8619
 70
192
 0
VERTEX
 8
CUBO_1
 10
0
 20
0
 30
0
 70
128
 71
3
 72
4
 73
10
 74
10
 0
VERTEX
 8
CUBO_1
 10
0
 20
0
 30
0
 70
128
 71
10
 72
4
 73
6
 74
5
 0
VERTEX
 8
CUBO_1
 10
0
 20
0
 30
0
 70
128
 71
9
 72
7
 73
8
 74
2
 0
VERTEX
 8
CUBO_1
 10
0
 20
0
 30
0
 70
128
 71
2
 72
1
 73
9
 74
9
 0
VERTEX
 8
CUBO_1
 10
0
 20
0
 30
0
 70
128
 71
12
 72
7
 73
21
 74
13
 0
VERTEX
 8
CUBO_1
 10
0
 20
0
 30
0
 70
128
 71
7
 72
9
 73
21
 74
21
 0
VERTEX
 8
CUBO_1
 10
0
 20
0
 30
0
 70
128
 71
11
 72
14
 73
23
 74
5
 0
VERTEX
 8
CUBO_1
 10
0
 20
0
 30
0
 70
128
 71
23
 72
10
 73
5
 74
5
 0
VERTEX
 8
CUBO_1
 10
0
 20
0
 30
0
 70
128
 71
20
 72
14
 73
33
 74
32
 0
VERTEX
 8
CUBO_1
 10
0
 20
0
 30
0
 70
128
 71
49
 72
34
 73
55
 74
50
 0
VERTEX
 8
CUBO_1
 10
0
 20
0
 30
0
 70
128
 71
38
 72
37
 73
43
 74
51
 0
VERTEX
 8
CUBO_1
 10
0
 20
0
 30
0
 70
128
 71
44
 72
3
 73
10
 74
19
 0
VERTEX
 8
CUBO_1
 10
0
 20
0
 30
0
 70
128
 71
26
 72
9
 73
1
 74
52
 0
VERTEX
 8
CUBO_1
 10
0
 20
0
 30
0
 70
128
 71
19
 72
26
 73
52
 74
44
 0
VERTEX
 8
CUBO_1
 10
0
 20
0
 30
0
 70
128
 71
1
 72
2
 73
53
 74
52
 0
VERTEX
 8
CUBO_1
 10
0
 20
0
 30
0
 70
128
 71
5
 72
6
 73
46
 74
47
 0
VERTEX
 8
CUBO_1
 10
0
 20
0
 30
0
 70
128
 71
2
 72
8
 73
54
 74
53
 0
VERTEX
 8
CUBO_1
 10
0
 20
0
 30
0
 70
128
 71
13
 72
21
 73
24
 74
25
 0
VERTEX
 8
CUBO_1
 10
0
 20
0
 30
0
 70
128
 71
17
 72
15
 73
48
 74
49
 0
VERTEX
 8
CUBO_1
 10
0
 20
0
 30
0
 70
128
 71
17
 72
11
 73
5
 74
15
 0
VERTEX
 8
CUBO_1
 10
0
 20
0
 30
0
 70
128
 71
15
 72
5
 73
47
 74
48
 0
VERTEX
 8
CUBO_1
 10
0
 20
0
 30
0
 70
128
 71
16
 72
7
 73
12
 74
18
 0
VERTEX
 8
CUBO_1
 10
0
 20
0
 30
0
 70
128
 71
53
 72
45
 73
44
 74
52
 0
VERTEX
 8
CUBO_1
 10
0
 20
0
 30
0
 70
128
 71
19
 72
10
 73
23
 74
22
 0
VERTEX
 8
CUBO_1
 10
0
 20
0
 30
0
 70
128
 71
21
 72
9
 73
26
 74
24
 0
VERTEX
 8
CUBO_1
 10
0
 20
0
 30
0
 70
128
 71
23
 72
14
 73
20
 74
22
 0
VERTEX
 8
CUBO_1
 10
0
 20
0
 30
0
 70
128
 71
29
 72
28
 73
27
 74
30
 0
VERTEX
 8
CUBO_1
 10
0
 20
0
 30
0
 70
128
 71
42
 72
39
 73
40
 74
41
 0
VERTEX
 8
CUBO_1
 10
0
 20
0
 30
0
 70
128
 71
29
 72
24
 73
22
 74
28
 0
VERTEX
 8
CUBO_1
 10
0
 20
0
 30
0
 70
128
 71
28
 72
22
 73
20
 74
27
 0
VERTEX
 8
CUBO_1
 10
0
 20
0
 30
0
 70
128
 71
27
 72
20
 73
25
 74
30
 0
VERTEX
 8
CUBO_1
 10
0
 20
0
 30
0
 70
128
 71
30
 72
25
 73
24
 74
29
 0
VERTEX
 8
CUBO_1
 10
0
 20
0
 30
0
 70
128
 71
33
 72
17
 73
49
 74
32
 0
VERTEX
 8
CUBO_1
 10
0
 20
0
 30
0
 70
128
 71
36
 72
37
 73
20
 74
32
 0
VERTEX
 8
CUBO_1
 10
0
 20
0
 30
0
 70
128
 71
38
 72
25
 73
20
 74
37
 0
VERTEX
 8
CUBO_1
 10
0
 20
0
 30
0
 70
128
 71
35
 72
7
 73
16
 74
31
 0
VERTEX
 8
CUBO_1
 10
0
 20
0
 30
0
 70
128
 71
54
 72
8
 73
7
 74
35
 0
VERTEX
 8
CUBO_1
 10
0
 20
0
 30
0
 70
128
 71
49
 72
50
 73
36
 74
32
 0
VERTEX
 8
CUBO_1
 10
0
 20
0
 30
0
 70
128
 71
51
 72
43
 73
50
 74
55
 0
VERTEX
 8
CUBO_1
 10
0
 20
0
 30
0
 70
128
 71
54
 72
46
 73
45
 74
53
 0
VERTEX
 8
CUBO_1
 10
0
 20
0
 30
0
 70
128
 71
42
 72
26
 73
19
 74
39
 0
VERTEX
 8
CUBO_1
 10
0
 20
0
 30
0
 70
128
 71
39
 72
19
 73
22
 74
40
 0
VERTEX
 8
CUBO_1
 10
0
 20
0
 30
0
 70
128
 71
40
 72
22
 73
24
 74
41
 0
VERTEX
 8
CUBO_1
 10
0
 20
0
 30
0
 70
128
 71
41
 72
24
 73
26
 74
42
 0
VERTEX
 8
CUBO_1
 10
0
 20
0
 30
0
 70
128
 71
45
 72
4
 73
3
 74
44
 0
VERTEX
 8
CUBO_1
 10
0
 20
0
 30
0
 70
128
 71
46
 72
54
 73
35
 74
47
 0
VERTEX
 8
CUBO_1
 10
0
 20
0
 30
0
 70
128
 71
46
 72
6
 73
4
 74
45
 0
VERTEX
 8
CUBO_1
 10
0
 20
0
 30
0
 70
128
 71
48
 72
31
 73
34
 74
49
 0
VERTEX
 8
CUBO_1
 10
0
 20
0
 30
0
 70
128
 71
47
 72
35
 73
31
 74
48
 0
VERTEX
 8
CUBO_1
 10
0
 20
0
 30
0
 70
128
 71
31
 72
16
 73
18
 74
34
 0
VERTEX
 8
CUBO_1
 10
0
 20
0
 30
0
 70
128
 71
13
 72
25
 73
56
 74
57
 0
VERTEX
 8
CUBO_1
 10
0
 20
0
 30
0
 70
128
 71
55
 72
34
 73
56
 74
58
 0
VERTEX
 8
CUBO_1
 10
0
 20
0
 30
0
 70
128
 71
56
 72
34
 73
18
 74
57
 0
VERTEX
 8
CUBO_1
 10
0
 20
0
 30
0
 70
128
 71
56
 72
25
 73
38
 74
58
 0
SEQEND
 0
POLYLINE
 8
FORNO
 66
1
 10
0.0
 20
0.0
 30
0.0
 70
64
 71
12
 72
12
 0
VERTEX
 8
FORNO
 10
-26.9201
 20
3.7902
 30
102.1
 70
192
 0
VERTEX
 8
FORNO
 10
-26.9201
 20
0.8502
 30
159.0504
 70
192
 0
VERTEX
 8
FORNO
 10
26.9201
 20
3.7902
 30
102.1
 70
192
 0
VERTEX
 8
FORNO
 10
26.9201
 20
0.8502
 30
159.0504
 70
192
 0
VERTEX
 8
FORNO
 10
26.9201
 20
53.7902
 30
102.1
 70
192
 0
VERTEX
 8
FORNO
 10
26.9201
 20
53.7902
 30
153.2161
 70
192
 0
VERTEX
 8
FORNO
 10
-26.9201
 20
53.7902
 30
102.1
 70
192
 0
VERTEX
 8
FORNO
 10
-26.9201
 20
53.7902
 30
153.2161
 70
192
 0
VERTEX
 8
FORNO
 10
-26.9201
 20
0.8502
 30
149.2503
 70
192
 0
VERTEX
 8
FORNO
 10
26.9201
 20
0.8502
 30
149.2503
 70
192
 0
VERTEX
 8
FORNO
 10
-26.9201
 20
3.9003
 30
149.2485
 70
192
 0
VERTEX
 8
FORNO
 10
26.9201
 20
3.9003
 30
149.2485
 70
192
 0
VERTEX
 8
FORNO
 10
0
 20
0
 30
0
 70
128
 71
1
 72
11
 73
12
 74
3
 0
VERTEX
 8
FORNO
 10
0
 20
0
 30
0
 70
128
 71
5
 72
3
 73
12
 74
6
 0
VERTEX
 8
FORNO
 10
0
 20
0
 30
0
 70
128
 71
5
 72
6
 73
8
 74
7
 0
VERTEX
 8
FORNO
 10
0
 20
0
 30
0
 70
128
 71
7
 72
8
 73
11
 74
1
 0
VERTEX
 8
FORNO
 10
0
 20
0
 30
0
 70
128
 71
2
 72
8
 73
6
 74
4
 0
VERTEX
 8
FORNO
 10
0
 20
0
 30
0
 70
128
 71
7
 72
1
 73
3
 74
5
 0
VERTEX
 8
FORNO
 10
0
 20
0
 30
0
 70
128
 71
12
 72
10
 73
6
 74
6
 0
VERTEX
 8
FORNO
 10
0
 20
0
 30
0
 70
128
 71
8
 72
2
 73
9
 74
9
 0
VERTEX
 8
FORNO
 10
0
 20
0
 30
0
 70
128
 71
9
 72
2
 73
4
 74
10
 0
VERTEX
 8
FORNO
 10
0
 20
0
 30
0
 70
128
 71
10
 72
4
 73
6
 74
6
 0
VERTEX
 8
FORNO
 10
0
 20
0
 30
0
 70
128
 71
8
 72
9
 73
11
 74
11
 0
VERTEX
 8
FORNO
 10
0
 20
0
 30
0
 70
128
 71
11
 72
9
 73
10
 74
12
 0
SEQEND
 0
ENDSEC
 0
EOF
